ISO-10303-21;
HEADER;
/* Generated by software containing ST-Developer
 * from STEP Tools, Inc. (www.steptools.com) 
 */
/* OPTION: using custom schema-name function */

FILE_DESCRIPTION(
/* description */ ('3-D model version:1'),
/* implementation_level */ '2;1');

FILE_NAME(
/* name */ '327R09-18 100VM-TH  1025',
/* time_stamp */ '2015-10-28T13:51:53+01:00',
/* author */ ('InteractiveCad'),
/* organization */ ('AB Sandvik Coromant'),
/* preprocessor_version */ 'ST-DEVELOPER v15',
/* originating_system */ 'SIEMENS PLM Software NX 8.5',
/* authorisation */ '');

FILE_SCHEMA (('AP203_CONFIGURATION_CONTROLLED_3D_DESIGN_OF_MECHANICAL_PARTS_AND_ASSEMBLIES_MIM_LF { 1 0 10303 403 2 1 2}'));
ENDSEC;

DATA;
#10=SHAPE_REPRESENTATION_RELATIONSHIP('None',
'relationship between 327R09_18_100VM_TH_SIM-None and 327R09_18_100VM_
TH_SIM-None',#92,#11);
#11=ADVANCED_BREP_SHAPE_REPRESENTATION('327R09_18_100VM_TH_SIM-None',(#114,
#115),#305);
#12=CC_DESIGN_APPROVAL(#24,(#82));
#13=CC_DESIGN_APPROVAL(#25,(#84));
#14=CC_DESIGN_APPROVAL(#26,(#31));
#15=APPROVAL_PERSON_ORGANIZATION(#69,#24,#18);
#16=APPROVAL_PERSON_ORGANIZATION(#70,#25,#19);
#17=APPROVAL_PERSON_ORGANIZATION(#71,#26,#20);
#18=APPROVAL_ROLE('approver');
#19=APPROVAL_ROLE('approver');
#20=APPROVAL_ROLE('approver');
#21=APPROVAL_DATE_TIME(#39,#24);
#22=APPROVAL_DATE_TIME(#40,#25);
#23=APPROVAL_DATE_TIME(#41,#26);
#24=APPROVAL(#27,' ');
#25=APPROVAL(#28,' ');
#26=APPROVAL(#29,' ');
#27=APPROVAL_STATUS('not_yet_approved');
#28=APPROVAL_STATUS('not_yet_approved');
#29=APPROVAL_STATUS('not_yet_approved');
#30=CC_DESIGN_SECURITY_CLASSIFICATION(#31,(#84));
#31=SECURITY_CLASSIFICATION(' ',' ',#32);
#32=SECURITY_CLASSIFICATION_LEVEL('confidential');
#33=CC_DESIGN_DATE_AND_TIME_ASSIGNMENT(#37,#35,(#82));
#34=CC_DESIGN_DATE_AND_TIME_ASSIGNMENT(#38,#36,(#31));
#35=DATE_TIME_ROLE('creation_date');
#36=DATE_TIME_ROLE('classification_date');
#37=DATE_AND_TIME(#52,#42);
#38=DATE_AND_TIME(#53,#43);
#39=DATE_AND_TIME(#54,#44);
#40=DATE_AND_TIME(#55,#45);
#41=DATE_AND_TIME(#56,#46);
#42=LOCAL_TIME(0,0,0.,#47);
#43=LOCAL_TIME(0,0,0.,#48);
#44=LOCAL_TIME(0,0,0.,#49);
#45=LOCAL_TIME(0,0,0.,#50);
#46=LOCAL_TIME(0,0,0.,#51);
#47=COORDINATED_UNIVERSAL_TIME_OFFSET(0,0,.BEHIND.);
#48=COORDINATED_UNIVERSAL_TIME_OFFSET(0,0,.BEHIND.);
#49=COORDINATED_UNIVERSAL_TIME_OFFSET(0,0,.BEHIND.);
#50=COORDINATED_UNIVERSAL_TIME_OFFSET(0,0,.BEHIND.);
#51=COORDINATED_UNIVERSAL_TIME_OFFSET(0,0,.BEHIND.);
#52=CALENDAR_DATE(0,1,1);
#53=CALENDAR_DATE(0,1,1);
#54=CALENDAR_DATE(0,1,1);
#55=CALENDAR_DATE(0,1,1);
#56=CALENDAR_DATE(0,1,1);
#57=CC_DESIGN_PERSON_AND_ORGANIZATION_ASSIGNMENT(#65,#61,(#82,#84));
#58=CC_DESIGN_PERSON_AND_ORGANIZATION_ASSIGNMENT(#66,#62,(#86));
#59=CC_DESIGN_PERSON_AND_ORGANIZATION_ASSIGNMENT(#67,#63,(#84));
#60=CC_DESIGN_PERSON_AND_ORGANIZATION_ASSIGNMENT(#68,#64,(#31));
#61=PERSON_AND_ORGANIZATION_ROLE('creator');
#62=PERSON_AND_ORGANIZATION_ROLE('design_owner');
#63=PERSON_AND_ORGANIZATION_ROLE('design_supplier');
#64=PERSON_AND_ORGANIZATION_ROLE('classification_officer');
#65=PERSON_AND_ORGANIZATION(#79,#72);
#66=PERSON_AND_ORGANIZATION(#79,#73);
#67=PERSON_AND_ORGANIZATION(#79,#74);
#68=PERSON_AND_ORGANIZATION(#79,#75);
#69=PERSON_AND_ORGANIZATION(#79,#76);
#70=PERSON_AND_ORGANIZATION(#79,#77);
#71=PERSON_AND_ORGANIZATION(#79,#78);
#72=ORGANIZATION(' ',' ',' ');
#73=ORGANIZATION(' ',' ',' ');
#74=ORGANIZATION(' ',' ',' ');
#75=ORGANIZATION(' ',' ',' ');
#76=ORGANIZATION(' ',' ',' ');
#77=ORGANIZATION(' ',' ',' ');
#78=ORGANIZATION(' ',' ',' ');
#79=PERSON(' ',' ',' ',(' '),$,$);
#80=SHAPE_DEFINITION_REPRESENTATION(#81,#92);
#81=PRODUCT_DEFINITION_SHAPE('','',#82);
#82=PRODUCT_DEFINITION(' ','',#84,#83);
#83=DESIGN_CONTEXT('',#91,'design');
#84=PRODUCT_DEFINITION_FORMATION_WITH_SPECIFIED_SOURCE(' ',' ',#86,
 .NOT_KNOWN.);
#85=PRODUCT_RELATED_PRODUCT_CATEGORY('detail','',(#86));
#86=PRODUCT('327R09_18_100VM_TH_SIM','327R09_18_100VM_TH_SIM',' ',(#89));
#87=PRODUCT_CATEGORY('part',' ');
#88=PRODUCT_CATEGORY(' ','');
#89=MECHANICAL_CONTEXT(' ',#91,'mechanical');
#90=APPLICATION_PROTOCOL_DEFINITION('international standard',
'config_control_design',2010,#91);
#91=APPLICATION_CONTEXT(
'configuration controlled 3D designs of mechanical parts and assemblie
s');
#92=SHAPE_REPRESENTATION('327R09_18_100VM_TH_SIM-None',(#215),#305);
#93=PLANE('',#227);
#94=PLANE('',#233);
#95=FACE_OUTER_BOUND('',#162,.T.);
#96=FACE_OUTER_BOUND('',#167,.T.);
#97=PRESENTATION_LAYER_ASSIGNMENT('1','Layer 1',(#114,#115));
#98=STYLED_ITEM('',(#100),#114);
#99=STYLED_ITEM('',(#101),#115);
#100=PRESENTATION_STYLE_ASSIGNMENT((#102));
#101=PRESENTATION_STYLE_ASSIGNMENT((#103));
#102=SURFACE_STYLE_USAGE(.BOTH.,#104);
#103=SURFACE_STYLE_USAGE(.BOTH.,#105);
#104=SURFACE_SIDE_STYLE('',(#106));
#105=SURFACE_SIDE_STYLE('',(#107));
#106=SURFACE_STYLE_FILL_AREA(#108);
#107=SURFACE_STYLE_FILL_AREA(#109);
#108=FILL_AREA_STYLE('',(#110));
#109=FILL_AREA_STYLE('',(#111));
#110=FILL_AREA_STYLE_COLOUR('',#112);
#111=FILL_AREA_STYLE_COLOUR('',#113);
#112=COLOUR_RGB('TLS_CUT',0.8,0.8,0.8);
#113=COLOUR_RGB('TLS_NOCUT',0.499992370489052,0.499992370489052,0.499992370489052);
#114=MANIFOLD_SOLID_BREP('',#116);
#115=MANIFOLD_SOLID_BREP('',#117);
#116=CLOSED_SHELL('',(#122,#123,#124,#125));
#117=CLOSED_SHELL('',(#126,#127,#128,#129,#130,#131));
#118=CYLINDRICAL_SURFACE('',#220,8.85);
#119=CYLINDRICAL_SURFACE('',#223,7.66);
#120=CYLINDRICAL_SURFACE('',#226,7.36);
#121=CYLINDRICAL_SURFACE('',#231,7.66);
#122=ADVANCED_FACE('',(#136,#137),#132,.T.);
#123=ADVANCED_FACE('',(#138,#139),#118,.T.);
#124=ADVANCED_FACE('',(#140,#141),#133,.T.);
#125=ADVANCED_FACE('',(#142,#143),#119,.F.);
#126=ADVANCED_FACE('',(#144,#145),#120,.T.);
#127=ADVANCED_FACE('',(#95),#93,.T.);
#128=ADVANCED_FACE('',(#146,#147),#134,.T.);
#129=ADVANCED_FACE('',(#148,#149),#121,.T.);
#130=ADVANCED_FACE('',(#96),#94,.T.);
#131=ADVANCED_FACE('',(#150,#151),#135,.T.);
#132=CONICAL_SURFACE('',#218,6.96206461974993,60.);
#133=CONICAL_SURFACE('',#222,8.85,60.);
#134=CONICAL_SURFACE('',#229,8.85,60.);
#135=CONICAL_SURFACE('',#234,6.96206461974993,60.);
#136=FACE_BOUND('',#152,.T.);
#137=FACE_BOUND('',#153,.T.);
#138=FACE_BOUND('',#154,.T.);
#139=FACE_BOUND('',#155,.T.);
#140=FACE_BOUND('',#156,.T.);
#141=FACE_BOUND('',#157,.T.);
#142=FACE_BOUND('',#158,.T.);
#143=FACE_BOUND('',#159,.T.);
#144=FACE_BOUND('',#160,.T.);
#145=FACE_BOUND('',#161,.T.);
#146=FACE_BOUND('',#163,.T.);
#147=FACE_BOUND('',#164,.T.);
#148=FACE_BOUND('',#165,.T.);
#149=FACE_BOUND('',#166,.T.);
#150=FACE_BOUND('',#168,.T.);
#151=FACE_BOUND('',#169,.T.);
#152=EDGE_LOOP('',(#170));
#153=EDGE_LOOP('',(#171));
#154=EDGE_LOOP('',(#172));
#155=EDGE_LOOP('',(#173));
#156=EDGE_LOOP('',(#174));
#157=EDGE_LOOP('',(#175));
#158=EDGE_LOOP('',(#176));
#159=EDGE_LOOP('',(#177));
#160=EDGE_LOOP('',(#178));
#161=EDGE_LOOP('',(#179));
#162=EDGE_LOOP('',(#180));
#163=EDGE_LOOP('',(#181));
#164=EDGE_LOOP('',(#182));
#165=EDGE_LOOP('',(#183));
#166=EDGE_LOOP('',(#184));
#167=EDGE_LOOP('',(#185));
#168=EDGE_LOOP('',(#186));
#169=EDGE_LOOP('',(#187));
#170=ORIENTED_EDGE('',*,*,#197,.T.);
#171=ORIENTED_EDGE('',*,*,#198,.F.);
#172=ORIENTED_EDGE('',*,*,#199,.T.);
#173=ORIENTED_EDGE('',*,*,#197,.F.);
#174=ORIENTED_EDGE('',*,*,#199,.F.);
#175=ORIENTED_EDGE('',*,*,#200,.F.);
#176=ORIENTED_EDGE('',*,*,#198,.T.);
#177=ORIENTED_EDGE('',*,*,#200,.T.);
#178=ORIENTED_EDGE('',*,*,#201,.T.);
#179=ORIENTED_EDGE('',*,*,#202,.F.);
#180=ORIENTED_EDGE('',*,*,#201,.F.);
#181=ORIENTED_EDGE('',*,*,#203,.F.);
#182=ORIENTED_EDGE('',*,*,#202,.T.);
#183=ORIENTED_EDGE('',*,*,#204,.T.);
#184=ORIENTED_EDGE('',*,*,#203,.T.);
#185=ORIENTED_EDGE('',*,*,#205,.T.);
#186=ORIENTED_EDGE('',*,*,#204,.F.);
#187=ORIENTED_EDGE('',*,*,#205,.F.);
#188=VERTEX_POINT('',#277);
#189=VERTEX_POINT('',#279);
#190=VERTEX_POINT('',#282);
#191=VERTEX_POINT('',#285);
#192=VERTEX_POINT('',#289);
#193=VERTEX_POINT('',#291);
#194=VERTEX_POINT('',#295);
#195=VERTEX_POINT('',#298);
#196=VERTEX_POINT('',#301);
#197=EDGE_CURVE('',#188,#188,#206,.T.);
#198=EDGE_CURVE('',#189,#189,#207,.T.);
#199=EDGE_CURVE('',#190,#190,#208,.T.);
#200=EDGE_CURVE('',#191,#191,#209,.T.);
#201=EDGE_CURVE('',#192,#192,#210,.T.);
#202=EDGE_CURVE('',#193,#193,#211,.T.);
#203=EDGE_CURVE('',#194,#194,#212,.T.);
#204=EDGE_CURVE('',#195,#195,#213,.T.);
#205=EDGE_CURVE('',#196,#196,#214,.T.);
#206=CIRCLE('',#216,8.85);
#207=CIRCLE('',#217,7.66);
#208=CIRCLE('',#219,8.85);
#209=CIRCLE('',#221,7.66);
#210=CIRCLE('',#224,7.36);
#211=CIRCLE('',#225,7.36);
#212=CIRCLE('',#228,7.66);
#213=CIRCLE('',#230,7.66);
#214=CIRCLE('',#232,6.96206461974993);
#215=AXIS2_PLACEMENT_3D('',#275,#235,#236);
#216=AXIS2_PLACEMENT_3D('',#276,#237,#238);
#217=AXIS2_PLACEMENT_3D('',#278,#239,#240);
#218=AXIS2_PLACEMENT_3D('',#280,#241,#242);
#219=AXIS2_PLACEMENT_3D('',#281,#243,#244);
#220=AXIS2_PLACEMENT_3D('',#283,#245,#246);
#221=AXIS2_PLACEMENT_3D('',#284,#247,#248);
#222=AXIS2_PLACEMENT_3D('',#286,#249,#250);
#223=AXIS2_PLACEMENT_3D('',#287,#251,#252);
#224=AXIS2_PLACEMENT_3D('',#288,#253,#254);
#225=AXIS2_PLACEMENT_3D('',#290,#255,#256);
#226=AXIS2_PLACEMENT_3D('',#292,#257,#258);
#227=AXIS2_PLACEMENT_3D('',#293,#259,#260);
#228=AXIS2_PLACEMENT_3D('',#294,#261,#262);
#229=AXIS2_PLACEMENT_3D('',#296,#263,#264);
#230=AXIS2_PLACEMENT_3D('',#297,#265,#266);
#231=AXIS2_PLACEMENT_3D('',#299,#267,#268);
#232=AXIS2_PLACEMENT_3D('',#300,#269,#270);
#233=AXIS2_PLACEMENT_3D('',#302,#271,#272);
#234=AXIS2_PLACEMENT_3D('',#303,#273,#274);
#235=DIRECTION('',(0.,0.,1.));
#236=DIRECTION('',(1.,0.,0.));
#237=DIRECTION('',(0.,0.,-1.));
#238=DIRECTION('',(-1.,0.,0.));
#239=DIRECTION('',(0.,0.,-1.));
#240=DIRECTION('',(1.,0.,0.));
#241=DIRECTION('',(0.,0.,1.));
#242=DIRECTION('',(1.,0.,-1.24691678805228E-017));
#243=DIRECTION('',(0.,0.,-1.));
#244=DIRECTION('',(-1.,0.,0.));
#245=DIRECTION('',(0.,0.,-1.));
#246=DIRECTION('',(-1.,0.,0.));
#247=DIRECTION('',(0.,0.,1.));
#248=DIRECTION('',(-1.,0.,0.));
#249=DIRECTION('',(0.,0.,-1.));
#250=DIRECTION('',(-1.,0.,1.2953871403616E-017));
#251=DIRECTION('',(0.,0.,-1.));
#252=DIRECTION('',(-1.,0.,0.));
#253=DIRECTION('',(0.,0.,-1.));
#254=DIRECTION('',(-1.,0.,0.));
#255=DIRECTION('',(0.,0.,-1.));
#256=DIRECTION('',(-1.,0.,0.));
#257=DIRECTION('',(0.,0.,-1.));
#258=DIRECTION('',(-1.,0.,0.));
#259=DIRECTION('',(0.,0.,1.));
#260=DIRECTION('',(1.,0.,0.));
#261=DIRECTION('',(0.,0.,-1.));
#262=DIRECTION('',(-1.,0.,0.));
#263=DIRECTION('',(0.,0.,-1.));
#264=DIRECTION('',(-1.,0.,1.2953871403616E-017));
#265=DIRECTION('',(0.,0.,1.));
#266=DIRECTION('',(1.,0.,0.));
#267=DIRECTION('',(0.,0.,-1.));
#268=DIRECTION('',(-1.,0.,0.));
#269=DIRECTION('',(0.,0.,-1.));
#270=DIRECTION('',(-1.,0.,0.));
#271=DIRECTION('',(0.,0.,-1.));
#272=DIRECTION('',(-1.,0.,0.));
#273=DIRECTION('',(0.,0.,1.));
#274=DIRECTION('',(1.,0.,-1.24691678805228E-017));
#275=CARTESIAN_POINT('',(0.,0.,0.));
#276=CARTESIAN_POINT('',(0.,0.,-4.76));
#277=CARTESIAN_POINT('',(-8.85,0.,-4.76));
#278=CARTESIAN_POINT('',(0.,0.,-5.44704682033566));
#279=CARTESIAN_POINT('',(7.66,0.,-5.44704682033566));
#280=CARTESIAN_POINT('',(0.,0.,-5.85));
#281=CARTESIAN_POINT('',(0.,0.,-4.64));
#282=CARTESIAN_POINT('',(-8.85,0.,-4.64));
#283=CARTESIAN_POINT('',(0.,0.,-5.85));
#284=CARTESIAN_POINT('',(0.,0.,-3.95295317966434));
#285=CARTESIAN_POINT('',(-7.66,0.,-3.95295317966434));
#286=CARTESIAN_POINT('',(0.,0.,-4.64));
#287=CARTESIAN_POINT('',(0.,0.,0.));
#288=CARTESIAN_POINT('',(0.,0.,-8.67361737988404E-016));
#289=CARTESIAN_POINT('',(-7.36,0.,-8.67361737988404E-016));
#290=CARTESIAN_POINT('',(0.,0.,-3.77974809890746));
#291=CARTESIAN_POINT('',(-7.36,0.,-3.77974809890746));
#292=CARTESIAN_POINT('',(0.,0.,-5.85));
#293=CARTESIAN_POINT('',(0.,7.36,-7.6552197264571E-016));
#294=CARTESIAN_POINT('',(0.,0.,-3.95295317966434));
#295=CARTESIAN_POINT('',(-7.66,0.,-3.95295317966434));
#296=CARTESIAN_POINT('',(0.,0.,-4.64));
#297=CARTESIAN_POINT('',(0.,0.,-5.44704682033566));
#298=CARTESIAN_POINT('',(7.66,0.,-5.44704682033566));
#299=CARTESIAN_POINT('',(0.,0.,0.));
#300=CARTESIAN_POINT('',(0.,0.,-5.85));
#301=CARTESIAN_POINT('',(-6.96206461974993,0.,-5.85));
#302=CARTESIAN_POINT('',(0.,6.56,-5.85));
#303=CARTESIAN_POINT('',(0.,0.,-5.85));
#304=MECHANICAL_DESIGN_GEOMETRIC_PRESENTATION_REPRESENTATION('',(#98,#99),
#305);
#305=(
GEOMETRIC_REPRESENTATION_CONTEXT(3)
GLOBAL_UNCERTAINTY_ASSIGNED_CONTEXT((#306))
GLOBAL_UNIT_ASSIGNED_CONTEXT((#312,#308,#307))
REPRESENTATION_CONTEXT('327R09_18_100VM_TH_SIM',
'TOP_LEVEL_ASSEMBLY_PART')
);
#306=UNCERTAINTY_MEASURE_WITH_UNIT(LENGTH_MEASURE(2.E-005),#312,
'DISTANCE_ACCURACY_VALUE','Maximum Tolerance applied to model');
#307=(
NAMED_UNIT(*)
SI_UNIT($,.STERADIAN.)
SOLID_ANGLE_UNIT()
);
#308=(
CONVERSION_BASED_UNIT('DEGREE',#310)
NAMED_UNIT(#309)
PLANE_ANGLE_UNIT()
);
#309=DIMENSIONAL_EXPONENTS(0.,0.,0.,0.,0.,0.,0.);
#310=PLANE_ANGLE_MEASURE_WITH_UNIT(PLANE_ANGLE_MEASURE(0.0174532925),#311);
#311=(
NAMED_UNIT(*)
PLANE_ANGLE_UNIT()
SI_UNIT($,.RADIAN.)
);
#312=(
LENGTH_UNIT()
NAMED_UNIT(*)
SI_UNIT(.MILLI.,.METRE.)
);
ENDSEC;
END-ISO-10303-21;
