ISO-10303-21;
HEADER;
/* Generated by software containing ST-Developer
 * from STEP Tools, Inc. (www.steptools.com) 
 */
/* OPTION: using custom schema-name function */

FILE_DESCRIPTION(
/* description */ ('3-D model version:1'),
/* implementation_level */ '2;1');

FILE_NAME(
/* name */ '327R06-12 11WH-TH   1025',
/* time_stamp */ '2015-10-28T13:51:12+01:00',
/* author */ ('InteractiveCad'),
/* organization */ ('AB Sandvik Coromant'),
/* preprocessor_version */ 'ST-DEVELOPER v15',
/* originating_system */ 'SIEMENS PLM Software NX 8.5',
/* authorisation */ '');

FILE_SCHEMA (('AP203_CONFIGURATION_CONTROLLED_3D_DESIGN_OF_MECHANICAL_PARTS_AND_ASSEMBLIES_MIM_LF { 1 0 10303 403 2 1 2}'));
ENDSEC;

DATA;
#10=SHAPE_REPRESENTATION_RELATIONSHIP('None',
'relationship between 327R06_12_11WH_TH_SIM-None and 327R06_12_11WH_TH
_SIM-None',#92,#11);
#11=ADVANCED_BREP_SHAPE_REPRESENTATION('327R06_12_11WH_TH_SIM-None',(#114,
#115),#265);
#12=CC_DESIGN_APPROVAL(#24,(#82));
#13=CC_DESIGN_APPROVAL(#25,(#84));
#14=CC_DESIGN_APPROVAL(#26,(#31));
#15=APPROVAL_PERSON_ORGANIZATION(#69,#24,#18);
#16=APPROVAL_PERSON_ORGANIZATION(#70,#25,#19);
#17=APPROVAL_PERSON_ORGANIZATION(#71,#26,#20);
#18=APPROVAL_ROLE('approver');
#19=APPROVAL_ROLE('approver');
#20=APPROVAL_ROLE('approver');
#21=APPROVAL_DATE_TIME(#39,#24);
#22=APPROVAL_DATE_TIME(#40,#25);
#23=APPROVAL_DATE_TIME(#41,#26);
#24=APPROVAL(#27,' ');
#25=APPROVAL(#28,' ');
#26=APPROVAL(#29,' ');
#27=APPROVAL_STATUS('not_yet_approved');
#28=APPROVAL_STATUS('not_yet_approved');
#29=APPROVAL_STATUS('not_yet_approved');
#30=CC_DESIGN_SECURITY_CLASSIFICATION(#31,(#84));
#31=SECURITY_CLASSIFICATION(' ',' ',#32);
#32=SECURITY_CLASSIFICATION_LEVEL('confidential');
#33=CC_DESIGN_DATE_AND_TIME_ASSIGNMENT(#37,#35,(#82));
#34=CC_DESIGN_DATE_AND_TIME_ASSIGNMENT(#38,#36,(#31));
#35=DATE_TIME_ROLE('creation_date');
#36=DATE_TIME_ROLE('classification_date');
#37=DATE_AND_TIME(#52,#42);
#38=DATE_AND_TIME(#53,#43);
#39=DATE_AND_TIME(#54,#44);
#40=DATE_AND_TIME(#55,#45);
#41=DATE_AND_TIME(#56,#46);
#42=LOCAL_TIME(0,0,0.,#47);
#43=LOCAL_TIME(0,0,0.,#48);
#44=LOCAL_TIME(0,0,0.,#49);
#45=LOCAL_TIME(0,0,0.,#50);
#46=LOCAL_TIME(0,0,0.,#51);
#47=COORDINATED_UNIVERSAL_TIME_OFFSET(0,0,.BEHIND.);
#48=COORDINATED_UNIVERSAL_TIME_OFFSET(0,0,.BEHIND.);
#49=COORDINATED_UNIVERSAL_TIME_OFFSET(0,0,.BEHIND.);
#50=COORDINATED_UNIVERSAL_TIME_OFFSET(0,0,.BEHIND.);
#51=COORDINATED_UNIVERSAL_TIME_OFFSET(0,0,.BEHIND.);
#52=CALENDAR_DATE(0,1,1);
#53=CALENDAR_DATE(0,1,1);
#54=CALENDAR_DATE(0,1,1);
#55=CALENDAR_DATE(0,1,1);
#56=CALENDAR_DATE(0,1,1);
#57=CC_DESIGN_PERSON_AND_ORGANIZATION_ASSIGNMENT(#65,#61,(#82,#84));
#58=CC_DESIGN_PERSON_AND_ORGANIZATION_ASSIGNMENT(#66,#62,(#86));
#59=CC_DESIGN_PERSON_AND_ORGANIZATION_ASSIGNMENT(#67,#63,(#84));
#60=CC_DESIGN_PERSON_AND_ORGANIZATION_ASSIGNMENT(#68,#64,(#31));
#61=PERSON_AND_ORGANIZATION_ROLE('creator');
#62=PERSON_AND_ORGANIZATION_ROLE('design_owner');
#63=PERSON_AND_ORGANIZATION_ROLE('design_supplier');
#64=PERSON_AND_ORGANIZATION_ROLE('classification_officer');
#65=PERSON_AND_ORGANIZATION(#79,#72);
#66=PERSON_AND_ORGANIZATION(#79,#73);
#67=PERSON_AND_ORGANIZATION(#79,#74);
#68=PERSON_AND_ORGANIZATION(#79,#75);
#69=PERSON_AND_ORGANIZATION(#79,#76);
#70=PERSON_AND_ORGANIZATION(#79,#77);
#71=PERSON_AND_ORGANIZATION(#79,#78);
#72=ORGANIZATION(' ',' ',' ');
#73=ORGANIZATION(' ',' ',' ');
#74=ORGANIZATION(' ',' ',' ');
#75=ORGANIZATION(' ',' ',' ');
#76=ORGANIZATION(' ',' ',' ');
#77=ORGANIZATION(' ',' ',' ');
#78=ORGANIZATION(' ',' ',' ');
#79=PERSON(' ',' ',' ',(' '),$,$);
#80=SHAPE_DEFINITION_REPRESENTATION(#81,#92);
#81=PRODUCT_DEFINITION_SHAPE('','',#82);
#82=PRODUCT_DEFINITION(' ','',#84,#83);
#83=DESIGN_CONTEXT('',#91,'design');
#84=PRODUCT_DEFINITION_FORMATION_WITH_SPECIFIED_SOURCE(' ',' ',#86,
 .NOT_KNOWN.);
#85=PRODUCT_RELATED_PRODUCT_CATEGORY('detail','',(#86));
#86=PRODUCT('327R06_12_11WH_TH_SIM','327R06_12_11WH_TH_SIM',' ',(#89));
#87=PRODUCT_CATEGORY('part',' ');
#88=PRODUCT_CATEGORY(' ','');
#89=MECHANICAL_CONTEXT(' ',#91,'mechanical');
#90=APPLICATION_PROTOCOL_DEFINITION('international standard',
'config_control_design',2010,#91);
#91=APPLICATION_CONTEXT(
'configuration controlled 3D designs of mechanical parts and assemblie
s');
#92=SHAPE_REPRESENTATION('327R06_12_11WH_TH_SIM-None',(#193),#265);
#93=PLANE('',#203);
#94=PLANE('',#207);
#95=FACE_OUTER_BOUND('',#152,.T.);
#96=FACE_OUTER_BOUND('',#155,.T.);
#97=PRESENTATION_LAYER_ASSIGNMENT('1','Layer 1',(#114,#115));
#98=STYLED_ITEM('',(#100),#114);
#99=STYLED_ITEM('',(#101),#115);
#100=PRESENTATION_STYLE_ASSIGNMENT((#102));
#101=PRESENTATION_STYLE_ASSIGNMENT((#103));
#102=SURFACE_STYLE_USAGE(.BOTH.,#104);
#103=SURFACE_STYLE_USAGE(.BOTH.,#105);
#104=SURFACE_SIDE_STYLE('',(#106));
#105=SURFACE_SIDE_STYLE('',(#107));
#106=SURFACE_STYLE_FILL_AREA(#108);
#107=SURFACE_STYLE_FILL_AREA(#109);
#108=FILL_AREA_STYLE('',(#110));
#109=FILL_AREA_STYLE('',(#111));
#110=FILL_AREA_STYLE_COLOUR('',#112);
#111=FILL_AREA_STYLE_COLOUR('',#113);
#112=COLOUR_RGB('TLS_CUT',0.8,0.8,0.8);
#113=COLOUR_RGB('TLS_NOCUT',0.499992370489052,0.499992370489052,0.499992370489052);
#114=MANIFOLD_SOLID_BREP('',#116);
#115=MANIFOLD_SOLID_BREP('',#117);
#116=CLOSED_SHELL('',(#121,#122,#123,#124));
#117=CLOSED_SHELL('',(#125,#126,#127,#128));
#118=CYLINDRICAL_SURFACE('',#201,4.37);
#119=CYLINDRICAL_SURFACE('',#205,4.37);
#120=TOROIDAL_SURFACE('',#198,5.53,0.32);
#121=ADVANCED_FACE('',(#132,#133),#129,.T.);
#122=ADVANCED_FACE('',(#134,#135),#120,.T.);
#123=ADVANCED_FACE('',(#136,#137),#130,.T.);
#124=ADVANCED_FACE('',(#138,#139),#118,.F.);
#125=ADVANCED_FACE('',(#95),#93,.T.);
#126=ADVANCED_FACE('',(#140,#141),#119,.T.);
#127=ADVANCED_FACE('',(#96),#94,.T.);
#128=ADVANCED_FACE('',(#142,#143),#131,.T.);
#129=CONICAL_SURFACE('',#196,4.37,62.4999999999999);
#130=CONICAL_SURFACE('',#200,5.67775955623521,62.5);
#131=CONICAL_SURFACE('',#208,4.37,4.99999999999998);
#132=FACE_BOUND('',#144,.T.);
#133=FACE_BOUND('',#145,.T.);
#134=FACE_BOUND('',#146,.T.);
#135=FACE_BOUND('',#147,.T.);
#136=FACE_BOUND('',#148,.T.);
#137=FACE_BOUND('',#149,.T.);
#138=FACE_BOUND('',#150,.T.);
#139=FACE_BOUND('',#151,.T.);
#140=FACE_BOUND('',#153,.T.);
#141=FACE_BOUND('',#154,.T.);
#142=FACE_BOUND('',#156,.T.);
#143=FACE_BOUND('',#157,.T.);
#144=EDGE_LOOP('',(#158));
#145=EDGE_LOOP('',(#159));
#146=EDGE_LOOP('',(#160));
#147=EDGE_LOOP('',(#161));
#148=EDGE_LOOP('',(#162));
#149=EDGE_LOOP('',(#163));
#150=EDGE_LOOP('',(#164));
#151=EDGE_LOOP('',(#165));
#152=EDGE_LOOP('',(#166));
#153=EDGE_LOOP('',(#167));
#154=EDGE_LOOP('',(#168));
#155=EDGE_LOOP('',(#169));
#156=EDGE_LOOP('',(#170));
#157=EDGE_LOOP('',(#171));
#158=ORIENTED_EDGE('',*,*,#179,.T.);
#159=ORIENTED_EDGE('',*,*,#180,.F.);
#160=ORIENTED_EDGE('',*,*,#181,.T.);
#161=ORIENTED_EDGE('',*,*,#179,.F.);
#162=ORIENTED_EDGE('',*,*,#182,.F.);
#163=ORIENTED_EDGE('',*,*,#181,.F.);
#164=ORIENTED_EDGE('',*,*,#180,.T.);
#165=ORIENTED_EDGE('',*,*,#182,.T.);
#166=ORIENTED_EDGE('',*,*,#183,.T.);
#167=ORIENTED_EDGE('',*,*,#184,.T.);
#168=ORIENTED_EDGE('',*,*,#183,.F.);
#169=ORIENTED_EDGE('',*,*,#185,.T.);
#170=ORIENTED_EDGE('',*,*,#185,.F.);
#171=ORIENTED_EDGE('',*,*,#184,.F.);
#172=VERTEX_POINT('',#243);
#173=VERTEX_POINT('',#245);
#174=VERTEX_POINT('',#248);
#175=VERTEX_POINT('',#251);
#176=VERTEX_POINT('',#255);
#177=VERTEX_POINT('',#258);
#178=VERTEX_POINT('',#261);
#179=EDGE_CURVE('',#172,#172,#186,.T.);
#180=EDGE_CURVE('',#173,#173,#187,.T.);
#181=EDGE_CURVE('',#174,#174,#188,.T.);
#182=EDGE_CURVE('',#175,#175,#189,.T.);
#183=EDGE_CURVE('',#176,#176,#190,.T.);
#184=EDGE_CURVE('',#177,#177,#191,.T.);
#185=EDGE_CURVE('',#178,#178,#192,.T.);
#186=CIRCLE('',#194,5.67775955623521);
#187=CIRCLE('',#195,4.37);
#188=CIRCLE('',#197,5.67775955623521);
#189=CIRCLE('',#199,4.37);
#190=CIRCLE('',#202,4.37);
#191=CIRCLE('',#204,4.37);
#192=CIRCLE('',#206,4.28251133647408);
#193=AXIS2_PLACEMENT_3D('',#241,#209,#210);
#194=AXIS2_PLACEMENT_3D('',#242,#211,#212);
#195=AXIS2_PLACEMENT_3D('',#244,#213,#214);
#196=AXIS2_PLACEMENT_3D('',#246,#215,#216);
#197=AXIS2_PLACEMENT_3D('',#247,#217,#218);
#198=AXIS2_PLACEMENT_3D('',#249,#219,#220);
#199=AXIS2_PLACEMENT_3D('',#250,#221,#222);
#200=AXIS2_PLACEMENT_3D('',#252,#223,#224);
#201=AXIS2_PLACEMENT_3D('',#253,#225,#226);
#202=AXIS2_PLACEMENT_3D('',#254,#227,#228);
#203=AXIS2_PLACEMENT_3D('',#256,#229,#230);
#204=AXIS2_PLACEMENT_3D('',#257,#231,#232);
#205=AXIS2_PLACEMENT_3D('',#259,#233,#234);
#206=AXIS2_PLACEMENT_3D('',#260,#235,#236);
#207=AXIS2_PLACEMENT_3D('',#262,#237,#238);
#208=AXIS2_PLACEMENT_3D('',#263,#239,#240);
#209=DIRECTION('',(0.,0.,1.));
#210=DIRECTION('',(1.,0.,0.));
#211=DIRECTION('',(0.,0.,-1.));
#212=DIRECTION('',(-1.,0.,0.));
#213=DIRECTION('',(0.,0.,-1.));
#214=DIRECTION('',(1.,0.,0.));
#215=DIRECTION('',(0.,0.,1.));
#216=DIRECTION('',(1.,0.,1.8470299930781E-017));
#217=DIRECTION('',(0.,0.,-1.));
#218=DIRECTION('',(-1.,0.,0.));
#219=DIRECTION('',(0.,0.,-1.));
#220=DIRECTION('',(-1.,0.,0.));
#221=DIRECTION('',(0.,0.,1.));
#222=DIRECTION('',(-1.,0.,0.));
#223=DIRECTION('',(0.,0.,-1.));
#224=DIRECTION('',(-1.,0.,-1.68821001579007E-018));
#225=DIRECTION('',(0.,0.,-1.));
#226=DIRECTION('',(-1.,0.,0.));
#227=DIRECTION('',(0.,0.,-1.));
#228=DIRECTION('',(-1.,0.,0.));
#229=DIRECTION('',(0.,0.,-1.));
#230=DIRECTION('',(-1.,0.,0.));
#231=DIRECTION('',(0.,0.,-1.));
#232=DIRECTION('',(1.,0.,0.));
#233=DIRECTION('',(0.,0.,-1.));
#234=DIRECTION('',(-1.,0.,0.));
#235=DIRECTION('',(0.,0.,1.));
#236=DIRECTION('',(1.,0.,0.));
#237=DIRECTION('',(0.,0.,1.));
#238=DIRECTION('',(1.,0.,0.));
#239=DIRECTION('',(0.,0.,-1.));
#240=DIRECTION('',(-1.,0.,1.19917856951446E-015));
#241=CARTESIAN_POINT('',(0.,0.,0.));
#242=CARTESIAN_POINT('',(0.,0.,-2.28384346661703));
#243=CARTESIAN_POINT('',(-5.67775955623521,0.,-2.28384346661703));
#244=CARTESIAN_POINT('',(0.,0.,-2.96462000163725));
#245=CARTESIAN_POINT('',(4.37,0.,-2.96462000163725));
#246=CARTESIAN_POINT('',(0.,0.,-2.96462000163725));
#247=CARTESIAN_POINT('',(0.,0.,-1.71615653338297));
#248=CARTESIAN_POINT('',(-5.67775955623521,0.,-1.71615653338297));
#249=CARTESIAN_POINT('',(0.,0.,-2.));
#250=CARTESIAN_POINT('',(0.,0.,-1.03537999836274));
#251=CARTESIAN_POINT('',(-4.37,0.,-1.03537999836274));
#252=CARTESIAN_POINT('',(0.,0.,-1.71615653338297));
#253=CARTESIAN_POINT('',(0.,0.,0.));
#254=CARTESIAN_POINT('',(0.,0.,-3.6));
#255=CARTESIAN_POINT('',(-4.37,0.,-3.6));
#256=CARTESIAN_POINT('',(0.,3.57,-3.6));
#257=CARTESIAN_POINT('',(0.,0.,-1.));
#258=CARTESIAN_POINT('',(4.37,0.,-1.));
#259=CARTESIAN_POINT('',(0.,0.,-3.6));
#260=CARTESIAN_POINT('',(0.,0.,-9.3226570446943E-016));
#261=CARTESIAN_POINT('',(4.28251133647408,0.,-9.3226570446943E-016));
#262=CARTESIAN_POINT('',(0.,4.37,-9.3226570446943E-016));
#263=CARTESIAN_POINT('',(0.,0.,-1.));
#264=MECHANICAL_DESIGN_GEOMETRIC_PRESENTATION_REPRESENTATION('',(#98,#99),
#265);
#265=(
GEOMETRIC_REPRESENTATION_CONTEXT(3)
GLOBAL_UNCERTAINTY_ASSIGNED_CONTEXT((#266))
GLOBAL_UNIT_ASSIGNED_CONTEXT((#272,#268,#267))
REPRESENTATION_CONTEXT('327R06_12_11WH_TH_SIM',
'TOP_LEVEL_ASSEMBLY_PART')
);
#266=UNCERTAINTY_MEASURE_WITH_UNIT(LENGTH_MEASURE(2.E-005),#272,
'DISTANCE_ACCURACY_VALUE','Maximum Tolerance applied to model');
#267=(
NAMED_UNIT(*)
SI_UNIT($,.STERADIAN.)
SOLID_ANGLE_UNIT()
);
#268=(
CONVERSION_BASED_UNIT('DEGREE',#270)
NAMED_UNIT(#269)
PLANE_ANGLE_UNIT()
);
#269=DIMENSIONAL_EXPONENTS(0.,0.,0.,0.,0.,0.,0.);
#270=PLANE_ANGLE_MEASURE_WITH_UNIT(PLANE_ANGLE_MEASURE(0.0174532925),#271);
#271=(
NAMED_UNIT(*)
PLANE_ANGLE_UNIT()
SI_UNIT($,.RADIAN.)
);
#272=(
LENGTH_UNIT()
NAMED_UNIT(*)
SI_UNIT(.MILLI.,.METRE.)
);
ENDSEC;
END-ISO-10303-21;
