ISO-10303-21;
HEADER;
/* Generated by software containing ST-Developer
 * from STEP Tools, Inc. (www.steptools.com) 
 */
/* OPTION: using custom schema-name function */

FILE_DESCRIPTION(
/* description */ ('3-D model version:1'),
/* implementation_level */ '2;1');

FILE_NAME(
/* name */ '327R06-10 13000-GM  1025',
/* time_stamp */ '2015-10-16T16:30:20+02:00',
/* author */ ('InteractiveCad'),
/* organization */ ('AB Sandvik Coromant'),
/* preprocessor_version */ 'ST-DEVELOPER v15',
/* originating_system */ 'SIEMENS PLM Software NX 8.5',
/* authorisation */ '');

FILE_SCHEMA (('AP203_CONFIGURATION_CONTROLLED_3D_DESIGN_OF_MECHANICAL_PARTS_AND_ASSEMBLIES_MIM_LF { 1 0 10303 403 2 1 2}'));
ENDSEC;

DATA;
#10=SHAPE_REPRESENTATION_RELATIONSHIP('None',
'relationship between 327R06_10_13000_GM_SIM-None and 327R06_10_13000_
GM_SIM-None',#92,#11);
#11=ADVANCED_BREP_SHAPE_REPRESENTATION('327R06_10_13000_GM_SIM-None',(#112,
#113),#285);
#12=CC_DESIGN_APPROVAL(#24,(#82));
#13=CC_DESIGN_APPROVAL(#25,(#84));
#14=CC_DESIGN_APPROVAL(#26,(#31));
#15=APPROVAL_PERSON_ORGANIZATION(#69,#24,#18);
#16=APPROVAL_PERSON_ORGANIZATION(#70,#25,#19);
#17=APPROVAL_PERSON_ORGANIZATION(#71,#26,#20);
#18=APPROVAL_ROLE('approver');
#19=APPROVAL_ROLE('approver');
#20=APPROVAL_ROLE('approver');
#21=APPROVAL_DATE_TIME(#39,#24);
#22=APPROVAL_DATE_TIME(#40,#25);
#23=APPROVAL_DATE_TIME(#41,#26);
#24=APPROVAL(#27,' ');
#25=APPROVAL(#28,' ');
#26=APPROVAL(#29,' ');
#27=APPROVAL_STATUS('not_yet_approved');
#28=APPROVAL_STATUS('not_yet_approved');
#29=APPROVAL_STATUS('not_yet_approved');
#30=CC_DESIGN_SECURITY_CLASSIFICATION(#31,(#84));
#31=SECURITY_CLASSIFICATION(' ',' ',#32);
#32=SECURITY_CLASSIFICATION_LEVEL('confidential');
#33=CC_DESIGN_DATE_AND_TIME_ASSIGNMENT(#37,#35,(#82));
#34=CC_DESIGN_DATE_AND_TIME_ASSIGNMENT(#38,#36,(#31));
#35=DATE_TIME_ROLE('creation_date');
#36=DATE_TIME_ROLE('classification_date');
#37=DATE_AND_TIME(#52,#42);
#38=DATE_AND_TIME(#53,#43);
#39=DATE_AND_TIME(#54,#44);
#40=DATE_AND_TIME(#55,#45);
#41=DATE_AND_TIME(#56,#46);
#42=LOCAL_TIME(0,0,0.,#47);
#43=LOCAL_TIME(0,0,0.,#48);
#44=LOCAL_TIME(0,0,0.,#49);
#45=LOCAL_TIME(0,0,0.,#50);
#46=LOCAL_TIME(0,0,0.,#51);
#47=COORDINATED_UNIVERSAL_TIME_OFFSET(0,0,.BEHIND.);
#48=COORDINATED_UNIVERSAL_TIME_OFFSET(0,0,.BEHIND.);
#49=COORDINATED_UNIVERSAL_TIME_OFFSET(0,0,.BEHIND.);
#50=COORDINATED_UNIVERSAL_TIME_OFFSET(0,0,.BEHIND.);
#51=COORDINATED_UNIVERSAL_TIME_OFFSET(0,0,.BEHIND.);
#52=CALENDAR_DATE(0,1,1);
#53=CALENDAR_DATE(0,1,1);
#54=CALENDAR_DATE(0,1,1);
#55=CALENDAR_DATE(0,1,1);
#56=CALENDAR_DATE(0,1,1);
#57=CC_DESIGN_PERSON_AND_ORGANIZATION_ASSIGNMENT(#65,#61,(#82,#84));
#58=CC_DESIGN_PERSON_AND_ORGANIZATION_ASSIGNMENT(#66,#62,(#86));
#59=CC_DESIGN_PERSON_AND_ORGANIZATION_ASSIGNMENT(#67,#63,(#84));
#60=CC_DESIGN_PERSON_AND_ORGANIZATION_ASSIGNMENT(#68,#64,(#31));
#61=PERSON_AND_ORGANIZATION_ROLE('creator');
#62=PERSON_AND_ORGANIZATION_ROLE('design_owner');
#63=PERSON_AND_ORGANIZATION_ROLE('design_supplier');
#64=PERSON_AND_ORGANIZATION_ROLE('classification_officer');
#65=PERSON_AND_ORGANIZATION(#79,#72);
#66=PERSON_AND_ORGANIZATION(#79,#73);
#67=PERSON_AND_ORGANIZATION(#79,#74);
#68=PERSON_AND_ORGANIZATION(#79,#75);
#69=PERSON_AND_ORGANIZATION(#79,#76);
#70=PERSON_AND_ORGANIZATION(#79,#77);
#71=PERSON_AND_ORGANIZATION(#79,#78);
#72=ORGANIZATION(' ',' ',' ');
#73=ORGANIZATION(' ',' ',' ');
#74=ORGANIZATION(' ',' ',' ');
#75=ORGANIZATION(' ',' ',' ');
#76=ORGANIZATION(' ',' ',' ');
#77=ORGANIZATION(' ',' ',' ');
#78=ORGANIZATION(' ',' ',' ');
#79=PERSON(' ',' ',' ',(' '),$,$);
#80=SHAPE_DEFINITION_REPRESENTATION(#81,#92);
#81=PRODUCT_DEFINITION_SHAPE('','',#82);
#82=PRODUCT_DEFINITION(' ','',#84,#83);
#83=DESIGN_CONTEXT('',#91,'design');
#84=PRODUCT_DEFINITION_FORMATION_WITH_SPECIFIED_SOURCE(' ',' ',#86,
 .NOT_KNOWN.);
#85=PRODUCT_RELATED_PRODUCT_CATEGORY('detail','',(#86));
#86=PRODUCT('327R06_10_13000_GM_SIM','327R06_10_13000_GM_SIM',' ',(#89));
#87=PRODUCT_CATEGORY('part',' ');
#88=PRODUCT_CATEGORY(' ','');
#89=MECHANICAL_CONTEXT(' ',#91,'mechanical');
#90=APPLICATION_PROTOCOL_DEFINITION('international standard',
'config_control_design',2010,#91);
#91=APPLICATION_CONTEXT(
'configuration controlled 3D designs of mechanical parts and assemblie
s');
#92=SHAPE_REPRESENTATION('327R06_10_13000_GM_SIM-None',(#204),#285);
#93=FACE_OUTER_BOUND('',#156,.T.);
#94=FACE_OUTER_BOUND('',#163,.T.);
#95=PRESENTATION_LAYER_ASSIGNMENT('1','Layer 1',(#112,#113));
#96=STYLED_ITEM('',(#98),#112);
#97=STYLED_ITEM('',(#99),#113);
#98=PRESENTATION_STYLE_ASSIGNMENT((#100));
#99=PRESENTATION_STYLE_ASSIGNMENT((#101));
#100=SURFACE_STYLE_USAGE(.BOTH.,#102);
#101=SURFACE_STYLE_USAGE(.BOTH.,#103);
#102=SURFACE_SIDE_STYLE('',(#104));
#103=SURFACE_SIDE_STYLE('',(#105));
#104=SURFACE_STYLE_FILL_AREA(#106);
#105=SURFACE_STYLE_FILL_AREA(#107);
#106=FILL_AREA_STYLE('',(#108));
#107=FILL_AREA_STYLE('',(#109));
#108=FILL_AREA_STYLE_COLOUR('',#110);
#109=FILL_AREA_STYLE_COLOUR('',#111);
#110=COLOUR_RGB('TLS_CUT',0.8,0.8,0.8);
#111=COLOUR_RGB('TLS_NOCUT',0.499992370489052,0.499992370489052,0.499992370489052);
#112=MANIFOLD_SOLID_BREP('',#114);
#113=MANIFOLD_SOLID_BREP('',#115);
#114=CLOSED_SHELL('',(#120,#121,#122,#123));
#115=CLOSED_SHELL('',(#124,#125,#126,#127,#128));
#116=CYLINDRICAL_SURFACE('',#209,4.85);
#117=CYLINDRICAL_SURFACE('',#212,3.35);
#118=CYLINDRICAL_SURFACE('',#216,3.4);
#119=CYLINDRICAL_SURFACE('',#220,3.);
#120=ADVANCED_FACE('',(#134,#135),#129,.T.);
#121=ADVANCED_FACE('',(#136,#137),#116,.T.);
#122=ADVANCED_FACE('',(#138,#139),#130,.T.);
#123=ADVANCED_FACE('',(#140,#141),#117,.F.);
#124=ADVANCED_FACE('',(#93),#131,.T.);
#125=ADVANCED_FACE('',(#142,#143),#118,.T.);
#126=ADVANCED_FACE('',(#144,#145),#132,.T.);
#127=ADVANCED_FACE('',(#146,#147),#119,.T.);
#128=ADVANCED_FACE('',(#94),#133,.T.);
#129=PLANE('',#207);
#130=PLANE('',#211);
#131=PLANE('',#214);
#132=PLANE('',#218);
#133=PLANE('',#221);
#134=FACE_BOUND('',#148,.T.);
#135=FACE_BOUND('',#149,.T.);
#136=FACE_BOUND('',#150,.T.);
#137=FACE_BOUND('',#151,.T.);
#138=FACE_BOUND('',#152,.T.);
#139=FACE_BOUND('',#153,.T.);
#140=FACE_BOUND('',#154,.T.);
#141=FACE_BOUND('',#155,.T.);
#142=FACE_BOUND('',#157,.T.);
#143=FACE_BOUND('',#158,.T.);
#144=FACE_BOUND('',#159,.T.);
#145=FACE_BOUND('',#160,.T.);
#146=FACE_BOUND('',#161,.T.);
#147=FACE_BOUND('',#162,.T.);
#148=EDGE_LOOP('',(#164));
#149=EDGE_LOOP('',(#165));
#150=EDGE_LOOP('',(#166));
#151=EDGE_LOOP('',(#167));
#152=EDGE_LOOP('',(#168));
#153=EDGE_LOOP('',(#169));
#154=EDGE_LOOP('',(#170));
#155=EDGE_LOOP('',(#171));
#156=EDGE_LOOP('',(#172));
#157=EDGE_LOOP('',(#173));
#158=EDGE_LOOP('',(#174));
#159=EDGE_LOOP('',(#175));
#160=EDGE_LOOP('',(#176));
#161=EDGE_LOOP('',(#177));
#162=EDGE_LOOP('',(#178));
#163=EDGE_LOOP('',(#179));
#164=ORIENTED_EDGE('',*,*,#188,.T.);
#165=ORIENTED_EDGE('',*,*,#189,.F.);
#166=ORIENTED_EDGE('',*,*,#190,.T.);
#167=ORIENTED_EDGE('',*,*,#188,.F.);
#168=ORIENTED_EDGE('',*,*,#191,.T.);
#169=ORIENTED_EDGE('',*,*,#190,.F.);
#170=ORIENTED_EDGE('',*,*,#189,.T.);
#171=ORIENTED_EDGE('',*,*,#191,.F.);
#172=ORIENTED_EDGE('',*,*,#192,.F.);
#173=ORIENTED_EDGE('',*,*,#192,.T.);
#174=ORIENTED_EDGE('',*,*,#193,.F.);
#175=ORIENTED_EDGE('',*,*,#193,.T.);
#176=ORIENTED_EDGE('',*,*,#194,.F.);
#177=ORIENTED_EDGE('',*,*,#194,.T.);
#178=ORIENTED_EDGE('',*,*,#195,.F.);
#179=ORIENTED_EDGE('',*,*,#195,.T.);
#180=VERTEX_POINT('',#260);
#181=VERTEX_POINT('',#262);
#182=VERTEX_POINT('',#265);
#183=VERTEX_POINT('',#268);
#184=VERTEX_POINT('',#272);
#185=VERTEX_POINT('',#275);
#186=VERTEX_POINT('',#278);
#187=VERTEX_POINT('',#281);
#188=EDGE_CURVE('',#180,#180,#196,.T.);
#189=EDGE_CURVE('',#181,#181,#197,.T.);
#190=EDGE_CURVE('',#182,#182,#198,.T.);
#191=EDGE_CURVE('',#183,#183,#199,.T.);
#192=EDGE_CURVE('',#184,#184,#200,.T.);
#193=EDGE_CURVE('',#185,#185,#201,.T.);
#194=EDGE_CURVE('',#186,#186,#202,.T.);
#195=EDGE_CURVE('',#187,#187,#203,.T.);
#196=CIRCLE('',#205,4.85);
#197=CIRCLE('',#206,3.35);
#198=CIRCLE('',#208,4.85);
#199=CIRCLE('',#210,3.35);
#200=CIRCLE('',#213,3.4);
#201=CIRCLE('',#215,3.4);
#202=CIRCLE('',#217,3.);
#203=CIRCLE('',#219,3.);
#204=AXIS2_PLACEMENT_3D('',#258,#222,#223);
#205=AXIS2_PLACEMENT_3D('',#259,#224,#225);
#206=AXIS2_PLACEMENT_3D('',#261,#226,#227);
#207=AXIS2_PLACEMENT_3D('',#263,#228,#229);
#208=AXIS2_PLACEMENT_3D('',#264,#230,#231);
#209=AXIS2_PLACEMENT_3D('',#266,#232,#233);
#210=AXIS2_PLACEMENT_3D('',#267,#234,#235);
#211=AXIS2_PLACEMENT_3D('',#269,#236,#237);
#212=AXIS2_PLACEMENT_3D('',#270,#238,#239);
#213=AXIS2_PLACEMENT_3D('',#271,#240,#241);
#214=AXIS2_PLACEMENT_3D('',#273,#242,#243);
#215=AXIS2_PLACEMENT_3D('',#274,#244,#245);
#216=AXIS2_PLACEMENT_3D('',#276,#246,#247);
#217=AXIS2_PLACEMENT_3D('',#277,#248,#249);
#218=AXIS2_PLACEMENT_3D('',#279,#250,#251);
#219=AXIS2_PLACEMENT_3D('',#280,#252,#253);
#220=AXIS2_PLACEMENT_3D('',#282,#254,#255);
#221=AXIS2_PLACEMENT_3D('',#283,#256,#257);
#222=DIRECTION('',(0.,0.,1.));
#223=DIRECTION('',(1.,0.,0.));
#224=DIRECTION('',(0.,0.,-1.));
#225=DIRECTION('',(-1.,0.,0.));
#226=DIRECTION('',(0.,0.,-1.));
#227=DIRECTION('',(-1.,0.,0.));
#228=DIRECTION('',(0.,0.,-1.));
#229=DIRECTION('',(-1.,0.,0.));
#230=DIRECTION('',(0.,0.,-1.));
#231=DIRECTION('',(-1.,0.,0.));
#232=DIRECTION('',(0.,0.,-1.));
#233=DIRECTION('',(-1.,0.,0.));
#234=DIRECTION('',(0.,0.,-1.));
#235=DIRECTION('',(-1.,0.,0.));
#236=DIRECTION('',(0.,0.,1.));
#237=DIRECTION('',(1.,0.,0.));
#238=DIRECTION('',(0.,0.,-1.));
#239=DIRECTION('',(-1.,0.,0.));
#240=DIRECTION('',(0.,0.,1.));
#241=DIRECTION('',(1.,0.,0.));
#242=DIRECTION('',(0.,0.,-1.));
#243=DIRECTION('',(-1.,0.,0.));
#244=DIRECTION('',(0.,0.,1.));
#245=DIRECTION('',(1.,0.,0.));
#246=DIRECTION('',(0.,0.,1.));
#247=DIRECTION('',(1.,0.,0.));
#248=DIRECTION('',(0.,0.,1.));
#249=DIRECTION('',(1.,0.,0.));
#250=DIRECTION('',(0.,0.,1.));
#251=DIRECTION('',(1.,0.,0.));
#252=DIRECTION('',(0.,0.,1.));
#253=DIRECTION('',(1.,0.,0.));
#254=DIRECTION('',(0.,0.,1.));
#255=DIRECTION('',(1.,0.,0.));
#256=DIRECTION('',(0.,0.,1.));
#257=DIRECTION('',(1.,0.,0.));
#258=CARTESIAN_POINT('',(0.,0.,0.));
#259=CARTESIAN_POINT('',(0.,0.,-3.5));
#260=CARTESIAN_POINT('',(-4.85,0.,-3.5));
#261=CARTESIAN_POINT('',(0.,0.,-3.5));
#262=CARTESIAN_POINT('',(-3.35,0.,-3.5));
#263=CARTESIAN_POINT('',(0.,3.35,-3.5));
#264=CARTESIAN_POINT('',(0.,0.,-2.2));
#265=CARTESIAN_POINT('',(-4.85,0.,-2.2));
#266=CARTESIAN_POINT('',(0.,0.,-3.5));
#267=CARTESIAN_POINT('',(0.,0.,-2.2));
#268=CARTESIAN_POINT('',(-3.35,0.,-2.2));
#269=CARTESIAN_POINT('',(0.,4.85,-2.2));
#270=CARTESIAN_POINT('',(0.,0.,-3.5));
#271=CARTESIAN_POINT('',(0.,0.,-3.5));
#272=CARTESIAN_POINT('',(3.4,0.,-3.5));
#273=CARTESIAN_POINT('',(0.,3.4,-3.5));
#274=CARTESIAN_POINT('',(0.,0.,-2.2));
#275=CARTESIAN_POINT('',(3.4,0.,-2.2));
#276=CARTESIAN_POINT('',(0.,0.,-3.5));
#277=CARTESIAN_POINT('',(0.,0.,-2.2));
#278=CARTESIAN_POINT('',(3.,0.,-2.2));
#279=CARTESIAN_POINT('',(0.,3.,-2.2));
#280=CARTESIAN_POINT('',(0.,0.,0.));
#281=CARTESIAN_POINT('',(3.,0.,0.));
#282=CARTESIAN_POINT('',(0.,0.,-3.5));
#283=CARTESIAN_POINT('',(0.,0.,0.));
#284=MECHANICAL_DESIGN_GEOMETRIC_PRESENTATION_REPRESENTATION('',(#96,#97),
#285);
#285=(
GEOMETRIC_REPRESENTATION_CONTEXT(3)
GLOBAL_UNCERTAINTY_ASSIGNED_CONTEXT((#286))
GLOBAL_UNIT_ASSIGNED_CONTEXT((#292,#288,#287))
REPRESENTATION_CONTEXT('327R06_10_13000_GM_SIM',
'TOP_LEVEL_ASSEMBLY_PART')
);
#286=UNCERTAINTY_MEASURE_WITH_UNIT(LENGTH_MEASURE(2.E-005),#292,
'DISTANCE_ACCURACY_VALUE','Maximum Tolerance applied to model');
#287=(
NAMED_UNIT(*)
SI_UNIT($,.STERADIAN.)
SOLID_ANGLE_UNIT()
);
#288=(
CONVERSION_BASED_UNIT('DEGREE',#290)
NAMED_UNIT(#289)
PLANE_ANGLE_UNIT()
);
#289=DIMENSIONAL_EXPONENTS(0.,0.,0.,0.,0.,0.,0.);
#290=PLANE_ANGLE_MEASURE_WITH_UNIT(PLANE_ANGLE_MEASURE(0.0174532925),#291);
#291=(
NAMED_UNIT(*)
PLANE_ANGLE_UNIT()
SI_UNIT($,.RADIAN.)
);
#292=(
LENGTH_UNIT()
NAMED_UNIT(*)
SI_UNIT(.MILLI.,.METRE.)
);
ENDSEC;
END-ISO-10303-21;
