ISO-10303-21;
HEADER;
FILE_DESCRIPTION(
/* description */ ('3-D model version:1'),
/* implementation_level */ '2;1');
FILE_NAME(
/* name */ '327-12B42EC-06',
/* time_stamp */ '2016-12-02T13:55:07',
/* author */ ('InteractiveCad'),
/* organization */ ('AB Sandvik Coromant'),
/* preprocessor_version */ 'ST-DEVELOPER v11',
/* originating_system */ 'SIEMENS UGS NX 6.0',
/* authorization */ '');
FILE_SCHEMA(('AUTOMOTIVE_DESIGN'));
ENDSEC;
DATA;
#10=SHAPE_REPRESENTATION_RELATIONSHIP('None','relationship between 327_12B42EC_06_SIM-None and 327_12B42EC_06_SIM-None',
     #94,#11);
#11=ADVANCED_BREP_SHAPE_REPRESENTATION('327_12B42EC_06_SIM-None',(#104),#237);
#15=APPROVAL_PERSON_ORGANIZATION(#69,#24,#18);
#16=APPROVAL_PERSON_ORGANIZATION(#70,#25,#19);
#17=APPROVAL_PERSON_ORGANIZATION(#71,#26,#20);
#18=APPROVAL_ROLE('approver');
#19=APPROVAL_ROLE('approver');
#20=APPROVAL_ROLE('approver');
#21=APPROVAL_DATE_TIME(#39,#24);
#22=APPROVAL_DATE_TIME(#40,#25);
#23=APPROVAL_DATE_TIME(#41,#26);
#24=APPROVAL(#27,' ');
#25=APPROVAL(#28,' ');
#26=APPROVAL(#29,' ');
#27=APPROVAL_STATUS('not_yet_approved');
#28=APPROVAL_STATUS('not_yet_approved');
#29=APPROVAL_STATUS('not_yet_approved');
#31=SECURITY_CLASSIFICATION(' ',' ',#32);
#32=SECURITY_CLASSIFICATION_LEVEL('confidential');
#35=DATE_TIME_ROLE('creation_date');
#36=DATE_TIME_ROLE('classification_date');
#37=DATE_AND_TIME(#52,#42);
#38=DATE_AND_TIME(#53,#43);
#39=DATE_AND_TIME(#54,#44);
#40=DATE_AND_TIME(#55,#45);
#41=DATE_AND_TIME(#56,#46);
#42=LOCAL_TIME(0,0,0.0,#47);
#43=LOCAL_TIME(0,0,0.0,#48);
#44=LOCAL_TIME(0,0,0.0,#49);
#45=LOCAL_TIME(0,0,0.0,#50);
#46=LOCAL_TIME(0,0,0.0,#51);
#47=COORDINATED_UNIVERSAL_TIME_OFFSET(0,0,.BEHIND.);
#48=COORDINATED_UNIVERSAL_TIME_OFFSET(0,0,.BEHIND.);
#49=COORDINATED_UNIVERSAL_TIME_OFFSET(0,0,.BEHIND.);
#50=COORDINATED_UNIVERSAL_TIME_OFFSET(0,0,.BEHIND.);
#51=COORDINATED_UNIVERSAL_TIME_OFFSET(0,0,.BEHIND.);
#52=CALENDAR_DATE(0,1,1);
#53=CALENDAR_DATE(0,1,1);
#54=CALENDAR_DATE(0,1,1);
#55=CALENDAR_DATE(0,1,1);
#56=CALENDAR_DATE(0,1,1);
#61=PERSON_AND_ORGANIZATION_ROLE('creator');
#62=PERSON_AND_ORGANIZATION_ROLE('design_owner');
#63=PERSON_AND_ORGANIZATION_ROLE('design_supplier');
#64=PERSON_AND_ORGANIZATION_ROLE('classification_officer');
#65=PERSON_AND_ORGANIZATION(#79,#72);
#66=PERSON_AND_ORGANIZATION(#79,#73);
#67=PERSON_AND_ORGANIZATION(#79,#74);
#68=PERSON_AND_ORGANIZATION(#79,#75);
#69=PERSON_AND_ORGANIZATION(#79,#76);
#70=PERSON_AND_ORGANIZATION(#79,#77);
#71=PERSON_AND_ORGANIZATION(#79,#78);
#72=ORGANIZATION(' ',' ',' ');
#73=ORGANIZATION(' ',' ',' ');
#74=ORGANIZATION(' ',' ',' ');
#75=ORGANIZATION(' ',' ',' ');
#76=ORGANIZATION(' ',' ',' ');
#77=ORGANIZATION(' ',' ',' ');
#78=ORGANIZATION(' ',' ',' ');
#79=PERSON(' ',' ',' ',(' '),$,$);
#80=SHAPE_DEFINITION_REPRESENTATION(#81,#94);
#81=PRODUCT_DEFINITION_SHAPE('','',#82);
#82=PRODUCT_DEFINITION(' ','',#84,$);
#84=PRODUCT_DEFINITION_FORMATION_WITH_SPECIFIED_SOURCE(' ',' ',#86,.NOT_KNOWN.);
#85=PRODUCT_RELATED_PRODUCT_CATEGORY('detail','',(#86));
#86=PRODUCT('327_12B42EC_06_SIM','327_12B42EC_06_SIM',' ',());
#87=PRODUCT_CATEGORY_RELATIONSHIP(' ',' ',#89,#90);
#88=PRODUCT_CATEGORY_RELATIONSHIP('','',#90,#85);
#89=PRODUCT_CATEGORY('part',' ');
#90=PRODUCT_CATEGORY(' ','');
#92=APPLICATION_PROTOCOL_DEFINITION('international standard','config_control_design',
     1994,#93);
#93=APPLICATION_CONTEXT('configuration controlled 3D designs of mechanical parts and assemblies');
#94=SHAPE_REPRESENTATION('327_12B42EC_06_SIM-None',(#174),#237);
#95=PRESENTATION_LAYER_ASSIGNMENT('1','Layer 1',(#104));
#96=STYLED_ITEM('',(#97),#104);
#97=PRESENTATION_STYLE_ASSIGNMENT((#98));
#98=SURFACE_STYLE_USAGE(.BOTH.,#99);
#99=SURFACE_SIDE_STYLE('',(#100));
#100=SURFACE_STYLE_FILL_AREA(#101);
#101=FILL_AREA_STYLE('',(#102));
#102=FILL_AREA_STYLE_COLOUR('',#103);
#103=COLOUR_RGB('TLS_NOCUT',0.499992370489052,0.499992370489052,0.499992370489052);
#104=MANIFOLD_SOLID_BREP('NOCUT',#105);
#105=CLOSED_SHELL('',(#121,#122,#123,#124,#125,#126,#127));
#106=CONICAL_SURFACE('',#182,6.0,30.0);
#107=CONICAL_SURFACE('',#186,5.0,44.9999999999996);
#108=TOROIDAL_SURFACE('',#180,5.0,2.0);
#109=CYLINDRICAL_SURFACE('',#178,3.0);
#110=CYLINDRICAL_SURFACE('',#184,6.0);
#111=FACE_BOUND('',#133,.T.);
#112=FACE_BOUND('',#134,.T.);
#113=FACE_BOUND('',#135,.T.);
#114=FACE_BOUND('',#136,.T.);
#115=FACE_BOUND('',#137,.T.);
#116=FACE_BOUND('',#138,.T.);
#117=FACE_BOUND('',#139,.T.);
#118=FACE_BOUND('',#140,.T.);
#119=FACE_BOUND('',#141,.T.);
#120=FACE_BOUND('',#142,.T.);
#121=ADVANCED_FACE('',(#130),#128,.F.);
#122=ADVANCED_FACE('',(#111,#112),#109,.T.);
#123=ADVANCED_FACE('',(#113,#114),#108,.F.);
#124=ADVANCED_FACE('',(#115,#116),#106,.T.);
#125=ADVANCED_FACE('',(#117,#118),#110,.T.);
#126=ADVANCED_FACE('',(#119,#120),#107,.T.);
#127=ADVANCED_FACE('',(#131),#129,.F.);
#128=PLANE('',#176);
#129=PLANE('',#187);
#130=FACE_OUTER_BOUND('',#132,.T.);
#131=FACE_OUTER_BOUND('',#143,.T.);
#132=EDGE_LOOP('',(#144));
#133=EDGE_LOOP('',(#145));
#134=EDGE_LOOP('',(#146));
#135=EDGE_LOOP('',(#147));
#136=EDGE_LOOP('',(#148));
#137=EDGE_LOOP('',(#149));
#138=EDGE_LOOP('',(#150));
#139=EDGE_LOOP('',(#151));
#140=EDGE_LOOP('',(#152));
#141=EDGE_LOOP('',(#153));
#142=EDGE_LOOP('',(#154));
#143=EDGE_LOOP('',(#155));
#144=ORIENTED_EDGE('',*,*,#162,.T.);
#145=ORIENTED_EDGE('',*,*,#162,.F.);
#146=ORIENTED_EDGE('',*,*,#163,.T.);
#147=ORIENTED_EDGE('',*,*,#163,.F.);
#148=ORIENTED_EDGE('',*,*,#164,.T.);
#149=ORIENTED_EDGE('',*,*,#164,.F.);
#150=ORIENTED_EDGE('',*,*,#165,.T.);
#151=ORIENTED_EDGE('',*,*,#165,.F.);
#152=ORIENTED_EDGE('',*,*,#166,.T.);
#153=ORIENTED_EDGE('',*,*,#166,.F.);
#154=ORIENTED_EDGE('',*,*,#167,.T.);
#155=ORIENTED_EDGE('',*,*,#167,.F.);
#156=VERTEX_POINT('',#218);
#157=VERTEX_POINT('',#221);
#158=VERTEX_POINT('',#224);
#159=VERTEX_POINT('',#227);
#160=VERTEX_POINT('',#230);
#161=VERTEX_POINT('',#233);
#162=EDGE_CURVE('',#156,#156,#168,.T.);
#163=EDGE_CURVE('',#157,#157,#169,.T.);
#164=EDGE_CURVE('',#158,#158,#170,.T.);
#165=EDGE_CURVE('',#159,#159,#171,.T.);
#166=EDGE_CURVE('',#160,#160,#172,.T.);
#167=EDGE_CURVE('',#161,#161,#173,.T.);
#168=CIRCLE('',#175,3.0);
#169=CIRCLE('',#177,3.0);
#170=CIRCLE('',#179,3.26794919243113);
#171=CIRCLE('',#181,6.0);
#172=CIRCLE('',#183,6.0);
#173=CIRCLE('',#185,5.0);
#174=AXIS2_PLACEMENT_3D('',#216,#188,#189);
#175=AXIS2_PLACEMENT_3D('',#217,#190,#191);
#176=AXIS2_PLACEMENT_3D('',#219,#192,#193);
#177=AXIS2_PLACEMENT_3D('',#220,#194,#195);
#178=AXIS2_PLACEMENT_3D('',#222,#196,#197);
#179=AXIS2_PLACEMENT_3D('',#223,#198,#199);
#180=AXIS2_PLACEMENT_3D('',#225,#200,#201);
#181=AXIS2_PLACEMENT_3D('',#226,#202,#203);
#182=AXIS2_PLACEMENT_3D('',#228,#204,#205);
#183=AXIS2_PLACEMENT_3D('',#229,#206,#207);
#184=AXIS2_PLACEMENT_3D('',#231,#208,#209);
#185=AXIS2_PLACEMENT_3D('',#232,#210,#211);
#186=AXIS2_PLACEMENT_3D('',#234,#212,#213);
#187=AXIS2_PLACEMENT_3D('',#235,#214,#215);
#188=DIRECTION('',(0.0,0.0,1.0));
#189=DIRECTION('',(1.0,0.0,0.0));
#190=DIRECTION('',(3.49288818939065E-15,0.0,-1.0));
#191=DIRECTION('',(-1.0,0.0,-4.62592926927149E-15));
#192=DIRECTION('',(-3.49288818939065E-15,0.0,1.0));
#193=DIRECTION('',(1.0,0.0,3.49720252756924E-15));
#194=DIRECTION('',(3.49288818939065E-15,0.0,-1.0));
#195=DIRECTION('',(-1.0,0.0,-4.62592926927149E-15));
#196=DIRECTION('',(3.49288818939065E-15,0.0,-1.0));
#197=DIRECTION('',(-1.0,0.0,-3.49288818939065E-15));
#198=DIRECTION('',(3.49288818939065E-15,0.0,-1.0));
#199=DIRECTION('',(-1.0,0.0,-4.2466351190394E-15));
#200=DIRECTION('',(3.49288818939065E-15,0.0,-1.0));
#201=DIRECTION('',(-1.0,0.0,-3.96508223080413E-15));
#202=DIRECTION('',(3.49288818939065E-15,0.0,-1.0));
#203=DIRECTION('',(-1.0,0.0,-3.46944695195361E-15));
#204=DIRECTION('',(-3.49288818939065E-15,0.0,1.0));
#205=DIRECTION('',(1.0,0.0,3.49710099659795E-15));
#206=DIRECTION('',(3.49288818939065E-15,0.0,-1.0));
#207=DIRECTION('',(-1.0,0.0,-3.5055870243698E-15));
#208=DIRECTION('',(3.49288818939065E-15,0.0,-1.0));
#209=DIRECTION('',(-1.0,0.0,-3.49288818939065E-15));
#210=DIRECTION('',(3.49288818939065E-15,0.0,-1.0));
#211=DIRECTION('',(-1.0,0.0,-3.49288818939065E-15));
#212=DIRECTION('',(3.49288818939065E-15,0.0,-1.0));
#213=DIRECTION('',(-1.0,0.0,-3.52122274302487E-15));
#214=DIRECTION('',(3.49288818939065E-15,0.0,-1.0));
#215=DIRECTION('',(-1.0,0.0,-3.49288818939065E-15));
#216=CARTESIAN_POINT('',(0.0,0.0,0.0));
#217=CARTESIAN_POINT('',(3.37063710276198E-13,0.0,-96.5));
#218=CARTESIAN_POINT('',(-2.99999999999966,0.0,-96.5));
#219=CARTESIAN_POINT('',(3.00000000000033,3.67394039744206E-16,-96.5));
#220=CARTESIAN_POINT('',(2.02587514984657E-13,0.0,-58.0));
#221=CARTESIAN_POINT('',(-2.9999999999998,0.0,-58.0));
#222=CARTESIAN_POINT('',(0.0,0.0,0.0));
#223=CARTESIAN_POINT('',(1.99094626795267E-13,0.0,-57.0));
#224=CARTESIAN_POINT('',(-3.26794919243093,0.0,-57.0));
#225=CARTESIAN_POINT('',(2.02962646689286E-13,0.0,-58.0));
#226=CARTESIAN_POINT('',(1.82566102417914E-13,0.0,-52.2679491924312));
#227=CARTESIAN_POINT('',(-5.99999999999982,0.0,-52.2679491924312));
#228=CARTESIAN_POINT('',(1.82566102417914E-13,0.0,-52.2679491924312));
#229=CARTESIAN_POINT('',(3.49288818939075E-15,0.0,-1.00000000000003));
#230=CARTESIAN_POINT('',(-6.0,0.0,-1.00000000000005));
#231=CARTESIAN_POINT('',(0.0,0.0,0.0));
#232=CARTESIAN_POINT('',(4.84981309870929E-29,0.0,-1.3884822060552E-14));
#233=CARTESIAN_POINT('',(-5.0,0.0,-3.13492630075053E-14));
#234=CARTESIAN_POINT('',(4.84981309870929E-29,0.0,-1.3884822060552E-14));
#235=CARTESIAN_POINT('',(1.22849291541233E-32,0.0,-1.38813049341832E-14));
#236=MECHANICAL_DESIGN_GEOMETRIC_PRESENTATION_REPRESENTATION('',(#96),#237);
#237=(GEOMETRIC_REPRESENTATION_CONTEXT(3)GLOBAL_UNCERTAINTY_ASSIGNED_CONTEXT((#238))
     GLOBAL_UNIT_ASSIGNED_CONTEXT((#244,#240,#239))REPRESENTATION_CONTEXT('327_12B42EC_06_SIM',
     'TOP_LEVEL_ASSEMBLY_PART'));
#238=UNCERTAINTY_MEASURE_WITH_UNIT(LENGTH_MEASURE(2.0E-5),#244,'DISTANCE_ACCURACY_VALUE',
     'Maximum Tolerance applied to model');
#239=(NAMED_UNIT(*)SI_UNIT($,.STERADIAN.)SOLID_ANGLE_UNIT());
#240=(CONVERSION_BASED_UNIT('DEGREE',#242)NAMED_UNIT(*)PLANE_ANGLE_UNIT());
#241=DIMENSIONAL_EXPONENTS(0.0,0.0,0.0,0.0,0.0,0.0,0.0);
#242=PLANE_ANGLE_MEASURE_WITH_UNIT(PLANE_ANGLE_MEASURE(0.0174532925),#243);
#243=(NAMED_UNIT(*)PLANE_ANGLE_UNIT()SI_UNIT($,.RADIAN.));
#244=(LENGTH_UNIT()NAMED_UNIT(*)SI_UNIT(.MILLI.,.METRE.));
#245=CARTESIAN_POINT('',(0.0,0.0,0.0));
#246=DIRECTION('',(0.0,0.0,1.0));
#247=DIRECTION('',(1.0,0.0,0.0));
#248=AXIS2_PLACEMENT_3D('PCS',#245,#246,#247);
#249=CARTESIAN_POINT('',(0.0,0.0,-46.0));
#250=DIRECTION('',(0.0,0.0,1.0));
#251=DIRECTION('',(1.0,0.0,0.0));
#252=AXIS2_PLACEMENT_3D('MCS',#249,#250,#251);
#253=CARTESIAN_POINT('',(0.0,0.0,-96.5));
#254=DIRECTION('',(0.0,0.0,1.0));
#255=DIRECTION('',(1.0,0.0,0.0));
#256=AXIS2_PLACEMENT_3D('CSW',#253,#254,#255);
#257=CONSTRUCTIVE_GEOMETRY_REPRESENTATION('supplemental geometry',(#248,#252,#256),
     #237);
#258=CONSTRUCTIVE_GEOMETRY_REPRESENTATION_RELATIONSHIP('supplemental geometry',$,
     #94,#257);
ENDSEC;
END-ISO-10303-21;
