ISO-10303-21;
HEADER;
/* Generated by software containing ST-Developer
 * from STEP Tools, Inc. (www.steptools.com) 
 */
/* OPTION: using custom schema-name function */

FILE_DESCRIPTION(
/* description */ ('3-D model version:1'),
/* implementation_level */ '2;1');

FILE_NAME(
/* name */ '326R08-B3502012-CH 1025',
/* time_stamp */ '2016-04-04T11:15:27+02:00',
/* author */ ('InteractiveCad'),
/* organization */ ('AB Sandvik Coromant'),
/* preprocessor_version */ 'ST-DEVELOPER v15',
/* originating_system */ 'SIEMENS PLM Software NX 8.5',
/* authorisation */ '');

FILE_SCHEMA (('AP203_CONFIGURATION_CONTROLLED_3D_DESIGN_OF_MECHANICAL_PARTS_AND_ASSEMBLIES_MIM_LF { 1 0 10303 403 2 1 2}'));
ENDSEC;

DATA;
#10=SHAPE_REPRESENTATION_RELATIONSHIP('None',
'relationship between 326R08_B3502012_CH_SIM-None and 326R08_B3502012_
CH_SIM-None',#92,#11);
#11=ADVANCED_BREP_SHAPE_REPRESENTATION('326R08_B3502012_CH_SIM-None',(#113,
#114),#405);
#12=CC_DESIGN_APPROVAL(#24,(#82));
#13=CC_DESIGN_APPROVAL(#25,(#84));
#14=CC_DESIGN_APPROVAL(#26,(#31));
#15=APPROVAL_PERSON_ORGANIZATION(#69,#24,#18);
#16=APPROVAL_PERSON_ORGANIZATION(#70,#25,#19);
#17=APPROVAL_PERSON_ORGANIZATION(#71,#26,#20);
#18=APPROVAL_ROLE('approver');
#19=APPROVAL_ROLE('approver');
#20=APPROVAL_ROLE('approver');
#21=APPROVAL_DATE_TIME(#39,#24);
#22=APPROVAL_DATE_TIME(#40,#25);
#23=APPROVAL_DATE_TIME(#41,#26);
#24=APPROVAL(#27,' ');
#25=APPROVAL(#28,' ');
#26=APPROVAL(#29,' ');
#27=APPROVAL_STATUS('not_yet_approved');
#28=APPROVAL_STATUS('not_yet_approved');
#29=APPROVAL_STATUS('not_yet_approved');
#30=CC_DESIGN_SECURITY_CLASSIFICATION(#31,(#84));
#31=SECURITY_CLASSIFICATION(' ',' ',#32);
#32=SECURITY_CLASSIFICATION_LEVEL('confidential');
#33=CC_DESIGN_DATE_AND_TIME_ASSIGNMENT(#37,#35,(#82));
#34=CC_DESIGN_DATE_AND_TIME_ASSIGNMENT(#38,#36,(#31));
#35=DATE_TIME_ROLE('creation_date');
#36=DATE_TIME_ROLE('classification_date');
#37=DATE_AND_TIME(#52,#42);
#38=DATE_AND_TIME(#53,#43);
#39=DATE_AND_TIME(#54,#44);
#40=DATE_AND_TIME(#55,#45);
#41=DATE_AND_TIME(#56,#46);
#42=LOCAL_TIME(0,0,0.,#47);
#43=LOCAL_TIME(0,0,0.,#48);
#44=LOCAL_TIME(0,0,0.,#49);
#45=LOCAL_TIME(0,0,0.,#50);
#46=LOCAL_TIME(0,0,0.,#51);
#47=COORDINATED_UNIVERSAL_TIME_OFFSET(0,0,.BEHIND.);
#48=COORDINATED_UNIVERSAL_TIME_OFFSET(0,0,.BEHIND.);
#49=COORDINATED_UNIVERSAL_TIME_OFFSET(0,0,.BEHIND.);
#50=COORDINATED_UNIVERSAL_TIME_OFFSET(0,0,.BEHIND.);
#51=COORDINATED_UNIVERSAL_TIME_OFFSET(0,0,.BEHIND.);
#52=CALENDAR_DATE(0,1,1);
#53=CALENDAR_DATE(0,1,1);
#54=CALENDAR_DATE(0,1,1);
#55=CALENDAR_DATE(0,1,1);
#56=CALENDAR_DATE(0,1,1);
#57=CC_DESIGN_PERSON_AND_ORGANIZATION_ASSIGNMENT(#65,#61,(#82,#84));
#58=CC_DESIGN_PERSON_AND_ORGANIZATION_ASSIGNMENT(#66,#62,(#86));
#59=CC_DESIGN_PERSON_AND_ORGANIZATION_ASSIGNMENT(#67,#63,(#84));
#60=CC_DESIGN_PERSON_AND_ORGANIZATION_ASSIGNMENT(#68,#64,(#31));
#61=PERSON_AND_ORGANIZATION_ROLE('creator');
#62=PERSON_AND_ORGANIZATION_ROLE('design_owner');
#63=PERSON_AND_ORGANIZATION_ROLE('design_supplier');
#64=PERSON_AND_ORGANIZATION_ROLE('classification_officer');
#65=PERSON_AND_ORGANIZATION(#79,#72);
#66=PERSON_AND_ORGANIZATION(#79,#73);
#67=PERSON_AND_ORGANIZATION(#79,#74);
#68=PERSON_AND_ORGANIZATION(#79,#75);
#69=PERSON_AND_ORGANIZATION(#79,#76);
#70=PERSON_AND_ORGANIZATION(#79,#77);
#71=PERSON_AND_ORGANIZATION(#79,#78);
#72=ORGANIZATION(' ',' ',' ');
#73=ORGANIZATION(' ',' ',' ');
#74=ORGANIZATION(' ',' ',' ');
#75=ORGANIZATION(' ',' ',' ');
#76=ORGANIZATION(' ',' ',' ');
#77=ORGANIZATION(' ',' ',' ');
#78=ORGANIZATION(' ',' ',' ');
#79=PERSON(' ',' ',' ',(' '),$,$);
#80=SHAPE_DEFINITION_REPRESENTATION(#81,#92);
#81=PRODUCT_DEFINITION_SHAPE('','',#82);
#82=PRODUCT_DEFINITION(' ','',#84,#83);
#83=DESIGN_CONTEXT('',#91,'design');
#84=PRODUCT_DEFINITION_FORMATION_WITH_SPECIFIED_SOURCE(' ',' ',#86,
 .NOT_KNOWN.);
#85=PRODUCT_RELATED_PRODUCT_CATEGORY('detail','',(#86));
#86=PRODUCT('326R08_B3502012_CH_SIM','326R08_B3502012_CH_SIM',' ',(#89));
#87=PRODUCT_CATEGORY('part',' ');
#88=PRODUCT_CATEGORY(' ','');
#89=MECHANICAL_CONTEXT(' ',#91,'mechanical');
#90=APPLICATION_PROTOCOL_DEFINITION('international standard',
'config_control_design',2010,#91);
#91=APPLICATION_CONTEXT(
'configuration controlled 3D designs of mechanical parts and assemblie
s');
#92=SHAPE_REPRESENTATION('326R08_B3502012_CH_SIM-None',(#270),#405);
#93=TOROIDAL_SURFACE('',#291,4.49999999997001,2.);
#94=FACE_OUTER_BOUND('',#184,.T.);
#95=FACE_OUTER_BOUND('',#199,.T.);
#96=PRESENTATION_LAYER_ASSIGNMENT('1','Layer 1',(#113,#114));
#97=STYLED_ITEM('',(#99),#113);
#98=STYLED_ITEM('',(#100),#114);
#99=PRESENTATION_STYLE_ASSIGNMENT((#101));
#100=PRESENTATION_STYLE_ASSIGNMENT((#102));
#101=SURFACE_STYLE_USAGE(.BOTH.,#103);
#102=SURFACE_STYLE_USAGE(.BOTH.,#104);
#103=SURFACE_SIDE_STYLE('',(#105));
#104=SURFACE_SIDE_STYLE('',(#106));
#105=SURFACE_STYLE_FILL_AREA(#107);
#106=SURFACE_STYLE_FILL_AREA(#108);
#107=FILL_AREA_STYLE('',(#109));
#108=FILL_AREA_STYLE('',(#110));
#109=FILL_AREA_STYLE_COLOUR('',#111);
#110=FILL_AREA_STYLE_COLOUR('',#112);
#111=COLOUR_RGB('TLS_CUT',0.8,0.8,0.8);
#112=COLOUR_RGB('TLS_NOCUT',0.499992370489052,0.499992370489052,0.499992370489052);
#113=MANIFOLD_SOLID_BREP('',#115);
#114=MANIFOLD_SOLID_BREP('',#116);
#115=CLOSED_SHELL('',(#126,#127,#128,#129,#130,#131));
#116=CLOSED_SHELL('',(#132,#133,#134,#135,#136,#137,#138,#139,#140));
#117=CYLINDRICAL_SURFACE('',#277,3.89999999997);
#118=CYLINDRICAL_SURFACE('',#282,2.45288141542001);
#119=CYLINDRICAL_SURFACE('',#289,2.49999999997001);
#120=CYLINDRICAL_SURFACE('',#295,3.99999999997001);
#121=CYLINDRICAL_SURFACE('',#298,2.45288141542001);
#122=PLANE('',#275);
#123=PLANE('',#281);
#124=PLANE('',#284);
#125=PLANE('',#299);
#126=ADVANCED_FACE('',(#146,#147),#141,.T.);
#127=ADVANCED_FACE('',(#148,#149),#122,.T.);
#128=ADVANCED_FACE('',(#150,#151),#117,.T.);
#129=ADVANCED_FACE('',(#152,#153),#142,.T.);
#130=ADVANCED_FACE('',(#154,#155),#123,.T.);
#131=ADVANCED_FACE('',(#156,#157),#118,.F.);
#132=ADVANCED_FACE('',(#94),#124,.T.);
#133=ADVANCED_FACE('',(#158,#159),#143,.T.);
#134=ADVANCED_FACE('',(#160,#161),#119,.T.);
#135=ADVANCED_FACE('',(#162,#163),#93,.F.);
#136=ADVANCED_FACE('',(#164,#165),#144,.T.);
#137=ADVANCED_FACE('',(#166,#167),#120,.T.);
#138=ADVANCED_FACE('',(#168,#169),#145,.T.);
#139=ADVANCED_FACE('',(#170,#171),#121,.T.);
#140=ADVANCED_FACE('',(#95),#125,.F.);
#141=CONICAL_SURFACE('',#273,2.49698477092001,45.0616335688809);
#142=CONICAL_SURFACE('',#279,3.89999999997,45.0616335688809);
#143=CONICAL_SURFACE('',#287,2.49999999997001,0.486403659146656);
#144=CONICAL_SURFACE('',#293,3.99999999997001,45.);
#145=CONICAL_SURFACE('',#296,3.49999999997001,45.);
#146=FACE_BOUND('',#172,.T.);
#147=FACE_BOUND('',#173,.T.);
#148=FACE_BOUND('',#174,.T.);
#149=FACE_BOUND('',#175,.T.);
#150=FACE_BOUND('',#176,.T.);
#151=FACE_BOUND('',#177,.T.);
#152=FACE_BOUND('',#178,.T.);
#153=FACE_BOUND('',#179,.T.);
#154=FACE_BOUND('',#180,.T.);
#155=FACE_BOUND('',#181,.T.);
#156=FACE_BOUND('',#182,.T.);
#157=FACE_BOUND('',#183,.T.);
#158=FACE_BOUND('',#185,.T.);
#159=FACE_BOUND('',#186,.T.);
#160=FACE_BOUND('',#187,.T.);
#161=FACE_BOUND('',#188,.T.);
#162=FACE_BOUND('',#189,.T.);
#163=FACE_BOUND('',#190,.T.);
#164=FACE_BOUND('',#191,.T.);
#165=FACE_BOUND('',#192,.T.);
#166=FACE_BOUND('',#193,.T.);
#167=FACE_BOUND('',#194,.T.);
#168=FACE_BOUND('',#195,.T.);
#169=FACE_BOUND('',#196,.T.);
#170=FACE_BOUND('',#197,.T.);
#171=FACE_BOUND('',#198,.T.);
#172=EDGE_LOOP('',(#200));
#173=EDGE_LOOP('',(#201));
#174=EDGE_LOOP('',(#202));
#175=EDGE_LOOP('',(#203));
#176=EDGE_LOOP('',(#204));
#177=EDGE_LOOP('',(#205));
#178=EDGE_LOOP('',(#206));
#179=EDGE_LOOP('',(#207));
#180=EDGE_LOOP('',(#208));
#181=EDGE_LOOP('',(#209));
#182=EDGE_LOOP('',(#210));
#183=EDGE_LOOP('',(#211));
#184=EDGE_LOOP('',(#212));
#185=EDGE_LOOP('',(#213));
#186=EDGE_LOOP('',(#214));
#187=EDGE_LOOP('',(#215));
#188=EDGE_LOOP('',(#216));
#189=EDGE_LOOP('',(#217));
#190=EDGE_LOOP('',(#218));
#191=EDGE_LOOP('',(#219));
#192=EDGE_LOOP('',(#220));
#193=EDGE_LOOP('',(#221));
#194=EDGE_LOOP('',(#222));
#195=EDGE_LOOP('',(#223));
#196=EDGE_LOOP('',(#224));
#197=EDGE_LOOP('',(#225));
#198=EDGE_LOOP('',(#226));
#199=EDGE_LOOP('',(#227));
#200=ORIENTED_EDGE('',*,*,#242,.T.);
#201=ORIENTED_EDGE('',*,*,#243,.F.);
#202=ORIENTED_EDGE('',*,*,#243,.T.);
#203=ORIENTED_EDGE('',*,*,#244,.F.);
#204=ORIENTED_EDGE('',*,*,#245,.T.);
#205=ORIENTED_EDGE('',*,*,#242,.F.);
#206=ORIENTED_EDGE('',*,*,#246,.T.);
#207=ORIENTED_EDGE('',*,*,#245,.F.);
#208=ORIENTED_EDGE('',*,*,#246,.F.);
#209=ORIENTED_EDGE('',*,*,#247,.T.);
#210=ORIENTED_EDGE('',*,*,#247,.F.);
#211=ORIENTED_EDGE('',*,*,#244,.T.);
#212=ORIENTED_EDGE('',*,*,#248,.T.);
#213=ORIENTED_EDGE('',*,*,#249,.T.);
#214=ORIENTED_EDGE('',*,*,#250,.F.);
#215=ORIENTED_EDGE('',*,*,#250,.T.);
#216=ORIENTED_EDGE('',*,*,#251,.F.);
#217=ORIENTED_EDGE('',*,*,#251,.T.);
#218=ORIENTED_EDGE('',*,*,#252,.F.);
#219=ORIENTED_EDGE('',*,*,#252,.T.);
#220=ORIENTED_EDGE('',*,*,#253,.F.);
#221=ORIENTED_EDGE('',*,*,#254,.F.);
#222=ORIENTED_EDGE('',*,*,#253,.T.);
#223=ORIENTED_EDGE('',*,*,#254,.T.);
#224=ORIENTED_EDGE('',*,*,#248,.F.);
#225=ORIENTED_EDGE('',*,*,#255,.T.);
#226=ORIENTED_EDGE('',*,*,#249,.F.);
#227=ORIENTED_EDGE('',*,*,#255,.F.);
#228=VERTEX_POINT('',#362);
#229=VERTEX_POINT('',#364);
#230=VERTEX_POINT('',#367);
#231=VERTEX_POINT('',#370);
#232=VERTEX_POINT('',#373);
#233=VERTEX_POINT('',#376);
#234=VERTEX_POINT('',#380);
#235=VERTEX_POINT('',#383);
#236=VERTEX_POINT('',#385);
#237=VERTEX_POINT('',#388);
#238=VERTEX_POINT('',#391);
#239=VERTEX_POINT('',#394);
#240=VERTEX_POINT('',#397);
#241=VERTEX_POINT('',#401);
#242=EDGE_CURVE('',#228,#228,#256,.T.);
#243=EDGE_CURVE('',#229,#229,#257,.T.);
#244=EDGE_CURVE('',#230,#230,#258,.T.);
#245=EDGE_CURVE('',#231,#231,#259,.T.);
#246=EDGE_CURVE('',#232,#232,#260,.T.);
#247=EDGE_CURVE('',#233,#233,#261,.T.);
#248=EDGE_CURVE('',#234,#234,#262,.T.);
#249=EDGE_CURVE('',#235,#235,#263,.T.);
#250=EDGE_CURVE('',#236,#236,#264,.T.);
#251=EDGE_CURVE('',#237,#237,#265,.T.);
#252=EDGE_CURVE('',#238,#238,#266,.T.);
#253=EDGE_CURVE('',#239,#239,#267,.T.);
#254=EDGE_CURVE('',#240,#240,#268,.T.);
#255=EDGE_CURVE('',#241,#241,#269,.T.);
#256=CIRCLE('',#271,3.89999999997);
#257=CIRCLE('',#272,2.49698477092001);
#258=CIRCLE('',#274,2.45288141542001);
#259=CIRCLE('',#276,3.89999999997);
#260=CIRCLE('',#278,2.49698477092001);
#261=CIRCLE('',#280,2.45288141542001);
#262=CIRCLE('',#283,3.49999999997001);
#263=CIRCLE('',#285,2.45288141542001);
#264=CIRCLE('',#286,2.49999999997001);
#265=CIRCLE('',#288,2.49999999997001);
#266=CIRCLE('',#290,3.08578643762001);
#267=CIRCLE('',#292,3.99999999997001);
#268=CIRCLE('',#294,3.99999999997001);
#269=CIRCLE('',#297,2.45288141542001);
#270=AXIS2_PLACEMENT_3D('',#360,#300,#301);
#271=AXIS2_PLACEMENT_3D('',#361,#302,#303);
#272=AXIS2_PLACEMENT_3D('',#363,#304,#305);
#273=AXIS2_PLACEMENT_3D('',#365,#306,#307);
#274=AXIS2_PLACEMENT_3D('',#366,#308,#309);
#275=AXIS2_PLACEMENT_3D('',#368,#310,#311);
#276=AXIS2_PLACEMENT_3D('',#369,#312,#313);
#277=AXIS2_PLACEMENT_3D('',#371,#314,#315);
#278=AXIS2_PLACEMENT_3D('',#372,#316,#317);
#279=AXIS2_PLACEMENT_3D('',#374,#318,#319);
#280=AXIS2_PLACEMENT_3D('',#375,#320,#321);
#281=AXIS2_PLACEMENT_3D('',#377,#322,#323);
#282=AXIS2_PLACEMENT_3D('',#378,#324,#325);
#283=AXIS2_PLACEMENT_3D('',#379,#326,#327);
#284=AXIS2_PLACEMENT_3D('',#381,#328,#329);
#285=AXIS2_PLACEMENT_3D('',#382,#330,#331);
#286=AXIS2_PLACEMENT_3D('',#384,#332,#333);
#287=AXIS2_PLACEMENT_3D('',#386,#334,#335);
#288=AXIS2_PLACEMENT_3D('',#387,#336,#337);
#289=AXIS2_PLACEMENT_3D('',#389,#338,#339);
#290=AXIS2_PLACEMENT_3D('',#390,#340,#341);
#291=AXIS2_PLACEMENT_3D('',#392,#342,#343);
#292=AXIS2_PLACEMENT_3D('',#393,#344,#345);
#293=AXIS2_PLACEMENT_3D('',#395,#346,#347);
#294=AXIS2_PLACEMENT_3D('',#396,#348,#349);
#295=AXIS2_PLACEMENT_3D('',#398,#350,#351);
#296=AXIS2_PLACEMENT_3D('',#399,#352,#353);
#297=AXIS2_PLACEMENT_3D('',#400,#354,#355);
#298=AXIS2_PLACEMENT_3D('',#402,#356,#357);
#299=AXIS2_PLACEMENT_3D('',#403,#358,#359);
#300=DIRECTION('',(0.,0.,1.));
#301=DIRECTION('',(1.,0.,0.));
#302=DIRECTION('',(0.,0.,1.));
#303=DIRECTION('',(1.,0.,0.));
#304=DIRECTION('',(0.,0.,1.));
#305=DIRECTION('',(1.,0.,0.));
#306=DIRECTION('',(0.,0.,-1.));
#307=DIRECTION('',(-1.,0.,4.14406346431092E-017));
#308=DIRECTION('',(0.,0.,1.));
#309=DIRECTION('',(1.,0.,0.));
#310=DIRECTION('',(0.,0.,1.));
#311=DIRECTION('',(1.,0.,0.));
#312=DIRECTION('',(0.,0.,1.));
#313=DIRECTION('',(1.,0.,0.));
#314=DIRECTION('',(0.,0.,1.));
#315=DIRECTION('',(1.,0.,0.));
#316=DIRECTION('',(0.,0.,1.));
#317=DIRECTION('',(1.,0.,0.));
#318=DIRECTION('',(0.,0.,1.));
#319=DIRECTION('',(1.,0.,0.));
#320=DIRECTION('',(0.,0.,1.));
#321=DIRECTION('',(1.,0.,0.));
#322=DIRECTION('',(0.,0.,-1.));
#323=DIRECTION('',(-1.,0.,0.));
#324=DIRECTION('',(0.,0.,1.));
#325=DIRECTION('',(1.,0.,0.));
#326=DIRECTION('',(0.,0.,1.));
#327=DIRECTION('',(1.,0.,0.));
#328=DIRECTION('',(0.,0.,1.));
#329=DIRECTION('',(1.,0.,0.));
#330=DIRECTION('',(0.,0.,1.));
#331=DIRECTION('',(1.,0.,0.));
#332=DIRECTION('',(0.,0.,1.));
#333=DIRECTION('',(1.,0.,0.));
#334=DIRECTION('',(0.,0.,1.));
#335=DIRECTION('',(1.,0.,-1.2628168307976E-015));
#336=DIRECTION('',(0.,0.,1.));
#337=DIRECTION('',(1.,0.,0.));
#338=DIRECTION('',(0.,0.,1.));
#339=DIRECTION('',(1.,0.,0.));
#340=DIRECTION('',(0.,0.,1.));
#341=DIRECTION('',(1.,0.,0.));
#342=DIRECTION('',(0.,0.,1.));
#343=DIRECTION('',(1.,0.,0.));
#344=DIRECTION('',(0.,0.,1.));
#345=DIRECTION('',(1.,0.,0.));
#346=DIRECTION('',(0.,0.,1.));
#347=DIRECTION('',(1.,0.,-2.76449956330974E-017));
#348=DIRECTION('',(0.,0.,1.));
#349=DIRECTION('',(1.,0.,0.));
#350=DIRECTION('',(0.,0.,1.));
#351=DIRECTION('',(1.,0.,0.));
#352=DIRECTION('',(0.,0.,-1.));
#353=DIRECTION('',(-1.,0.,0.));
#354=DIRECTION('',(0.,0.,1.));
#355=DIRECTION('',(1.,0.,0.));
#356=DIRECTION('',(0.,0.,1.));
#357=DIRECTION('',(1.,0.,0.));
#358=DIRECTION('',(0.,0.,1.));
#359=DIRECTION('',(1.,0.,0.));
#360=CARTESIAN_POINT('',(0.,0.,0.));
#361=CARTESIAN_POINT('',(0.,0.,-76.4));
#362=CARTESIAN_POINT('',(3.89999999997,0.,-76.4));
#363=CARTESIAN_POINT('',(0.,0.,-75.));
#364=CARTESIAN_POINT('',(2.49698477092001,0.,-75.));
#365=CARTESIAN_POINT('',(0.,0.,-75.));
#366=CARTESIAN_POINT('',(0.,0.,-75.));
#367=CARTESIAN_POINT('',(2.45288141542001,0.,-75.));
#368=CARTESIAN_POINT('',(0.,-2.45288141542001,-75.));
#369=CARTESIAN_POINT('',(0.,0.,-76.6));
#370=CARTESIAN_POINT('',(3.89999999997,0.,-76.6));
#371=CARTESIAN_POINT('',(0.,0.,-17.5));
#372=CARTESIAN_POINT('',(0.,0.,-78.));
#373=CARTESIAN_POINT('',(2.49698477092001,0.,-78.));
#374=CARTESIAN_POINT('',(0.,0.,-76.6));
#375=CARTESIAN_POINT('',(0.,0.,-78.));
#376=CARTESIAN_POINT('',(2.45288141542001,0.,-78.));
#377=CARTESIAN_POINT('',(0.,-2.49698477092001,-78.));
#378=CARTESIAN_POINT('',(0.,0.,-78.));
#379=CARTESIAN_POINT('',(0.,0.,0.));
#380=CARTESIAN_POINT('',(3.49999999997001,0.,0.));
#381=CARTESIAN_POINT('',(0.,0.,0.));
#382=CARTESIAN_POINT('',(0.,0.,-75.));
#383=CARTESIAN_POINT('',(2.45288141542001,0.,-75.));
#384=CARTESIAN_POINT('',(0.,0.,-69.449813184));
#385=CARTESIAN_POINT('',(2.49999999997001,0.,-69.449813184));
#386=CARTESIAN_POINT('',(0.,0.,-69.449813184));
#387=CARTESIAN_POINT('',(0.,0.,-43.));
#388=CARTESIAN_POINT('',(2.49999999997001,0.,-43.));
#389=CARTESIAN_POINT('',(0.,0.,-17.5));
#390=CARTESIAN_POINT('',(0.,0.,-41.5857864376));
#391=CARTESIAN_POINT('',(3.08578643762001,0.,-41.5857864376));
#392=CARTESIAN_POINT('',(0.,0.,-43.));
#393=CARTESIAN_POINT('',(0.,0.,-40.67157287525));
#394=CARTESIAN_POINT('',(3.99999999997001,0.,-40.67157287525));
#395=CARTESIAN_POINT('',(0.,0.,-40.67157287525));
#396=CARTESIAN_POINT('',(0.,0.,-0.5));
#397=CARTESIAN_POINT('',(3.99999999997001,0.,-0.5));
#398=CARTESIAN_POINT('',(0.,0.,-17.5));
#399=CARTESIAN_POINT('',(0.,0.,0.));
#400=CARTESIAN_POINT('',(0.,0.,-78.));
#401=CARTESIAN_POINT('',(2.45288141542001,0.,-78.));
#402=CARTESIAN_POINT('',(0.,0.,-78.));
#403=CARTESIAN_POINT('',(0.,0.,-78.));
#404=MECHANICAL_DESIGN_GEOMETRIC_PRESENTATION_REPRESENTATION('',(#97,#98),
#405);
#405=(
GEOMETRIC_REPRESENTATION_CONTEXT(3)
GLOBAL_UNCERTAINTY_ASSIGNED_CONTEXT((#406))
GLOBAL_UNIT_ASSIGNED_CONTEXT((#412,#408,#407))
REPRESENTATION_CONTEXT('326R08_B3502012_CH_SIM',
'TOP_LEVEL_ASSEMBLY_PART')
);
#406=UNCERTAINTY_MEASURE_WITH_UNIT(LENGTH_MEASURE(2.E-005),#412,
'DISTANCE_ACCURACY_VALUE','Maximum Tolerance applied to model');
#407=(
NAMED_UNIT(*)
SI_UNIT($,.STERADIAN.)
SOLID_ANGLE_UNIT()
);
#408=(
CONVERSION_BASED_UNIT('DEGREE',#410)
NAMED_UNIT(#409)
PLANE_ANGLE_UNIT()
);
#409=DIMENSIONAL_EXPONENTS(0.,0.,0.,0.,0.,0.,0.);
#410=PLANE_ANGLE_MEASURE_WITH_UNIT(PLANE_ANGLE_MEASURE(0.0174532925),#411);
#411=(
NAMED_UNIT(*)
PLANE_ANGLE_UNIT()
SI_UNIT($,.RADIAN.)
);
#412=(
LENGTH_UNIT()
NAMED_UNIT(*)
SI_UNIT(.MILLI.,.METRE.)
);
ENDSEC;
END-ISO-10303-21;
