ISO-10303-21;
HEADER;
/* Generated by software containing ST-Developer
 * from STEP Tools, Inc. (www.steptools.com) 
 */
/* OPTION: using custom schema-name function */

FILE_DESCRIPTION(
/* description */ ('3-D model version:1'),
/* implementation_level */ '2;1');

FILE_NAME(
/* name */ '326R08-B2502012-CH 1025',
/* time_stamp */ '2016-04-04T11:15:12+02:00',
/* author */ ('InteractiveCad'),
/* organization */ ('AB Sandvik Coromant'),
/* preprocessor_version */ 'ST-DEVELOPER v15',
/* originating_system */ 'SIEMENS PLM Software NX 8.5',
/* authorisation */ '');

FILE_SCHEMA (('AP203_CONFIGURATION_CONTROLLED_3D_DESIGN_OF_MECHANICAL_PARTS_AND_ASSEMBLIES_MIM_LF { 1 0 10303 403 2 1 2}'));
ENDSEC;

DATA;
#10=SHAPE_REPRESENTATION_RELATIONSHIP('None',
'relationship between 326R08_B2502012_CH_SIM-None and 326R08_B2502012_
CH_SIM-None',#92,#11);
#11=ADVANCED_BREP_SHAPE_REPRESENTATION('326R08_B2502012_CH_SIM-None',(#115,
#116),#365);
#12=CC_DESIGN_APPROVAL(#24,(#82));
#13=CC_DESIGN_APPROVAL(#25,(#84));
#14=CC_DESIGN_APPROVAL(#26,(#31));
#15=APPROVAL_PERSON_ORGANIZATION(#69,#24,#18);
#16=APPROVAL_PERSON_ORGANIZATION(#70,#25,#19);
#17=APPROVAL_PERSON_ORGANIZATION(#71,#26,#20);
#18=APPROVAL_ROLE('approver');
#19=APPROVAL_ROLE('approver');
#20=APPROVAL_ROLE('approver');
#21=APPROVAL_DATE_TIME(#39,#24);
#22=APPROVAL_DATE_TIME(#40,#25);
#23=APPROVAL_DATE_TIME(#41,#26);
#24=APPROVAL(#27,' ');
#25=APPROVAL(#28,' ');
#26=APPROVAL(#29,' ');
#27=APPROVAL_STATUS('not_yet_approved');
#28=APPROVAL_STATUS('not_yet_approved');
#29=APPROVAL_STATUS('not_yet_approved');
#30=CC_DESIGN_SECURITY_CLASSIFICATION(#31,(#84));
#31=SECURITY_CLASSIFICATION(' ',' ',#32);
#32=SECURITY_CLASSIFICATION_LEVEL('confidential');
#33=CC_DESIGN_DATE_AND_TIME_ASSIGNMENT(#37,#35,(#82));
#34=CC_DESIGN_DATE_AND_TIME_ASSIGNMENT(#38,#36,(#31));
#35=DATE_TIME_ROLE('creation_date');
#36=DATE_TIME_ROLE('classification_date');
#37=DATE_AND_TIME(#52,#42);
#38=DATE_AND_TIME(#53,#43);
#39=DATE_AND_TIME(#54,#44);
#40=DATE_AND_TIME(#55,#45);
#41=DATE_AND_TIME(#56,#46);
#42=LOCAL_TIME(0,0,0.,#47);
#43=LOCAL_TIME(0,0,0.,#48);
#44=LOCAL_TIME(0,0,0.,#49);
#45=LOCAL_TIME(0,0,0.,#50);
#46=LOCAL_TIME(0,0,0.,#51);
#47=COORDINATED_UNIVERSAL_TIME_OFFSET(0,0,.BEHIND.);
#48=COORDINATED_UNIVERSAL_TIME_OFFSET(0,0,.BEHIND.);
#49=COORDINATED_UNIVERSAL_TIME_OFFSET(0,0,.BEHIND.);
#50=COORDINATED_UNIVERSAL_TIME_OFFSET(0,0,.BEHIND.);
#51=COORDINATED_UNIVERSAL_TIME_OFFSET(0,0,.BEHIND.);
#52=CALENDAR_DATE(0,1,1);
#53=CALENDAR_DATE(0,1,1);
#54=CALENDAR_DATE(0,1,1);
#55=CALENDAR_DATE(0,1,1);
#56=CALENDAR_DATE(0,1,1);
#57=CC_DESIGN_PERSON_AND_ORGANIZATION_ASSIGNMENT(#65,#61,(#82,#84));
#58=CC_DESIGN_PERSON_AND_ORGANIZATION_ASSIGNMENT(#66,#62,(#86));
#59=CC_DESIGN_PERSON_AND_ORGANIZATION_ASSIGNMENT(#67,#63,(#84));
#60=CC_DESIGN_PERSON_AND_ORGANIZATION_ASSIGNMENT(#68,#64,(#31));
#61=PERSON_AND_ORGANIZATION_ROLE('creator');
#62=PERSON_AND_ORGANIZATION_ROLE('design_owner');
#63=PERSON_AND_ORGANIZATION_ROLE('design_supplier');
#64=PERSON_AND_ORGANIZATION_ROLE('classification_officer');
#65=PERSON_AND_ORGANIZATION(#79,#72);
#66=PERSON_AND_ORGANIZATION(#79,#73);
#67=PERSON_AND_ORGANIZATION(#79,#74);
#68=PERSON_AND_ORGANIZATION(#79,#75);
#69=PERSON_AND_ORGANIZATION(#79,#76);
#70=PERSON_AND_ORGANIZATION(#79,#77);
#71=PERSON_AND_ORGANIZATION(#79,#78);
#72=ORGANIZATION(' ',' ',' ');
#73=ORGANIZATION(' ',' ',' ');
#74=ORGANIZATION(' ',' ',' ');
#75=ORGANIZATION(' ',' ',' ');
#76=ORGANIZATION(' ',' ',' ');
#77=ORGANIZATION(' ',' ',' ');
#78=ORGANIZATION(' ',' ',' ');
#79=PERSON(' ',' ',' ',(' '),$,$);
#80=SHAPE_DEFINITION_REPRESENTATION(#81,#92);
#81=PRODUCT_DEFINITION_SHAPE('','',#82);
#82=PRODUCT_DEFINITION(' ','',#84,#83);
#83=DESIGN_CONTEXT('',#91,'design');
#84=PRODUCT_DEFINITION_FORMATION_WITH_SPECIFIED_SOURCE(' ',' ',#86,
 .NOT_KNOWN.);
#85=PRODUCT_RELATED_PRODUCT_CATEGORY('detail','',(#86));
#86=PRODUCT('326R08_B2502012_CH_SIM','326R08_B2502012_CH_SIM',' ',(#89));
#87=PRODUCT_CATEGORY('part',' ');
#88=PRODUCT_CATEGORY(' ','');
#89=MECHANICAL_CONTEXT(' ',#91,'mechanical');
#90=APPLICATION_PROTOCOL_DEFINITION('international standard',
'config_control_design',2010,#91);
#91=APPLICATION_CONTEXT(
'configuration controlled 3D designs of mechanical parts and assemblie
s');
#92=SHAPE_REPRESENTATION('326R08_B2502012_CH_SIM-None',(#248),#365);
#93=TOROIDAL_SURFACE('',#265,4.49999999997001,2.);
#94=PLANE('',#258);
#95=PLANE('',#273);
#96=FACE_OUTER_BOUND('',#172,.T.);
#97=FACE_OUTER_BOUND('',#187,.T.);
#98=PRESENTATION_LAYER_ASSIGNMENT('1','Layer 1',(#115,#116));
#99=STYLED_ITEM('',(#101),#115);
#100=STYLED_ITEM('',(#102),#116);
#101=PRESENTATION_STYLE_ASSIGNMENT((#103));
#102=PRESENTATION_STYLE_ASSIGNMENT((#104));
#103=SURFACE_STYLE_USAGE(.BOTH.,#105);
#104=SURFACE_STYLE_USAGE(.BOTH.,#106);
#105=SURFACE_SIDE_STYLE('',(#107));
#106=SURFACE_SIDE_STYLE('',(#108));
#107=SURFACE_STYLE_FILL_AREA(#109);
#108=SURFACE_STYLE_FILL_AREA(#110);
#109=FILL_AREA_STYLE('',(#111));
#110=FILL_AREA_STYLE('',(#112));
#111=FILL_AREA_STYLE_COLOUR('',#113);
#112=FILL_AREA_STYLE_COLOUR('',#114);
#113=COLOUR_RGB('TLS_CUT',0.8,0.8,0.8);
#114=COLOUR_RGB('TLS_NOCUT',0.499992370489052,0.499992370489052,0.499992370489052);
#115=MANIFOLD_SOLID_BREP('',#117);
#116=MANIFOLD_SOLID_BREP('',#118);
#117=CLOSED_SHELL('',(#124,#125,#126,#127));
#118=CLOSED_SHELL('',(#128,#129,#130,#131,#132,#133,#134,#135,#136));
#119=CYLINDRICAL_SURFACE('',#253,3.89999999997);
#120=CYLINDRICAL_SURFACE('',#256,2.49698477092001);
#121=CYLINDRICAL_SURFACE('',#263,2.49999999997001);
#122=CYLINDRICAL_SURFACE('',#269,3.99999999997001);
#123=CYLINDRICAL_SURFACE('',#272,2.49698477092001);
#124=ADVANCED_FACE('',(#142,#143),#137,.T.);
#125=ADVANCED_FACE('',(#144,#145),#119,.T.);
#126=ADVANCED_FACE('',(#146,#147),#138,.T.);
#127=ADVANCED_FACE('',(#148,#149),#120,.F.);
#128=ADVANCED_FACE('',(#96),#94,.T.);
#129=ADVANCED_FACE('',(#150,#151),#139,.T.);
#130=ADVANCED_FACE('',(#152,#153),#121,.T.);
#131=ADVANCED_FACE('',(#154,#155),#93,.F.);
#132=ADVANCED_FACE('',(#156,#157),#140,.T.);
#133=ADVANCED_FACE('',(#158,#159),#122,.T.);
#134=ADVANCED_FACE('',(#160,#161),#141,.T.);
#135=ADVANCED_FACE('',(#162,#163),#123,.T.);
#136=ADVANCED_FACE('',(#97),#95,.F.);
#137=CONICAL_SURFACE('',#251,3.89999999997,45.0616335688809);
#138=CONICAL_SURFACE('',#255,2.49698477092001,45.0616335688809);
#139=CONICAL_SURFACE('',#261,2.49999999997001,0.0314847144402226);
#140=CONICAL_SURFACE('',#267,3.99999999997001,45.);
#141=CONICAL_SURFACE('',#270,3.49999999997001,45.);
#142=FACE_BOUND('',#164,.T.);
#143=FACE_BOUND('',#165,.T.);
#144=FACE_BOUND('',#166,.T.);
#145=FACE_BOUND('',#167,.T.);
#146=FACE_BOUND('',#168,.T.);
#147=FACE_BOUND('',#169,.T.);
#148=FACE_BOUND('',#170,.T.);
#149=FACE_BOUND('',#171,.T.);
#150=FACE_BOUND('',#173,.T.);
#151=FACE_BOUND('',#174,.T.);
#152=FACE_BOUND('',#175,.T.);
#153=FACE_BOUND('',#176,.T.);
#154=FACE_BOUND('',#177,.T.);
#155=FACE_BOUND('',#178,.T.);
#156=FACE_BOUND('',#179,.T.);
#157=FACE_BOUND('',#180,.T.);
#158=FACE_BOUND('',#181,.T.);
#159=FACE_BOUND('',#182,.T.);
#160=FACE_BOUND('',#183,.T.);
#161=FACE_BOUND('',#184,.T.);
#162=FACE_BOUND('',#185,.T.);
#163=FACE_BOUND('',#186,.T.);
#164=EDGE_LOOP('',(#188));
#165=EDGE_LOOP('',(#189));
#166=EDGE_LOOP('',(#190));
#167=EDGE_LOOP('',(#191));
#168=EDGE_LOOP('',(#192));
#169=EDGE_LOOP('',(#193));
#170=EDGE_LOOP('',(#194));
#171=EDGE_LOOP('',(#195));
#172=EDGE_LOOP('',(#196));
#173=EDGE_LOOP('',(#197));
#174=EDGE_LOOP('',(#198));
#175=EDGE_LOOP('',(#199));
#176=EDGE_LOOP('',(#200));
#177=EDGE_LOOP('',(#201));
#178=EDGE_LOOP('',(#202));
#179=EDGE_LOOP('',(#203));
#180=EDGE_LOOP('',(#204));
#181=EDGE_LOOP('',(#205));
#182=EDGE_LOOP('',(#206));
#183=EDGE_LOOP('',(#207));
#184=EDGE_LOOP('',(#208));
#185=EDGE_LOOP('',(#209));
#186=EDGE_LOOP('',(#210));
#187=EDGE_LOOP('',(#211));
#188=ORIENTED_EDGE('',*,*,#224,.T.);
#189=ORIENTED_EDGE('',*,*,#225,.F.);
#190=ORIENTED_EDGE('',*,*,#225,.T.);
#191=ORIENTED_EDGE('',*,*,#226,.F.);
#192=ORIENTED_EDGE('',*,*,#226,.T.);
#193=ORIENTED_EDGE('',*,*,#227,.F.);
#194=ORIENTED_EDGE('',*,*,#224,.F.);
#195=ORIENTED_EDGE('',*,*,#227,.T.);
#196=ORIENTED_EDGE('',*,*,#228,.T.);
#197=ORIENTED_EDGE('',*,*,#229,.T.);
#198=ORIENTED_EDGE('',*,*,#230,.F.);
#199=ORIENTED_EDGE('',*,*,#231,.F.);
#200=ORIENTED_EDGE('',*,*,#230,.T.);
#201=ORIENTED_EDGE('',*,*,#231,.T.);
#202=ORIENTED_EDGE('',*,*,#232,.F.);
#203=ORIENTED_EDGE('',*,*,#232,.T.);
#204=ORIENTED_EDGE('',*,*,#233,.F.);
#205=ORIENTED_EDGE('',*,*,#234,.F.);
#206=ORIENTED_EDGE('',*,*,#233,.T.);
#207=ORIENTED_EDGE('',*,*,#234,.T.);
#208=ORIENTED_EDGE('',*,*,#228,.F.);
#209=ORIENTED_EDGE('',*,*,#235,.T.);
#210=ORIENTED_EDGE('',*,*,#229,.F.);
#211=ORIENTED_EDGE('',*,*,#235,.F.);
#212=VERTEX_POINT('',#328);
#213=VERTEX_POINT('',#330);
#214=VERTEX_POINT('',#333);
#215=VERTEX_POINT('',#336);
#216=VERTEX_POINT('',#340);
#217=VERTEX_POINT('',#343);
#218=VERTEX_POINT('',#345);
#219=VERTEX_POINT('',#348);
#220=VERTEX_POINT('',#351);
#221=VERTEX_POINT('',#354);
#222=VERTEX_POINT('',#357);
#223=VERTEX_POINT('',#361);
#224=EDGE_CURVE('',#212,#212,#236,.T.);
#225=EDGE_CURVE('',#213,#213,#237,.T.);
#226=EDGE_CURVE('',#214,#214,#238,.T.);
#227=EDGE_CURVE('',#215,#215,#239,.T.);
#228=EDGE_CURVE('',#216,#216,#240,.T.);
#229=EDGE_CURVE('',#217,#217,#241,.T.);
#230=EDGE_CURVE('',#218,#218,#242,.T.);
#231=EDGE_CURVE('',#219,#219,#243,.T.);
#232=EDGE_CURVE('',#220,#220,#244,.T.);
#233=EDGE_CURVE('',#221,#221,#245,.T.);
#234=EDGE_CURVE('',#222,#222,#246,.T.);
#235=EDGE_CURVE('',#223,#223,#247,.T.);
#236=CIRCLE('',#249,2.49698477092001);
#237=CIRCLE('',#250,3.89999999997);
#238=CIRCLE('',#252,3.89999999997);
#239=CIRCLE('',#254,2.49698477092001);
#240=CIRCLE('',#257,3.49999999997001);
#241=CIRCLE('',#259,2.49698477092001);
#242=CIRCLE('',#260,2.49999999997001);
#243=CIRCLE('',#262,2.49999999997001);
#244=CIRCLE('',#264,3.08578643762001);
#245=CIRCLE('',#266,3.99999999997001);
#246=CIRCLE('',#268,3.99999999997001);
#247=CIRCLE('',#271,2.49698477092001);
#248=AXIS2_PLACEMENT_3D('',#326,#274,#275);
#249=AXIS2_PLACEMENT_3D('',#327,#276,#277);
#250=AXIS2_PLACEMENT_3D('',#329,#278,#279);
#251=AXIS2_PLACEMENT_3D('',#331,#280,#281);
#252=AXIS2_PLACEMENT_3D('',#332,#282,#283);
#253=AXIS2_PLACEMENT_3D('',#334,#284,#285);
#254=AXIS2_PLACEMENT_3D('',#335,#286,#287);
#255=AXIS2_PLACEMENT_3D('',#337,#288,#289);
#256=AXIS2_PLACEMENT_3D('',#338,#290,#291);
#257=AXIS2_PLACEMENT_3D('',#339,#292,#293);
#258=AXIS2_PLACEMENT_3D('',#341,#294,#295);
#259=AXIS2_PLACEMENT_3D('',#342,#296,#297);
#260=AXIS2_PLACEMENT_3D('',#344,#298,#299);
#261=AXIS2_PLACEMENT_3D('',#346,#300,#301);
#262=AXIS2_PLACEMENT_3D('',#347,#302,#303);
#263=AXIS2_PLACEMENT_3D('',#349,#304,#305);
#264=AXIS2_PLACEMENT_3D('',#350,#306,#307);
#265=AXIS2_PLACEMENT_3D('',#352,#308,#309);
#266=AXIS2_PLACEMENT_3D('',#353,#310,#311);
#267=AXIS2_PLACEMENT_3D('',#355,#312,#313);
#268=AXIS2_PLACEMENT_3D('',#356,#314,#315);
#269=AXIS2_PLACEMENT_3D('',#358,#316,#317);
#270=AXIS2_PLACEMENT_3D('',#359,#318,#319);
#271=AXIS2_PLACEMENT_3D('',#360,#320,#321);
#272=AXIS2_PLACEMENT_3D('',#362,#322,#323);
#273=AXIS2_PLACEMENT_3D('',#363,#324,#325);
#274=DIRECTION('',(0.,0.,1.));
#275=DIRECTION('',(1.,0.,0.));
#276=DIRECTION('',(0.,0.,1.));
#277=DIRECTION('',(1.,0.,0.));
#278=DIRECTION('',(0.,0.,1.));
#279=DIRECTION('',(1.,0.,0.));
#280=DIRECTION('',(0.,0.,1.));
#281=DIRECTION('',(1.,0.,1.37942808863209E-017));
#282=DIRECTION('',(0.,0.,1.));
#283=DIRECTION('',(1.,0.,0.));
#284=DIRECTION('',(0.,0.,1.));
#285=DIRECTION('',(1.,0.,0.));
#286=DIRECTION('',(0.,0.,1.));
#287=DIRECTION('',(1.,0.,0.));
#288=DIRECTION('',(0.,0.,-1.));
#289=DIRECTION('',(-1.,0.,5.52541795241456E-017));
#290=DIRECTION('',(0.,0.,1.));
#291=DIRECTION('',(1.,0.,0.));
#292=DIRECTION('',(0.,0.,1.));
#293=DIRECTION('',(1.,0.,0.));
#294=DIRECTION('',(0.,0.,1.));
#295=DIRECTION('',(1.,0.,0.));
#296=DIRECTION('',(0.,0.,1.));
#297=DIRECTION('',(1.,0.,0.));
#298=DIRECTION('',(0.,0.,1.));
#299=DIRECTION('',(1.,0.,0.));
#300=DIRECTION('',(0.,0.,1.));
#301=DIRECTION('',(1.,0.,1.59278788033484E-014));
#302=DIRECTION('',(0.,0.,1.));
#303=DIRECTION('',(1.,0.,0.));
#304=DIRECTION('',(0.,0.,1.));
#305=DIRECTION('',(1.,0.,0.));
#306=DIRECTION('',(0.,0.,1.));
#307=DIRECTION('',(1.,0.,0.));
#308=DIRECTION('',(0.,0.,1.));
#309=DIRECTION('',(1.,0.,0.));
#310=DIRECTION('',(0.,0.,1.));
#311=DIRECTION('',(1.,0.,0.));
#312=DIRECTION('',(0.,0.,1.));
#313=DIRECTION('',(1.,0.,-2.76449956330974E-017));
#314=DIRECTION('',(0.,0.,1.));
#315=DIRECTION('',(1.,0.,0.));
#316=DIRECTION('',(0.,0.,1.));
#317=DIRECTION('',(1.,0.,0.));
#318=DIRECTION('',(0.,0.,-1.));
#319=DIRECTION('',(-1.,0.,0.));
#320=DIRECTION('',(0.,0.,1.));
#321=DIRECTION('',(1.,0.,0.));
#322=DIRECTION('',(0.,0.,1.));
#323=DIRECTION('',(1.,0.,0.));
#324=DIRECTION('',(0.,0.,1.));
#325=DIRECTION('',(1.,0.,0.));
#326=CARTESIAN_POINT('',(0.,0.,0.));
#327=CARTESIAN_POINT('',(0.,0.,-68.));
#328=CARTESIAN_POINT('',(2.49698477092001,0.,-68.));
#329=CARTESIAN_POINT('',(0.,0.,-66.6));
#330=CARTESIAN_POINT('',(3.89999999997,0.,-66.6));
#331=CARTESIAN_POINT('',(0.,0.,-66.6));
#332=CARTESIAN_POINT('',(0.,0.,-66.4));
#333=CARTESIAN_POINT('',(3.89999999997,0.,-66.4));
#334=CARTESIAN_POINT('',(0.,0.,-17.5));
#335=CARTESIAN_POINT('',(0.,0.,-65.));
#336=CARTESIAN_POINT('',(2.49698477092001,0.,-65.));
#337=CARTESIAN_POINT('',(0.,0.,-65.));
#338=CARTESIAN_POINT('',(0.,0.,-68.));
#339=CARTESIAN_POINT('',(0.,0.,0.));
#340=CARTESIAN_POINT('',(3.49999999997001,0.,0.));
#341=CARTESIAN_POINT('',(0.,0.,0.));
#342=CARTESIAN_POINT('',(0.,0.,-65.));
#343=CARTESIAN_POINT('',(2.49698477092001,0.,-65.));
#344=CARTESIAN_POINT('',(0.,0.,-59.51289667025));
#345=CARTESIAN_POINT('',(2.49999999997001,0.,-59.51289667025));
#346=CARTESIAN_POINT('',(0.,0.,-59.51289667025));
#347=CARTESIAN_POINT('',(0.,0.,-43.));
#348=CARTESIAN_POINT('',(2.49999999997001,0.,-43.));
#349=CARTESIAN_POINT('',(0.,0.,-17.5));
#350=CARTESIAN_POINT('',(0.,0.,-41.5857864376));
#351=CARTESIAN_POINT('',(3.08578643762001,0.,-41.5857864376));
#352=CARTESIAN_POINT('',(0.,0.,-43.));
#353=CARTESIAN_POINT('',(0.,0.,-40.67157287525));
#354=CARTESIAN_POINT('',(3.99999999997001,0.,-40.67157287525));
#355=CARTESIAN_POINT('',(0.,0.,-40.67157287525));
#356=CARTESIAN_POINT('',(0.,0.,-0.5));
#357=CARTESIAN_POINT('',(3.99999999997001,0.,-0.5));
#358=CARTESIAN_POINT('',(0.,0.,-17.5));
#359=CARTESIAN_POINT('',(0.,0.,0.));
#360=CARTESIAN_POINT('',(0.,0.,-68.));
#361=CARTESIAN_POINT('',(2.49698477092001,0.,-68.));
#362=CARTESIAN_POINT('',(0.,0.,-68.));
#363=CARTESIAN_POINT('',(0.,0.,-68.));
#364=MECHANICAL_DESIGN_GEOMETRIC_PRESENTATION_REPRESENTATION('',(#99,#100),
#365);
#365=(
GEOMETRIC_REPRESENTATION_CONTEXT(3)
GLOBAL_UNCERTAINTY_ASSIGNED_CONTEXT((#366))
GLOBAL_UNIT_ASSIGNED_CONTEXT((#372,#368,#367))
REPRESENTATION_CONTEXT('326R08_B2502012_CH_SIM',
'TOP_LEVEL_ASSEMBLY_PART')
);
#366=UNCERTAINTY_MEASURE_WITH_UNIT(LENGTH_MEASURE(2.E-005),#372,
'DISTANCE_ACCURACY_VALUE','Maximum Tolerance applied to model');
#367=(
NAMED_UNIT(*)
SI_UNIT($,.STERADIAN.)
SOLID_ANGLE_UNIT()
);
#368=(
CONVERSION_BASED_UNIT('DEGREE',#370)
NAMED_UNIT(#369)
PLANE_ANGLE_UNIT()
);
#369=DIMENSIONAL_EXPONENTS(0.,0.,0.,0.,0.,0.,0.);
#370=PLANE_ANGLE_MEASURE_WITH_UNIT(PLANE_ANGLE_MEASURE(0.0174532925),#371);
#371=(
NAMED_UNIT(*)
PLANE_ANGLE_UNIT()
SI_UNIT($,.RADIAN.)
);
#372=(
LENGTH_UNIT()
NAMED_UNIT(*)
SI_UNIT(.MILLI.,.METRE.)
);
ENDSEC;
END-ISO-10303-21;
