ISO-10303-21;
HEADER;
/* Generated by software containing ST-Developer
 * from STEP Tools, Inc. (www.steptools.com) 
 */
/* OPTION: using custom schema-name function */

FILE_DESCRIPTION(
/* description */ (''),
/* implementation_level */ '2;1');

FILE_NAME(
/* name */ '326R06_B15050VM_TH_SIM.stp',
/* time_stamp */ '2016-11-28T09:09:59+01:00',
/* author */ (''),
/* organization */ ('SMS'),
/* preprocessor_version */ 'ST-DEVELOPER v15',
/* originating_system */ 'SIEMENS PLM Software NX 8.5',
/* authorisation */ '');

FILE_SCHEMA (('AUTOMOTIVE_DESIGN { 1 0 10303 214 3 1 1 1 }'));
ENDSEC;

DATA;
#10=SHAPE_REPRESENTATION_RELATIONSHIP('None',
'relationship between 326R06_B15050VM_TH_SIM-None and 326R06_B15050VM_
TH_SIM-None',#22,#11);
#11=ADVANCED_BREP_SHAPE_REPRESENTATION('326R06_B15050VM_TH_SIM-None',(#40,
#41),#315);
#12=SHAPE_DEFINITION_REPRESENTATION(#13,#22);
#13=PRODUCT_DEFINITION_SHAPE('','',#14);
#14=PRODUCT_DEFINITION(' ','',#16,#15);
#15=PRODUCT_DEFINITION_CONTEXT('part definition',#21,'design');
#16=PRODUCT_DEFINITION_FORMATION_WITH_SPECIFIED_SOURCE(' ',' ',#18,
 .NOT_KNOWN.);
#17=PRODUCT_RELATED_PRODUCT_CATEGORY('part','',(#18));
#18=PRODUCT('326R06_B15050VM_TH_SIM','326R06_B15050VM_TH_SIM',' ',(#19));
#19=PRODUCT_CONTEXT(' ',#21,'mechanical');
#20=APPLICATION_PROTOCOL_DEFINITION('international standard',
'automotive_design',2010,#21);
#21=APPLICATION_CONTEXT(
'core data for automotive mechanical design processes');
#22=SHAPE_REPRESENTATION('326R06_B15050VM_TH_SIM-None',(#189),#315);
#23=PRESENTATION_LAYER_ASSIGNMENT('1','Layer 1',(#40,#41));
#24=STYLED_ITEM('',(#26),#40);
#25=STYLED_ITEM('',(#27),#41);
#26=PRESENTATION_STYLE_ASSIGNMENT((#28));
#27=PRESENTATION_STYLE_ASSIGNMENT((#29));
#28=SURFACE_STYLE_USAGE(.BOTH.,#30);
#29=SURFACE_STYLE_USAGE(.BOTH.,#31);
#30=SURFACE_SIDE_STYLE('',(#32));
#31=SURFACE_SIDE_STYLE('',(#33));
#32=SURFACE_STYLE_FILL_AREA(#34);
#33=SURFACE_STYLE_FILL_AREA(#35);
#34=FILL_AREA_STYLE('',(#36));
#35=FILL_AREA_STYLE('',(#37));
#36=FILL_AREA_STYLE_COLOUR('',#38);
#37=FILL_AREA_STYLE_COLOUR('',#39);
#38=COLOUR_RGB('TLS_NOCUT',0.499992370489052,0.499992370489052,0.499992370489052);
#39=COLOUR_RGB('TLS_CUT',0.8,0.8,0.8);
#40=MANIFOLD_SOLID_BREP('',#42);
#41=MANIFOLD_SOLID_BREP('',#43);
#42=CLOSED_SHELL('',(#54,#55,#56,#57,#58,#59,#60,#61,#62,#63));
#43=CLOSED_SHELL('',(#64,#65,#66,#67));
#44=PLANE('',#203);
#45=PLANE('',#207);
#46=FACE_OUTER_BOUND('',#110,.T.);
#47=FACE_OUTER_BOUND('',#113,.T.);
#48=TOROIDAL_SURFACE('',#196,3.75,2.);
#49=CYLINDRICAL_SURFACE('',#194,1.75);
#50=CYLINDRICAL_SURFACE('',#200,3.);
#51=CYLINDRICAL_SURFACE('',#205,1.74709070955881);
#52=CYLINDRICAL_SURFACE('',#213,2.9);
#53=CYLINDRICAL_SURFACE('',#216,1.74709070955881);
#54=ADVANCED_FACE('',(#74,#75),#68,.T.);
#55=ADVANCED_FACE('',(#76,#77),#49,.T.);
#56=ADVANCED_FACE('',(#78,#79),#48,.F.);
#57=ADVANCED_FACE('',(#80,#81),#69,.T.);
#58=ADVANCED_FACE('',(#82,#83),#50,.T.);
#59=ADVANCED_FACE('',(#84,#85),#70,.T.);
#60=ADVANCED_FACE('',(#46),#44,.T.);
#61=ADVANCED_FACE('',(#86,#87),#51,.T.);
#62=ADVANCED_FACE('',(#47),#45,.T.);
#63=ADVANCED_FACE('',(#88,#89),#71,.T.);
#64=ADVANCED_FACE('',(#90,#91),#72,.T.);
#65=ADVANCED_FACE('',(#92,#93),#52,.T.);
#66=ADVANCED_FACE('',(#94,#95),#73,.T.);
#67=ADVANCED_FACE('',(#96,#97),#53,.F.);
#68=CONICAL_SURFACE('',#192,1.75,0.0183779664941813);
#69=CONICAL_SURFACE('',#198,3.,45.0000000008628);
#70=CONICAL_SURFACE('',#202,2.5,45.);
#71=CONICAL_SURFACE('',#208,1.74709070955881,60.0000000000001);
#72=CONICAL_SURFACE('',#211,2.9,60.0810476084382);
#73=CONICAL_SURFACE('',#215,1.74709071046,60.0626453686373);
#74=FACE_BOUND('',#98,.T.);
#75=FACE_BOUND('',#99,.T.);
#76=FACE_BOUND('',#100,.T.);
#77=FACE_BOUND('',#101,.T.);
#78=FACE_BOUND('',#102,.T.);
#79=FACE_BOUND('',#103,.T.);
#80=FACE_BOUND('',#104,.T.);
#81=FACE_BOUND('',#105,.T.);
#82=FACE_BOUND('',#106,.T.);
#83=FACE_BOUND('',#107,.T.);
#84=FACE_BOUND('',#108,.T.);
#85=FACE_BOUND('',#109,.T.);
#86=FACE_BOUND('',#111,.T.);
#87=FACE_BOUND('',#112,.T.);
#88=FACE_BOUND('',#114,.T.);
#89=FACE_BOUND('',#115,.T.);
#90=FACE_BOUND('',#116,.T.);
#91=FACE_BOUND('',#117,.T.);
#92=FACE_BOUND('',#118,.T.);
#93=FACE_BOUND('',#119,.T.);
#94=FACE_BOUND('',#120,.T.);
#95=FACE_BOUND('',#121,.T.);
#96=FACE_BOUND('',#122,.T.);
#97=FACE_BOUND('',#123,.T.);
#98=EDGE_LOOP('',(#124));
#99=EDGE_LOOP('',(#125));
#100=EDGE_LOOP('',(#126));
#101=EDGE_LOOP('',(#127));
#102=EDGE_LOOP('',(#128));
#103=EDGE_LOOP('',(#129));
#104=EDGE_LOOP('',(#130));
#105=EDGE_LOOP('',(#131));
#106=EDGE_LOOP('',(#132));
#107=EDGE_LOOP('',(#133));
#108=EDGE_LOOP('',(#134));
#109=EDGE_LOOP('',(#135));
#110=EDGE_LOOP('',(#136));
#111=EDGE_LOOP('',(#137));
#112=EDGE_LOOP('',(#138));
#113=EDGE_LOOP('',(#139));
#114=EDGE_LOOP('',(#140));
#115=EDGE_LOOP('',(#141));
#116=EDGE_LOOP('',(#142));
#117=EDGE_LOOP('',(#143));
#118=EDGE_LOOP('',(#144));
#119=EDGE_LOOP('',(#145));
#120=EDGE_LOOP('',(#146));
#121=EDGE_LOOP('',(#147));
#122=EDGE_LOOP('',(#148));
#123=EDGE_LOOP('',(#149));
#124=ORIENTED_EDGE('',*,*,#163,.T.);
#125=ORIENTED_EDGE('',*,*,#164,.F.);
#126=ORIENTED_EDGE('',*,*,#164,.T.);
#127=ORIENTED_EDGE('',*,*,#165,.F.);
#128=ORIENTED_EDGE('',*,*,#165,.T.);
#129=ORIENTED_EDGE('',*,*,#166,.F.);
#130=ORIENTED_EDGE('',*,*,#166,.T.);
#131=ORIENTED_EDGE('',*,*,#167,.F.);
#132=ORIENTED_EDGE('',*,*,#168,.F.);
#133=ORIENTED_EDGE('',*,*,#167,.T.);
#134=ORIENTED_EDGE('',*,*,#168,.T.);
#135=ORIENTED_EDGE('',*,*,#169,.F.);
#136=ORIENTED_EDGE('',*,*,#169,.T.);
#137=ORIENTED_EDGE('',*,*,#170,.T.);
#138=ORIENTED_EDGE('',*,*,#163,.F.);
#139=ORIENTED_EDGE('',*,*,#171,.T.);
#140=ORIENTED_EDGE('',*,*,#171,.F.);
#141=ORIENTED_EDGE('',*,*,#170,.F.);
#142=ORIENTED_EDGE('',*,*,#172,.F.);
#143=ORIENTED_EDGE('',*,*,#173,.F.);
#144=ORIENTED_EDGE('',*,*,#172,.T.);
#145=ORIENTED_EDGE('',*,*,#174,.F.);
#146=ORIENTED_EDGE('',*,*,#174,.T.);
#147=ORIENTED_EDGE('',*,*,#175,.T.);
#148=ORIENTED_EDGE('',*,*,#175,.F.);
#149=ORIENTED_EDGE('',*,*,#173,.T.);
#150=VERTEX_POINT('',#275);
#151=VERTEX_POINT('',#277);
#152=VERTEX_POINT('',#280);
#153=VERTEX_POINT('',#283);
#154=VERTEX_POINT('',#286);
#155=VERTEX_POINT('',#289);
#156=VERTEX_POINT('',#292);
#157=VERTEX_POINT('',#296);
#158=VERTEX_POINT('',#299);
#159=VERTEX_POINT('',#303);
#160=VERTEX_POINT('',#305);
#161=VERTEX_POINT('',#308);
#162=VERTEX_POINT('',#311);
#163=EDGE_CURVE('',#150,#150,#176,.T.);
#164=EDGE_CURVE('',#151,#151,#177,.T.);
#165=EDGE_CURVE('',#152,#152,#178,.T.);
#166=EDGE_CURVE('',#153,#153,#179,.T.);
#167=EDGE_CURVE('',#154,#154,#180,.T.);
#168=EDGE_CURVE('',#155,#155,#181,.T.);
#169=EDGE_CURVE('',#156,#156,#182,.T.);
#170=EDGE_CURVE('',#157,#157,#183,.T.);
#171=EDGE_CURVE('',#158,#158,#184,.T.);
#172=EDGE_CURVE('',#159,#159,#185,.T.);
#173=EDGE_CURVE('',#160,#160,#186,.T.);
#174=EDGE_CURVE('',#161,#161,#187,.T.);
#175=EDGE_CURVE('',#162,#162,#188,.T.);
#176=CIRCLE('',#190,1.74709070955881);
#177=CIRCLE('',#191,1.75);
#178=CIRCLE('',#193,1.75);
#179=CIRCLE('',#195,2.33578643762);
#180=CIRCLE('',#197,3.);
#181=CIRCLE('',#199,3.);
#182=CIRCLE('',#201,2.5);
#183=CIRCLE('',#204,1.74709070955881);
#184=CIRCLE('',#206,1.56409954173917);
#185=CIRCLE('',#209,2.9);
#186=CIRCLE('',#210,1.74709070955881);
#187=CIRCLE('',#212,2.9);
#188=CIRCLE('',#214,1.74709070955881);
#189=AXIS2_PLACEMENT_3D('',#273,#217,#218);
#190=AXIS2_PLACEMENT_3D('',#274,#219,#220);
#191=AXIS2_PLACEMENT_3D('',#276,#221,#222);
#192=AXIS2_PLACEMENT_3D('',#278,#223,#224);
#193=AXIS2_PLACEMENT_3D('',#279,#225,#226);
#194=AXIS2_PLACEMENT_3D('',#281,#227,#228);
#195=AXIS2_PLACEMENT_3D('',#282,#229,#230);
#196=AXIS2_PLACEMENT_3D('',#284,#231,#232);
#197=AXIS2_PLACEMENT_3D('',#285,#233,#234);
#198=AXIS2_PLACEMENT_3D('',#287,#235,#236);
#199=AXIS2_PLACEMENT_3D('',#288,#237,#238);
#200=AXIS2_PLACEMENT_3D('',#290,#239,#240);
#201=AXIS2_PLACEMENT_3D('',#291,#241,#242);
#202=AXIS2_PLACEMENT_3D('',#293,#243,#244);
#203=AXIS2_PLACEMENT_3D('',#294,#245,#246);
#204=AXIS2_PLACEMENT_3D('',#295,#247,#248);
#205=AXIS2_PLACEMENT_3D('',#297,#249,#250);
#206=AXIS2_PLACEMENT_3D('',#298,#251,#252);
#207=AXIS2_PLACEMENT_3D('',#300,#253,#254);
#208=AXIS2_PLACEMENT_3D('',#301,#255,#256);
#209=AXIS2_PLACEMENT_3D('',#302,#257,#258);
#210=AXIS2_PLACEMENT_3D('',#304,#259,#260);
#211=AXIS2_PLACEMENT_3D('',#306,#261,#262);
#212=AXIS2_PLACEMENT_3D('',#307,#263,#264);
#213=AXIS2_PLACEMENT_3D('',#309,#265,#266);
#214=AXIS2_PLACEMENT_3D('',#310,#267,#268);
#215=AXIS2_PLACEMENT_3D('',#312,#269,#270);
#216=AXIS2_PLACEMENT_3D('',#313,#271,#272);
#217=DIRECTION('',(0.,0.,1.));
#218=DIRECTION('',(1.,0.,0.));
#219=DIRECTION('',(0.,0.,1.));
#220=DIRECTION('',(-1.,0.,0.));
#221=DIRECTION('',(0.,0.,1.));
#222=DIRECTION('',(1.,0.,0.));
#223=DIRECTION('',(0.,0.,1.));
#224=DIRECTION('',(1.,0.,6.7017975877305E-015));
#225=DIRECTION('',(0.,0.,1.));
#226=DIRECTION('',(1.,0.,0.));
#227=DIRECTION('',(0.,0.,1.));
#228=DIRECTION('',(1.,0.,0.));
#229=DIRECTION('',(0.,0.,1.));
#230=DIRECTION('',(1.,0.,0.));
#231=DIRECTION('',(0.,0.,1.));
#232=DIRECTION('',(1.,0.,0.));
#233=DIRECTION('',(0.,0.,1.));
#234=DIRECTION('',(1.,0.,0.));
#235=DIRECTION('',(0.,0.,1.));
#236=DIRECTION('',(1.,0.,6.91813948524315E-018));
#237=DIRECTION('',(0.,0.,1.));
#238=DIRECTION('',(1.,0.,0.));
#239=DIRECTION('',(0.,0.,1.));
#240=DIRECTION('',(1.,0.,0.));
#241=DIRECTION('',(0.,0.,1.));
#242=DIRECTION('',(1.,0.,0.));
#243=DIRECTION('',(0.,0.,-1.));
#244=DIRECTION('',(-1.,0.,0.));
#245=DIRECTION('',(0.,0.,1.));
#246=DIRECTION('',(1.,0.,0.));
#247=DIRECTION('',(0.,0.,1.));
#248=DIRECTION('',(-1.,0.,0.));
#249=DIRECTION('',(0.,0.,1.));
#250=DIRECTION('',(1.,0.,0.));
#251=DIRECTION('',(0.,0.,-1.));
#252=DIRECTION('',(-1.,0.,0.));
#253=DIRECTION('',(0.,0.,-1.));
#254=DIRECTION('',(-1.,0.,0.));
#255=DIRECTION('',(0.,0.,1.));
#256=DIRECTION('',(1.,0.,8.00427075242984E-018));
#257=DIRECTION('',(0.,0.,1.));
#258=DIRECTION('',(1.,0.,0.));
#259=DIRECTION('',(0.,0.,-1.));
#260=DIRECTION('',(1.,0.,0.));
#261=DIRECTION('',(0.,0.,1.));
#262=DIRECTION('',(1.,0.,2.39186577697502E-017));
#263=DIRECTION('',(0.,0.,1.));
#264=DIRECTION('',(1.,0.,0.));
#265=DIRECTION('',(0.,0.,1.));
#266=DIRECTION('',(1.,0.,0.));
#267=DIRECTION('',(0.,0.,-1.));
#268=DIRECTION('',(-1.,0.,0.));
#269=DIRECTION('',(0.,0.,-1.));
#270=DIRECTION('',(-1.,0.,3.99204640591223E-018));
#271=DIRECTION('',(0.,0.,1.));
#272=DIRECTION('',(1.,0.,0.));
#273=CARTESIAN_POINT('',(0.,0.,0.));
#274=CARTESIAN_POINT('',(0.,0.,-56.5048));
#275=CARTESIAN_POINT('',(-1.74709070955881,0.,-56.5048));
#276=CARTESIAN_POINT('',(0.,0.,-47.43469651528));
#277=CARTESIAN_POINT('',(1.75,0.,-47.43469651528));
#278=CARTESIAN_POINT('',(0.,0.,-47.43469651528));
#279=CARTESIAN_POINT('',(0.,0.,-43.));
#280=CARTESIAN_POINT('',(1.75,0.,-43.));
#281=CARTESIAN_POINT('',(0.,0.,-17.5));
#282=CARTESIAN_POINT('',(0.,0.,-41.58578643762));
#283=CARTESIAN_POINT('',(2.33578643762,0.,-41.58578643762));
#284=CARTESIAN_POINT('',(0.,0.,-43.));
#285=CARTESIAN_POINT('',(0.,0.,-40.92157287526));
#286=CARTESIAN_POINT('',(3.,0.,-40.92157287526));
#287=CARTESIAN_POINT('',(0.,0.,-40.92157287526));
#288=CARTESIAN_POINT('',(0.,0.,-0.5));
#289=CARTESIAN_POINT('',(3.,0.,-0.5));
#290=CARTESIAN_POINT('',(0.,0.,-17.5));
#291=CARTESIAN_POINT('',(0.,0.,0.));
#292=CARTESIAN_POINT('',(2.5,0.,0.));
#293=CARTESIAN_POINT('',(0.,0.,0.));
#294=CARTESIAN_POINT('',(0.,1.77635683940025E-015,0.));
#295=CARTESIAN_POINT('',(0.,0.,-57.89435));
#296=CARTESIAN_POINT('',(-1.74709070955881,0.,-57.89435));
#297=CARTESIAN_POINT('',(0.,0.,-58.));
#298=CARTESIAN_POINT('',(0.,0.,-58.));
#299=CARTESIAN_POINT('',(-1.56409954173917,0.,-58.));
#300=CARTESIAN_POINT('',(0.,0.,-58.));
#301=CARTESIAN_POINT('',(0.,0.,-57.89435));
#302=CARTESIAN_POINT('',(0.,0.,-57.23125));
#303=CARTESIAN_POINT('',(2.9,0.,-57.23125));
#304=CARTESIAN_POINT('',(0.,0.,-57.8947098020281));
#305=CARTESIAN_POINT('',(1.74709070955881,0.,-57.8947098020281));
#306=CARTESIAN_POINT('',(0.,0.,-57.23125));
#307=CARTESIAN_POINT('',(0.,0.,-57.16875));
#308=CARTESIAN_POINT('',(2.9,0.,-57.16875));
#309=CARTESIAN_POINT('',(0.,0.,-57.7875));
#310=CARTESIAN_POINT('',(0.,0.,-56.5048));
#311=CARTESIAN_POINT('',(-1.74709070955881,0.,-56.5048));
#312=CARTESIAN_POINT('',(0.,0.,-56.50479719044));
#313=CARTESIAN_POINT('',(0.,0.,-71.30728));
#314=MECHANICAL_DESIGN_GEOMETRIC_PRESENTATION_REPRESENTATION('',(#24,#25),
#315);
#315=(
GEOMETRIC_REPRESENTATION_CONTEXT(3)
GLOBAL_UNCERTAINTY_ASSIGNED_CONTEXT((#316))
GLOBAL_UNIT_ASSIGNED_CONTEXT((#322,#318,#317))
REPRESENTATION_CONTEXT('326R06_B15050VM_TH_SIM',
'TOP_LEVEL_ASSEMBLY_PART')
);
#316=UNCERTAINTY_MEASURE_WITH_UNIT(LENGTH_MEASURE(2.E-005),#322,
'DISTANCE_ACCURACY_VALUE','Maximum Tolerance applied to model');
#317=(
NAMED_UNIT(*)
SI_UNIT($,.STERADIAN.)
SOLID_ANGLE_UNIT()
);
#318=(
CONVERSION_BASED_UNIT('DEGREE',#320)
NAMED_UNIT(#319)
PLANE_ANGLE_UNIT()
);
#319=DIMENSIONAL_EXPONENTS(0.,0.,0.,0.,0.,0.,0.);
#320=PLANE_ANGLE_MEASURE_WITH_UNIT(PLANE_ANGLE_MEASURE(0.0174532925),#321);
#321=(
NAMED_UNIT(*)
PLANE_ANGLE_UNIT()
SI_UNIT($,.RADIAN.)
);
#322=(
LENGTH_UNIT()
NAMED_UNIT(*)
SI_UNIT(.MILLI.,.METRE.)
);
ENDSEC;
END-ISO-10303-21;
