ISO-10303-21;
HEADER;
FILE_DESCRIPTION(('STEP'), '1');
FILE_NAME('C:\\Users\\ds2002\\OneDrive - Sandvik\\HomeShare\\Documents\\Batchrepair\\CorSRT2\\NEW_MILBN_SLD\\Output3\\MOD000000000000000020082349000000.stp', '2018-11-27T13:11:55', (''), (''), 'Express v3.0.0.0', 'Express Tool', 'Unknown');
FILE_SCHEMA(('AUTOMOTIVE_DESIGN'));
ENDSEC;

DATA;
#1 = MANIFOLD_SOLID_BREP('NOCUT', #2);
#2 = CLOSED_SHELL('', (#3, #50, #70, #117, #164, #173, #185, #216));
#3 = ADVANCED_FACE('', (#4), #31, .T.);
#4 = FACE_OUTER_BOUND('', #5, .T.);
#5 = EDGE_LOOP('', (#6, #16, #23, #24));
#6 = ORIENTED_EDGE('', *, *, #7, .F.);
#7 = EDGE_CURVE('', #8, #10, #12, .T.);
#8 = VERTEX_POINT('', #9);
#9 = CARTESIAN_POINT('', (-7.75, 4.74550634669599E-16, 0.));
#10 = VERTEX_POINT('', #11);
#11 = CARTESIAN_POINT('', (-7.75, 1.09912050223475E-15, -10.2));
#12 = LINE('', #13, #14);
#13 = CARTESIAN_POINT('', (-7.75, 4.74550634669599E-16, 0.));
#14 = VECTOR('', #15, 10.2);
#15 = DIRECTION('', (0., 6.24569867565151E-16, -10.2));
#16 = ORIENTED_EDGE('', *, *, #17, .T.);
#17 = EDGE_CURVE('', #8, #8, #18, .T.);
#18 = CIRCLE('', #19, 7.75);
#19 = AXIS2_PLACEMENT_3D('', #20, #21, #22);
#20 = CARTESIAN_POINT('', (1.16573417585641E-15, -1.11022302462516E-15, -7.39557098644699E-32));
#21 = DIRECTION('', (2.9785405931546E-33, 6.12323399573676E-17, -1.));
#22 = DIRECTION('', (-1., 2.04486923779968E-16, 9.54267224057675E-33));
#23 = ORIENTED_EDGE('', *, *, #7, .T.);
#24 = ORIENTED_EDGE('', *, *, #25, .F.);
#25 = EDGE_CURVE('', #10, #10, #26, .T.);
#26 = CIRCLE('', #27, 7.75);
#27 = AXIS2_PLACEMENT_3D('', #28, #29, #30);
#28 = CARTESIAN_POINT('', (-8.32667268468867E-16, 0., -10.2));
#29 = DIRECTION('', (0., 0., -1.));
#30 = DIRECTION('', (-1., -1.03107359541116E-16, 0.));
#31 = (
   BOUNDED_SURFACE ()
   B_SPLINE_SURFACE (2, 1, ((#32, #33), (#34, #35), (#36, #37), (#38, #39), (#40, #41), (#42, #43), (#44, #45), (#46, #47), (#48, #49)), .UNSPECIFIED., .T., .F., .U.)
   B_SPLINE_SURFACE_WITH_KNOTS ((3, 2, 2, 2, 3), (2, 2), (0., 12.1736715326605, 24.3473430653209, 36.5210145979814, 48.6946861306418), (0., 1.), .UNSPECIFIED.)
   GEOMETRIC_REPRESENTATION_ITEM ()
   RATIONAL_B_SPLINE_SURFACE (((1., 1.), (0.707106781186548, 0.707106781186548), (1., 1.), (0.707106781186548, 0.707106781186548), (1., 1.), (0.707106781186548, 0.707106781186548), (1., 1.), (0.707106781186548, 0.707106781186548), (1., 1.)))
   REPRESENTATION_ITEM ('')
   SURFACE ()
);
#32 = CARTESIAN_POINT('', (-7.75, 4.74550634669599E-16, -2.73691106313441E-48));
#33 = CARTESIAN_POINT('', (-7.75, 6.9659523959463E-16, -10.2));
#34 = CARTESIAN_POINT('', (-7.75, 7.75, 1.68710361585195E-16));
#35 = CARTESIAN_POINT('', (-7.75, 7.75, -10.2));
#36 = CARTESIAN_POINT('', (2.692290834716E-15, 7.75, 1.68710361585195E-16));
#37 = CARTESIAN_POINT('', (2.692290834716E-15, 7.75, -10.2));
#38 = CARTESIAN_POINT('', (7.75, 7.75, 1.68710361585195E-16));
#39 = CARTESIAN_POINT('', (7.75, 7.75, -10.2));
#40 = CARTESIAN_POINT('', (7.75, -1.30180620473065E-15, -3.99084285832641E-33));
#41 = CARTESIAN_POINT('', (7.75, -1.07976159980562E-15, -10.2));
#42 = CARTESIAN_POINT('', (7.75, -7.75, -1.68710361585195E-16));
#43 = CARTESIAN_POINT('', (7.75, -7.75, -10.2));
#44 = CARTESIAN_POINT('', (1.86503526465495E-15, -7.75, -1.68710361585195E-16));
#45 = CARTESIAN_POINT('', (1.86503526465495E-15, -7.75, -10.2));
#46 = CARTESIAN_POINT('', (-7.75, -7.75, -1.68710361585195E-16));
#47 = CARTESIAN_POINT('', (-7.75, -7.75, -10.2));
#48 = CARTESIAN_POINT('', (-7.75, 4.74550634669599E-16, -2.73691106313441E-48));
#49 = CARTESIAN_POINT('', (-7.75, 6.9659523959463E-16, -10.2));
#50 = ADVANCED_FACE('', (#51, #54), #65, .T.);
#51 = FACE_OUTER_BOUND('', #52, .T.);
#52 = EDGE_LOOP('', (#53));
#53 = ORIENTED_EDGE('', *, *, #17, .F.);
#54 = FACE_BOUND('', #55, .T.);
#55 = EDGE_LOOP('', (#56));
#56 = ORIENTED_EDGE('', *, *, #57, .T.);
#57 = EDGE_CURVE('', #58, #58, #60, .T.);
#58 = VERTEX_POINT('', #59);
#59 = CARTESIAN_POINT('', (-5.74, 3.5147363135529E-16, -5.47382212626882E-48));
#60 = CIRCLE('', #61, 5.74);
#61 = AXIS2_PLACEMENT_3D('', #62, #63, #64);
#62 = CARTESIAN_POINT('', (8.60422844084496E-16, -6.66133814775094E-16, -3.08148791101958E-32));
#63 = DIRECTION('', (5.48703936836387E-33, 6.12323399573677E-17, -1.));
#64 = DIRECTION('', (-1., -6.76458326290551E-17, -9.62915198860537E-33));
#65 = B_SPLINE_SURFACE_WITH_KNOTS('', 1, 1, ((#66, #67), (#68, #69)), .UNSPECIFIED., .F., .F., .U., (2, 2), (2, 2), (4.3061706192306, 19.8061706192306), (4.3061706192306, 19.8061706192306), .UNSPECIFIED.);
#66 = CARTESIAN_POINT('', (7.75, -7.75, -4.74550634669601E-16));
#67 = CARTESIAN_POINT('', (-7.75, -7.75, -4.74550634669602E-16));
#68 = CARTESIAN_POINT('', (7.75, 7.75, 4.74550634669598E-16));
#69 = CARTESIAN_POINT('', (-7.75, 7.75, 4.74550634669598E-16));
#70 = ADVANCED_FACE('', (#71), #98, .T.);
#71 = FACE_OUTER_BOUND('', #72, .T.);
#72 = EDGE_LOOP('', (#73, #83, #90, #91));
#73 = ORIENTED_EDGE('', *, *, #74, .T.);
#74 = EDGE_CURVE('', #75, #77, #79, .T.);
#75 = VERTEX_POINT('', #76);
#76 = CARTESIAN_POINT('', (-5.635, 1.79716917774874E-16, 2.7));
#77 = VERTEX_POINT('', #78);
#78 = CARTESIAN_POINT('', (-4.555, -5.1710711093997E-16, 13.));
#79 = LINE('', #80, #81);
#80 = CARTESIAN_POINT('', (-5.635, 1.79716917774874E-16, 2.7));
#81 = VECTOR('', #82, 10.3564665789061);
#82 = DIRECTION('', (1.08, -6.96824028714844E-16, 10.3));
#83 = ORIENTED_EDGE('', *, *, #84, .T.);
#84 = EDGE_CURVE('', #77, #77, #85, .T.);
#85 = CIRCLE('', #86, 4.555);
#86 = AXIS2_PLACEMENT_3D('', #87, #88, #89);
#87 = CARTESIAN_POINT('', (2.22044604925031E-16, -5.55111512312578E-16, 13.));
#88 = DIRECTION('', (0., 0., -1.));
#89 = DIRECTION('', (-1., -2.3658591276633E-16, 0.));
#90 = ORIENTED_EDGE('', *, *, #74, .F.);
#91 = ORIENTED_EDGE('', *, *, #92, .F.);
#92 = EDGE_CURVE('', #75, #75, #93, .T.);
#93 = CIRCLE('', #94, 5.635);
#94 = AXIS2_PLACEMENT_3D('', #95, #96, #97);
#95 = CARTESIAN_POINT('', (-1.01307850997046E-15, -2.88657986402541E-15, 2.7));
#96 = DIRECTION('', (-1.45957740006669E-31, -2.6822969968833E-16, -1.));
#97 = DIRECTION('', (-1., 5.44152046459677E-16, 0.));
#98 = (
   BOUNDED_SURFACE ()
   B_SPLINE_SURFACE (1, 2, ((#99, #100, #101, #102, #103, #104, #105, #106, #107), (#108, #109, #110, #111, #112, #113, #114, #115, #116)), .UNSPECIFIED., .F., .T., .U.)
   B_SPLINE_SURFACE_WITH_KNOTS ((2, 2), (3, 2, 2, 2, 3), (0., 1.), (0., 0.25, 0.5, 0.75, 1.), .UNSPECIFIED.)
   GEOMETRIC_REPRESENTATION_ITEM ()
   RATIONAL_B_SPLINE_SURFACE (((1., 0.707106781186548, 1., 0.707106781186548, 1., 0.707106781186548, 1., 0.707106781186548, 1.), (1., 0.707106781186548, 1., 0.707106781186548, 1., 0.707106781186548, 1., 0.707106781186548, 1.)))
   REPRESENTATION_ITEM ('')
   SURFACE ()
);
#99 = CARTESIAN_POINT('', (-5.635, 9.44333889548223E-16, 2.7));
#100 = CARTESIAN_POINT('', (-5.635, 5.635, 2.7));
#101 = CARTESIAN_POINT('', (2.63932446163718E-15, 5.635, 2.7));
#102 = CARTESIAN_POINT('', (5.635, 5.635, 2.7));
#103 = CARTESIAN_POINT('', (5.635, -2.03060225762894E-15, 2.7));
#104 = CARTESIAN_POINT('', (5.635, -5.635, 2.7));
#105 = CARTESIAN_POINT('', (3.54476785779551E-16, -5.635, 2.7));
#106 = CARTESIAN_POINT('', (-5.635, -5.635, 2.7));
#107 = CARTESIAN_POINT('', (-5.635, 9.44333889548223E-16, 2.7));
#108 = CARTESIAN_POINT('', (-4.555, -5.1710711093997E-16, 13.));
#109 = CARTESIAN_POINT('', (-4.555, 4.555, 13.));
#110 = CARTESIAN_POINT('', (2.3542374129281E-15, 4.555, 13.));
#111 = CARTESIAN_POINT('', (4.555, 4.555, 13.));
#112 = CARTESIAN_POINT('', (4.555, -2.92186916069897E-15, 13.));
#113 = CARTESIAN_POINT('', (4.555, -4.555, 13.));
#114 = CARTESIAN_POINT('', (5.07301980180717E-16, -4.555, 13.));
#115 = CARTESIAN_POINT('', (-4.555, -4.555, 13.));
#116 = CARTESIAN_POINT('', (-4.555, -5.1710711093997E-16, 13.));
#117 = ADVANCED_FACE('', (#118), #145, .T.);
#118 = FACE_OUTER_BOUND('', #119, .T.);
#119 = EDGE_LOOP('', (#120, #130, #137, #138));
#120 = ORIENTED_EDGE('', *, *, #121, .T.);
#121 = EDGE_CURVE('', #122, #124, #126, .T.);
#122 = VERTEX_POINT('', #123);
#123 = CARTESIAN_POINT('', (-3.5, -5.81707229594993E-16, 13.));
#124 = VERTEX_POINT('', #125);
#125 = CARTESIAN_POINT('', (-3.5, -8.26636589424463E-16, 17.));
#126 = LINE('', #127, #128);
#127 = CARTESIAN_POINT('', (-3.5, -5.81707229594993E-16, 13.));
#128 = VECTOR('', #129, 4.);
#129 = DIRECTION('', (0., -2.4492935982947E-16, 4.));
#130 = ORIENTED_EDGE('', *, *, #131, .T.);
#131 = EDGE_CURVE('', #124, #124, #132, .T.);
#132 = CIRCLE('', #133, 3.5);
#133 = AXIS2_PLACEMENT_3D('', #134, #135, #136);
#134 = CARTESIAN_POINT('', (-3.7470027081099E-16, 0., 17.));
#135 = DIRECTION('', (0., 0., -1.));
#136 = DIRECTION('', (-1., -2.36181882692704E-16, 0.));
#137 = ORIENTED_EDGE('', *, *, #121, .F.);
#138 = ORIENTED_EDGE('', *, *, #139, .F.);
#139 = EDGE_CURVE('', #122, #122, #140, .T.);
#140 = CIRCLE('', #141, 3.5);
#141 = AXIS2_PLACEMENT_3D('', #142, #143, #144);
#142 = CARTESIAN_POINT('', (-6.93889390390723E-17, -1.55431223447522E-15, 13.));
#143 = DIRECTION('', (0., 0., -1.));
#144 = DIRECTION('', (-1., 2.77887144251493E-16, 0.));
#145 = (
   BOUNDED_SURFACE ()
   B_SPLINE_SURFACE (1, 2, ((#146, #147, #148, #149, #150, #151, #152, #153, #154), (#155, #156, #157, #158, #159, #160, #161, #162, #163)), .UNSPECIFIED., .F., .T., .U.)
   B_SPLINE_SURFACE_WITH_KNOTS ((2, 2), (3, 2, 2, 2, 3), (0., 1.), (0., 5.49778714378215, 10.9955742875643, 16.4933614313465, 21.9911485751286), .UNSPECIFIED.)
   GEOMETRIC_REPRESENTATION_ITEM ()
   RATIONAL_B_SPLINE_SURFACE (((1., 0.707106781186548, 1., 0.707106781186548, 1., 0.707106781186548, 1., 0.707106781186548, 1.), (1., 0.707106781186548, 1., 0.707106781186548, 1., 0.707106781186548, 1., 0.707106781186548, 1.)))
   REPRESENTATION_ITEM ('')
   SURFACE ()
);
#146 = CARTESIAN_POINT('', (-3.5, -3.825473795744E-16, 13.));
#147 = CARTESIAN_POINT('', (-3.5, 3.5, 13.));
#148 = CARTESIAN_POINT('', (-7.35638447503332E-16, 3.5, 13.));
#149 = CARTESIAN_POINT('', (3.5, 3.5, 13.));
#150 = CARTESIAN_POINT('', (3.5, 1.6993521789761E-15, 13.));
#151 = CARTESIAN_POINT('', (3.5, -3.5, 13.));
#152 = CARTESIAN_POINT('', (1.77488749074874E-15, -3.5, 13.));
#153 = CARTESIAN_POINT('', (-3.5, -3.5, 13.));
#154 = CARTESIAN_POINT('', (-3.5, -3.825473795744E-16, 13.));
#155 = CARTESIAN_POINT('', (-3.5, -8.26636589424463E-16, 17.));
#156 = CARTESIAN_POINT('', (-3.5, 3.5, 17.));
#157 = CARTESIAN_POINT('', (-7.35638447503332E-16, 3.5, 17.));
#158 = CARTESIAN_POINT('', (3.5, 3.5, 17.));
#159 = CARTESIAN_POINT('', (3.5, 1.25526296912604E-15, 17.));
#160 = CARTESIAN_POINT('', (3.5, -3.5, 17.));
#161 = CARTESIAN_POINT('', (1.77488749074874E-15, -3.5, 17.));
#162 = CARTESIAN_POINT('', (-3.5, -3.5, 17.));
#163 = CARTESIAN_POINT('', (-3.5, -8.26636589424463E-16, 17.));
#164 = ADVANCED_FACE('', (#165), #168, .T.);
#165 = FACE_OUTER_BOUND('', #166, .T.);
#166 = EDGE_LOOP('', (#167));
#167 = ORIENTED_EDGE('', *, *, #131, .F.);
#168 = B_SPLINE_SURFACE_WITH_KNOTS('', 1, 1, ((#169, #170), (#171, #172)), .UNSPECIFIED., .F., .F., .U., (2, 2), (2, 2), (1.94472221513642, 8.94472221513642), (1.94472221513642, 8.94472221513642), .UNSPECIFIED.);
#169 = CARTESIAN_POINT('', (3.5, -3.5, 17.));
#170 = CARTESIAN_POINT('', (-3.5, -3.5, 17.));
#171 = CARTESIAN_POINT('', (3.5, 3.5, 17.));
#172 = CARTESIAN_POINT('', (-3.5, 3.5, 17.));
#173 = ADVANCED_FACE('', (#174, #177), #180, .T.);
#174 = FACE_OUTER_BOUND('', #175, .T.);
#175 = EDGE_LOOP('', (#176));
#176 = ORIENTED_EDGE('', *, *, #84, .F.);
#177 = FACE_BOUND('', #178, .T.);
#178 = EDGE_LOOP('', (#179));
#179 = ORIENTED_EDGE('', *, *, #139, .T.);
#180 = B_SPLINE_SURFACE_WITH_KNOTS('', 1, 1, ((#181, #182), (#183, #184)), .UNSPECIFIED., .F., .F., .U., (2, 2), (2, 2), (2.53091705427039, 11.6409170542704), (2.53091705427039, 11.6409170542704), .UNSPECIFIED.);
#181 = CARTESIAN_POINT('', (4.555, -4.555, 13.));
#182 = CARTESIAN_POINT('', (-4.555, -4.555, 13.));
#183 = CARTESIAN_POINT('', (4.555, 4.555, 13.));
#184 = CARTESIAN_POINT('', (-4.555, 4.555, 13.));
#185 = ADVANCED_FACE('', (#186), #197, .T.);
#186 = FACE_OUTER_BOUND('', #187, .T.);
#187 = EDGE_LOOP('', (#188, #194, #195, #196));
#188 = ORIENTED_EDGE('', *, *, #189, .T.);
#189 = EDGE_CURVE('', #58, #75, #190, .T.);
#190 = LINE('', #191, #192);
#191 = CARTESIAN_POINT('', (-5.74, 3.5147363135529E-16, -5.47382212626882E-48));
#192 = VECTOR('', #193, 2.70204089532338);
#193 = DIRECTION('', (0.105, -1.71756713580416E-16, 2.7));
#194 = ORIENTED_EDGE('', *, *, #92, .T.);
#195 = ORIENTED_EDGE('', *, *, #189, .F.);
#196 = ORIENTED_EDGE('', *, *, #57, .F.);
#197 = (
   BOUNDED_SURFACE ()
   B_SPLINE_SURFACE (1, 2, ((#198, #199, #200, #201, #202, #203, #204, #205, #206), (#207, #208, #209, #210, #211, #212, #213, #214, #215)), .UNSPECIFIED., .F., .T., .U.)
   B_SPLINE_SURFACE_WITH_KNOTS ((2, 2), (3, 2, 2, 2, 3), (0., 1.), (0., 0.25, 0.5, 0.75, 1.), .UNSPECIFIED.)
   GEOMETRIC_REPRESENTATION_ITEM ()
   RATIONAL_B_SPLINE_SURFACE (((1., 0.707106781186548, 1., 0.707106781186548, 1., 0.707106781186548, 1., 0.707106781186548, 1.), (1., 0.707106781186548, 1., 0.707106781186548, 1., 0.707106781186548, 1., 0.707106781186548, 1.)))
   REPRESENTATION_ITEM ('')
   SURFACE ()
);
#198 = CARTESIAN_POINT('', (-5.74, 1.19881631082214E-15, -4.44089209850063E-16));
#199 = CARTESIAN_POINT('', (-5.74, 5.74, 1.6801375105994E-15));
#200 = CARTESIAN_POINT('', (-4.29413798852078E-16, 5.74, 1.6801375105994E-15));
#201 = CARTESIAN_POINT('', (5.74, 5.74, 1.6801375105994E-15));
#202 = CARTESIAN_POINT('', (5.74, -2.7382444318653E-16, -4.44089209850062E-16));
#203 = CARTESIAN_POINT('', (5.74, -5.74, -2.56831593029953E-15));
#204 = CARTESIAN_POINT('', (-1.19910729015017E-15, -5.74, -2.56831593029953E-15));
#205 = CARTESIAN_POINT('', (-5.74, -5.74, -2.56831593029953E-15));
#206 = CARTESIAN_POINT('', (-5.74, 1.19881631082214E-15, -4.44089209850063E-16));
#207 = CARTESIAN_POINT('', (-5.635, 1.79716917774874E-16, 2.7));
#208 = CARTESIAN_POINT('', (-5.635, 5.635, 2.7));
#209 = CARTESIAN_POINT('', (-4.42883074041182E-16, 5.635, 2.7));
#210 = CARTESIAN_POINT('', (5.635, 5.635, 2.7));
#211 = CARTESIAN_POINT('', (5.635, -1.26598528585559E-15, 2.7));
#212 = CARTESIAN_POINT('', (5.635, -5.635, 2.7));
#213 = CARTESIAN_POINT('', (-1.19849680635211E-15, -5.635, 2.7));
#214 = CARTESIAN_POINT('', (-5.635, -5.635, 2.7));
#215 = CARTESIAN_POINT('', (-5.635, 1.79716917774874E-16, 2.7));
#216 = ADVANCED_FACE('', (#217), #220, .T.);
#217 = FACE_OUTER_BOUND('', #218, .T.);
#218 = EDGE_LOOP('', (#219));
#219 = ORIENTED_EDGE('', *, *, #25, .T.);
#220 = B_SPLINE_SURFACE_WITH_KNOTS('', 1, 1, ((#221, #222), (#223, #224)), .UNSPECIFIED., .F., .F., .U., (2, 2), (2, 2), (38.7073727873946, 54.2073727873946), (30.3264185673066, 45.8264185673066), .UNSPECIFIED.);
#221 = CARTESIAN_POINT('', (-7.75, 7.75, -10.2));
#222 = CARTESIAN_POINT('', (-7.75000000000001, -7.75, -10.2));
#223 = CARTESIAN_POINT('', (7.75, 7.75, -10.2));
#224 = CARTESIAN_POINT('', (7.74999999999999, -7.75, -10.2));
#225 = DRAUGHTING_MODEL('', (#233, #341, #389, #394, #399, #404, #409, #414), #428);
#226 = PRESENTATION_STYLE_ASSIGNMENT((#227));
#227 = SURFACE_STYLE_USAGE(.POSITIVE., #228);
#228 = SURFACE_SIDE_STYLE('', (#229));
#229 = SURFACE_STYLE_FILL_AREA(#230);
#230 = FILL_AREA_STYLE('', (#231));
#231 = FILL_AREA_STYLE_COLOUR('', #232);
#232 = COLOUR_RGB('', 0.50196078431373, 0.50196078431373, 0.50196078431373);
#233 = STYLED_ITEM('', (#226), #1);
#234 = MANIFOLD_SOLID_BREP('CUT', #235);
#235 = CLOSED_SHELL('', (#236, #253, #292));
#236 = ADVANCED_FACE('', (#237), #248, .T.);
#237 = FACE_OUTER_BOUND('', #238, .T.);
#238 = EDGE_LOOP('', (#239));
#239 = ORIENTED_EDGE('', *, *, #240, .F.);
#240 = EDGE_CURVE('', #241, #241, #243, .T.);
#241 = VERTEX_POINT('', #242);
#242 = CARTESIAN_POINT('', (-8., 1.11442858722409E-15, -10.2));
#243 = CIRCLE('', #244, 8.);
#244 = AXIS2_PLACEMENT_3D('', #245, #246, #247);
#245 = CARTESIAN_POINT('', (9.99200722162641E-16, 6.66133814775094E-16, -10.2));
#246 = DIRECTION('', (0., 0., -1.));
#247 = DIRECTION('', (-1., -1.88892513273346E-16, 0.));
#248 = B_SPLINE_SURFACE_WITH_KNOTS('', 1, 1, ((#249, #250), (#251, #252)), .UNSPECIFIED., .F., .F., .U., (2, 2), (2, 2), (4.4450793488832, 20.4450793488832), (4.4450793488832, 20.4450793488832), .UNSPECIFIED.);
#249 = CARTESIAN_POINT('', (8., -8., -10.2));
#250 = CARTESIAN_POINT('', (-8., -8., -10.2));
#251 = CARTESIAN_POINT('', (8., 8., -10.2));
#252 = CARTESIAN_POINT('', (-8., 8., -10.2));
#253 = ADVANCED_FACE('', (#254), #273, .T.);
#254 = FACE_OUTER_BOUND('', #255, .T.);
#255 = EDGE_LOOP('', (#256, #264, #265, #266));
#256 = ORIENTED_EDGE('', *, *, #257, .F.);
#257 = EDGE_CURVE('', #241, #258, #260, .T.);
#258 = VERTEX_POINT('', #259);
#259 = CARTESIAN_POINT('', (-8., 1.14504475720278E-15, -10.7));
#260 = LINE('', #261, #262);
#261 = CARTESIAN_POINT('', (-8., 1.11442858722409E-15, -10.2));
#262 = VECTOR('', #263, 0.5);
#263 = DIRECTION('', (0., 3.06161699786899E-17, -0.5));
#264 = ORIENTED_EDGE('', *, *, #240, .T.);
#265 = ORIENTED_EDGE('', *, *, #257, .T.);
#266 = ORIENTED_EDGE('', *, *, #267, .F.);
#267 = EDGE_CURVE('', #258, #258, #268, .T.);
#268 = CIRCLE('', #269, 8.);
#269 = AXIS2_PLACEMENT_3D('', #270, #271, #272);
#270 = CARTESIAN_POINT('', (-1.08246744900953E-15, -2.22044604925031E-16, -10.7));
#271 = DIRECTION('', (0., 0., -1.));
#272 = DIRECTION('', (-1., 1.70886170265976E-16, 0.));
#273 = (
   BOUNDED_SURFACE ()
   B_SPLINE_SURFACE (2, 1, ((#274, #275), (#276, #277), (#278, #279), (#280, #281), (#282, #283), (#284, #285), (#286, #287), (#288, #289), (#290, #291)), .UNSPECIFIED., .T., .F., .U.)
   B_SPLINE_SURFACE_WITH_KNOTS ((3, 2, 2, 2, 3), (2, 2), (0., 12.5663706143592, 25.1327412287184, 37.6991118430775, 50.2654824574367), (0., 1.), .UNSPECIFIED.)
   GEOMETRIC_REPRESENTATION_ITEM ()
   RATIONAL_B_SPLINE_SURFACE (((1., 1.), (0.707106781186548, 0.707106781186548), (1., 1.), (0.707106781186548, 0.707106781186548), (1., 1.), (0.707106781186548, 0.707106781186548), (1., 1.), (0.707106781186548, 0.707106781186548), (1., 1.)))
   REPRESENTATION_ITEM ('')
   SURFACE ()
);
#274 = CARTESIAN_POINT('', (-8., 1.11442858722409E-15, -10.2));
#275 = CARTESIAN_POINT('', (-8., 1.11442858722409E-15, -10.7));
#276 = CARTESIAN_POINT('', (-8., 8., -10.2));
#277 = CARTESIAN_POINT('', (-8., 8., -10.7));
#278 = CARTESIAN_POINT('', (1.12417022864647E-15, 8., -10.2));
#279 = CARTESIAN_POINT('', (1.12417022864647E-15, 8., -10.7));
#280 = CARTESIAN_POINT('', (8., 8., -10.2));
#281 = CARTESIAN_POINT('', (8., 8., -10.7));
#282 = CARTESIAN_POINT('', (8., -1.34711147906208E-16, -10.2));
#283 = CARTESIAN_POINT('', (8., -1.34711147906208E-16, -10.7));
#284 = CARTESIAN_POINT('', (8., -8., -10.2));
#285 = CARTESIAN_POINT('', (8., -8., -10.7));
#286 = CARTESIAN_POINT('', (8.54747932834054E-16, -8., -10.2));
#287 = CARTESIAN_POINT('', (8.54747932834054E-16, -8., -10.7));
#288 = CARTESIAN_POINT('', (-8., -8., -10.2));
#289 = CARTESIAN_POINT('', (-8., -8., -10.7));
#290 = CARTESIAN_POINT('', (-8., 1.11442858722409E-15, -10.2));
#291 = CARTESIAN_POINT('', (-8., 1.11442858722409E-15, -10.7));
#292 = ADVANCED_FACE('', (#293), #306, .T.);
#293 = FACE_OUTER_BOUND('', #294, .T.);
#294 = EDGE_LOOP('', (#295, #304, #305));
#295 = ORIENTED_EDGE('', *, *, #296, .F.);
#296 = EDGE_CURVE('', #258, #297, #299, .T.);
#297 = VERTEX_POINT('', #298);
#298 = CARTESIAN_POINT('', (2.35775457867695E-15, 1.14504475720278E-15, -18.7));
#299 = CIRCLE('', #300, 8.);
#300 = AXIS2_PLACEMENT_3D('', #301, #302, #303);
#301 = CARTESIAN_POINT('', (-2.66453525910038E-15, 6.55186037543841E-16, -10.7));
#302 = DIRECTION('', (-6.12323399573674E-17, -1., -6.12323399573674E-17));
#303 = DIRECTION('', (-1., 6.12323399573674E-17, -2.22044604925031E-16));
#304 = ORIENTED_EDGE('', *, *, #267, .T.);
#305 = ORIENTED_EDGE('', *, *, #296, .T.);
#306 = (
   BOUNDED_SURFACE ()
   B_SPLINE_SURFACE (2, 2, ((#307, #308, #309), (#310, #311, #312), (#313, #314, #315), (#316, #317, #318), (#319, #320, #321), (#322, #323, #324), (#325, #326, #327), (#328, #329, #330), (#331, #332, #333)), .UNSPECIFIED., .T., .F., .U.)
   B_SPLINE_SURFACE_WITH_KNOTS ((3, 2, 2, 2, 3), (3, 3), (0., 0.25, 0.5, 0.75, 1.), (0., 1.), .UNSPECIFIED.)
   GEOMETRIC_REPRESENTATION_ITEM ()
   RATIONAL_B_SPLINE_SURFACE (((1., 0.707106781186548, 1.), (0.707106781186548, 0.5, 0.707106781186548), (1., 0.707106781186548, 1.), (0.707106781186548, 0.5, 0.707106781186548), (1., 0.707106781186548, 1.), (0.707106781186548, 0.5, 0.707106781186548), (1., 0.707106781186548, 1.), (0.707106781186548, 0.5, 0.707106781186548), (1., 0.707106781186548, 1.)))
   REPRESENTATION_ITEM ('')
   SURFACE ()
);
#307 = CARTESIAN_POINT('', (-8., 1.14504475720278E-15, -10.7));
#308 = CARTESIAN_POINT('', (-8., 1.63490347686172E-15, -18.7));
#309 = CARTESIAN_POINT('', (2.35775457867695E-15, 1.14504475720278E-15, -18.7));
#310 = CARTESIAN_POINT('', (-8., 8., -10.7));
#311 = CARTESIAN_POINT('', (-8.00000000000001, 8., -18.7));
#312 = CARTESIAN_POINT('', (2.35775457867695E-15, 1.14504475720278E-15, -18.7));
#313 = CARTESIAN_POINT('', (0., 8., -10.7));
#314 = CARTESIAN_POINT('', (-5.55603871131599E-15, 8.00000000000001, -18.7));
#315 = CARTESIAN_POINT('', (2.35775457867695E-15, 1.14504475720278E-15, -18.7));
#316 = CARTESIAN_POINT('', (8., 8., -10.7));
#317 = CARTESIAN_POINT('', (7.99999999999999, 8.00000000000001, -18.7));
#318 = CARTESIAN_POINT('', (2.35775457867695E-15, 1.14504475720278E-15, -18.7));
#319 = CARTESIAN_POINT('', (8., 1.14504475720278E-15, -10.7));
#320 = CARTESIAN_POINT('', (8., 1.27469808994937E-14, -18.7));
#321 = CARTESIAN_POINT('', (2.35775457867695E-15, 1.14504475720278E-15, -18.7));
#322 = CARTESIAN_POINT('', (8., -8., -10.7));
#323 = CARTESIAN_POINT('', (8.00000000000001, -7.99999999999999, -18.7));
#324 = CARTESIAN_POINT('', (2.35775457867695E-15, 1.14504475720278E-15, -18.7));
#325 = CARTESIAN_POINT('', (9.79717439317882E-16, -8., -10.7));
#326 = CARTESIAN_POINT('', (6.53575615063386E-15, -7.99999999999999, -18.7));
#327 = CARTESIAN_POINT('', (2.35775457867695E-15, 1.14504475720278E-15, -18.7));
#328 = CARTESIAN_POINT('', (-8., -8., -10.7));
#329 = CARTESIAN_POINT('', (-7.99999999999999, -8., -18.7));
#330 = CARTESIAN_POINT('', (2.35775457867695E-15, 1.14504475720278E-15, -18.7));
#331 = CARTESIAN_POINT('', (-8., 1.14504475720278E-15, -10.7));
#332 = CARTESIAN_POINT('', (-8., 1.63490347686172E-15, -18.7));
#333 = CARTESIAN_POINT('', (2.35775457867695E-15, 1.14504475720278E-15, -18.7));
#334 = PRESENTATION_STYLE_ASSIGNMENT((#335));
#335 = SURFACE_STYLE_USAGE(.POSITIVE., #336);
#336 = SURFACE_SIDE_STYLE('', (#337));
#337 = SURFACE_STYLE_FILL_AREA(#338);
#338 = FILL_AREA_STYLE('', (#339));
#339 = FILL_AREA_STYLE_COLOUR('', #340);
#340 = COLOUR_RGB('', 0.8, 0.8, 0.8);
#341 = STYLED_ITEM('', (#334), #234);
#342 = TRIMMED_CURVE('cutting part line', #343, (#347), (#348), .T., .CARTESIAN.);
#343 = LINE('', #344, #345);
#344 = CARTESIAN_POINT('', (-1.14731623373632E-31, -6.2456986756515E-16, -10.2));
#345 = VECTOR('', #346, 7.75);
#346 = DIRECTION('', (7.75, -1.4236519040088E-15, 0.));
#347 = CARTESIAN_POINT('', (-1.14731623373632E-31, -6.2456986756515E-16, -10.2));
#348 = CARTESIAN_POINT('', (7.75, -2.04822177157395E-15, -10.2));
#349 = TRIMMED_CURVE('cutting part line', #350, (#354), (#355), .T., .CARTESIAN.);
#350 = LINE('', #351, #352);
#351 = CARTESIAN_POINT('', (7.75, -2.04822177157395E-15, -10.2));
#352 = VECTOR('', #353, 0.25);
#353 = DIRECTION('', (0.25, -4.59242549680237E-17, 0.));
#354 = CARTESIAN_POINT('', (7.75, -2.04822177157395E-15, -10.2));
#355 = CARTESIAN_POINT('', (8., -2.09414602654197E-15, -10.2));
#356 = TRIMMED_CURVE('cutting part line', #357, (#361), (#362), .T., .CARTESIAN.);
#357 = LINE('', #358, #359);
#358 = CARTESIAN_POINT('', (8., -2.09414602654197E-15, -10.2));
#359 = VECTOR('', #360, 0.5);
#360 = DIRECTION('', (0., -3.06161699786901E-17, -0.5));
#361 = CARTESIAN_POINT('', (8., -2.09414602654197E-15, -10.2));
#362 = CARTESIAN_POINT('', (8., -2.12476219652066E-15, -10.7));
#363 = TRIMMED_CURVE('cutting part line', #364, (#369), (#370), .T., .CARTESIAN.);
#364 = CIRCLE('', #365, 8.00000000000001);
#365 = AXIS2_PLACEMENT_3D('', #366, #367, #368);
#366 = CARTESIAN_POINT('', (-5.32907051820075E-15, -6.55186037543828E-16, -10.7));
#367 = DIRECTION('', (1.83697019872104E-16, 1., -6.12323399573676E-17));
#368 = DIRECTION('', (1., -1.83697019872104E-16, -6.66133814775094E-16));
#369 = CARTESIAN_POINT('', (8., -2.12476219652066E-15, -10.7));
#370 = CARTESIAN_POINT('', (-4.83921179854181E-15, -1.14504475720277E-15, -18.7));
#371 = TRIMMED_CURVE('cutting part line', #372, (#376), (#377), .T., .CARTESIAN.);
#372 = LINE('', #373, #374);
#373 = CARTESIAN_POINT('', (-2.10341309518326E-31, -1.14504475720278E-15, -18.7));
#374 = VECTOR('', #375, 8.5);
#375 = DIRECTION('', (9.5609686144694E-32, 5.2047488963763E-16, 8.5));
#376 = CARTESIAN_POINT('', (-2.10341309518326E-31, -1.14504475720278E-15, -18.7));
#377 = CARTESIAN_POINT('', (-1.14731623373632E-31, -6.2456986756515E-16, -10.2));
#378 = COMPOSITE_CURVE('cutting part line', (#379, #380, #381, #382, #383), .U.);
#379 = COMPOSITE_CURVE_SEGMENT(.CONTINUOUS., .T., #342);
#380 = COMPOSITE_CURVE_SEGMENT(.CONTINUOUS., .T., #349);
#381 = COMPOSITE_CURVE_SEGMENT(.CONTINUOUS., .T., #356);
#382 = COMPOSITE_CURVE_SEGMENT(.CONTINUOUS., .T., #363);
#383 = COMPOSITE_CURVE_SEGMENT(.CONTINUOUS., .T., #371);
#384 = GEOMETRIC_SET('', (#378, #427));
#385 = PRESENTATION_STYLE_ASSIGNMENT((#386));
#386 = CURVE_STYLE('', #388, POSITIVE_LENGTH_MEASURE(1.E-6), #387);
#387 = COLOUR_RGB('', 0., 0., 1.);
#388 = DRAUGHTING_PRE_DEFINED_CURVE_FONT('continuous');
#389 = STYLED_ITEM('', (#385), #378);
#390 = PRESENTATION_STYLE_ASSIGNMENT((#391));
#391 = CURVE_STYLE('', #393, POSITIVE_LENGTH_MEASURE(1.E-6), #392);
#392 = COLOUR_RGB('', 0., 0., 1.);
#393 = DRAUGHTING_PRE_DEFINED_CURVE_FONT('continuous');
#394 = OVER_RIDING_STYLED_ITEM('', (#390), #342, #389);
#395 = PRESENTATION_STYLE_ASSIGNMENT((#396));
#396 = CURVE_STYLE('', #398, POSITIVE_LENGTH_MEASURE(1.E-6), #397);
#397 = COLOUR_RGB('', 0., 0., 1.);
#398 = DRAUGHTING_PRE_DEFINED_CURVE_FONT('continuous');
#399 = OVER_RIDING_STYLED_ITEM('', (#395), #349, #389);
#400 = PRESENTATION_STYLE_ASSIGNMENT((#401));
#401 = CURVE_STYLE('', #403, POSITIVE_LENGTH_MEASURE(1.E-6), #402);
#402 = COLOUR_RGB('', 0., 0., 1.);
#403 = DRAUGHTING_PRE_DEFINED_CURVE_FONT('continuous');
#404 = OVER_RIDING_STYLED_ITEM('', (#400), #356, #389);
#405 = PRESENTATION_STYLE_ASSIGNMENT((#406));
#406 = CURVE_STYLE('', #408, POSITIVE_LENGTH_MEASURE(1.E-6), #407);
#407 = COLOUR_RGB('', 0., 0., 1.);
#408 = DRAUGHTING_PRE_DEFINED_CURVE_FONT('continuous');
#409 = OVER_RIDING_STYLED_ITEM('', (#405), #363, #389);
#410 = PRESENTATION_STYLE_ASSIGNMENT((#411));
#411 = CURVE_STYLE('', #413, POSITIVE_LENGTH_MEASURE(1.E-6), #412);
#412 = COLOUR_RGB('', 0., 0., 1.);
#413 = DRAUGHTING_PRE_DEFINED_CURVE_FONT('continuous');
#414 = OVER_RIDING_STYLED_ITEM('', (#410), #371, #389);
#415 = AXIS2_PLACEMENT_3D('CIP', #416, #417, #418);
#416 = CARTESIAN_POINT('', (7.01137698394418E-32, 1.14504475720278E-15, -18.7));
#417 = DIRECTION('', (-3.74939945665465E-33, -6.12323399573677E-17, 1.));
#418 = DIRECTION('', (1., -6.12323399573677E-17, 0.));
#419 = AXIS2_PLACEMENT_3D('MCS', #420, #421, #422);
#420 = CARTESIAN_POINT('', (0., 0., 0.));
#421 = DIRECTION('', (0., 0., 1.));
#422 = DIRECTION('', (1., 0., 0.));
#423 = AXIS2_PLACEMENT_3D('PCS', #424, #425, #426);
#424 = CARTESIAN_POINT('', (0., 0., 0.));
#425 = DIRECTION('', (0., 0., 1.));
#426 = DIRECTION('', (1., 0., 0.));
#427 = CARTESIAN_POINT('CRP', (8., 0., -18.7));
#428 = (
   GEOMETRIC_REPRESENTATION_CONTEXT (3)
   GLOBAL_UNCERTAINTY_ASSIGNED_CONTEXT ((#430))
   GLOBAL_UNIT_ASSIGNED_CONTEXT ((#429, #431, #432))
   REPRESENTATION_CONTEXT ('', '3D')
);
#429 = (
   LENGTH_UNIT ()
   NAMED_UNIT (*)
   SI_UNIT (.MILLI., .METRE.)
);
#430 = UNCERTAINTY_MEASURE_WITH_UNIT(LENGTH_MEASURE(1.E-6), #429, 'DISTANCE_ACCURACY_VALUE', '');
#431 = (
   NAMED_UNIT (*)
   SI_UNIT ($, .STERADIAN.)
   SOLID_ANGLE_UNIT ()
);
#432 = (
   NAMED_UNIT (*)
   PLANE_ANGLE_UNIT ()
   SI_UNIT ($, .RADIAN.)
);
#433 = SHAPE_REPRESENTATION('', (), #428);
#434 = PRODUCT_DEFINITION_SHAPE('', '', #435);
#435 = PRODUCT_DEFINITION('', '', #438, #442);
#436 = APPLICATION_CONTEXT('configuration controlled 3D designs of mechanical parts and assemblies');
#437 = APPLICATION_PROTOCOL_DEFINITION('International Standard', 'automotive_design', 2002, #436);
#438 = PRODUCT_DEFINITION_FORMATION_WITH_SPECIFIED_SOURCE('', '', #439, .NOT_KNOWN.);
#439 = PRODUCT('EmptyName', 'EmptyName', '', (#440));
#440 = PRODUCT_CONTEXT('', #436, 'mechanical');
#441 = PRODUCT_RELATED_PRODUCT_CATEGORY('detail', '', (#439));
#442 = PRODUCT_DEFINITION_CONTEXT('part definition', #436, 'design');
#443 = SHAPE_DEFINITION_REPRESENTATION(#434, #433);
#444 = CONSTRUCTIVE_GEOMETRY_REPRESENTATION('supplemental geometry', (#415, #419, #423), #428);
#445 = CONSTRUCTIVE_GEOMETRY_REPRESENTATION_RELATIONSHIP('', '', #433, #444);
#446 = SHAPE_REPRESENTATION_RELATIONSHIP('', '', #433, #447);
#447 = SHAPE_REPRESENTATION('', (#384), #428);
#448 = SHAPE_REPRESENTATION_RELATIONSHIP('', '', #433, #449);
#449 = ADVANCED_BREP_SHAPE_REPRESENTATION('', (#1, #234), #428);
ENDSEC;
END-ISO-10303-21;
