ISO-10303-21;
HEADER;
/* Generated by software containing ST-Developer
 * from STEP Tools, Inc. (www.steptools.com) 
 */
/* OPTION: using custom schema-name function */

FILE_DESCRIPTION(
/* description */ ('3-D model version:1'),
/* implementation_level */ '2;1');

FILE_NAME(
/* name */ '316-12SM210-12005P',
/* time_stamp */ '2014-08-21T15:19:05+02:00',
/* author */ ('InteractiveCad'),
/* organization */ ('AB Sandvik Coromant'),
/* preprocessor_version */ 'ST-DEVELOPER v11',
/* originating_system */ 'SIEMENS UGS NX 6.0',
/* authorisation */ '');

FILE_SCHEMA (('AP203_CONFIGURATION_CONTROLLED_3D_DESIGN_OF_MECHANICAL_PARTS_AND_ASSEMBLIES_MIM_LF'));
ENDSEC;

DATA;
#10=SHAPE_REPRESENTATION_RELATIONSHIP('None',
'relationship between 316_12SM210_12005P_SIM-None and 316_12SM210_12005
P_SIM-None',#94,#11);
#11=ADVANCED_BREP_SHAPE_REPRESENTATION('316_12SM210_12005P_SIM-None',(#113,
#114),#333);
#12=CC_DESIGN_APPROVAL(#24,(#82));
#13=CC_DESIGN_APPROVAL(#25,(#84));
#14=CC_DESIGN_APPROVAL(#26,(#31));
#15=APPROVAL_PERSON_ORGANIZATION(#69,#24,#18);
#16=APPROVAL_PERSON_ORGANIZATION(#70,#25,#19);
#17=APPROVAL_PERSON_ORGANIZATION(#71,#26,#20);
#18=APPROVAL_ROLE('approver');
#19=APPROVAL_ROLE('approver');
#20=APPROVAL_ROLE('approver');
#21=APPROVAL_DATE_TIME(#39,#24);
#22=APPROVAL_DATE_TIME(#40,#25);
#23=APPROVAL_DATE_TIME(#41,#26);
#24=APPROVAL(#27,' ');
#25=APPROVAL(#28,' ');
#26=APPROVAL(#29,' ');
#27=APPROVAL_STATUS('not_yet_approved');
#28=APPROVAL_STATUS('not_yet_approved');
#29=APPROVAL_STATUS('not_yet_approved');
#30=CC_DESIGN_SECURITY_CLASSIFICATION(#31,(#84));
#31=SECURITY_CLASSIFICATION(' ',' ',#32);
#32=SECURITY_CLASSIFICATION_LEVEL('confidential');
#33=CC_DESIGN_DATE_AND_TIME_ASSIGNMENT(#37,#35,(#82));
#34=CC_DESIGN_DATE_AND_TIME_ASSIGNMENT(#38,#36,(#31));
#35=DATE_TIME_ROLE('creation_date');
#36=DATE_TIME_ROLE('classification_date');
#37=DATE_AND_TIME(#52,#42);
#38=DATE_AND_TIME(#53,#43);
#39=DATE_AND_TIME(#54,#44);
#40=DATE_AND_TIME(#55,#45);
#41=DATE_AND_TIME(#56,#46);
#42=LOCAL_TIME(0,0,0.,#47);
#43=LOCAL_TIME(0,0,0.,#48);
#44=LOCAL_TIME(0,0,0.,#49);
#45=LOCAL_TIME(0,0,0.,#50);
#46=LOCAL_TIME(0,0,0.,#51);
#47=COORDINATED_UNIVERSAL_TIME_OFFSET(0,0,.BEHIND.);
#48=COORDINATED_UNIVERSAL_TIME_OFFSET(0,0,.BEHIND.);
#49=COORDINATED_UNIVERSAL_TIME_OFFSET(0,0,.BEHIND.);
#50=COORDINATED_UNIVERSAL_TIME_OFFSET(0,0,.BEHIND.);
#51=COORDINATED_UNIVERSAL_TIME_OFFSET(0,0,.BEHIND.);
#52=CALENDAR_DATE(0,1,1);
#53=CALENDAR_DATE(0,1,1);
#54=CALENDAR_DATE(0,1,1);
#55=CALENDAR_DATE(0,1,1);
#56=CALENDAR_DATE(0,1,1);
#57=CC_DESIGN_PERSON_AND_ORGANIZATION_ASSIGNMENT(#65,#61,(#82,#84));
#58=CC_DESIGN_PERSON_AND_ORGANIZATION_ASSIGNMENT(#66,#62,(#86));
#59=CC_DESIGN_PERSON_AND_ORGANIZATION_ASSIGNMENT(#67,#63,(#84));
#60=CC_DESIGN_PERSON_AND_ORGANIZATION_ASSIGNMENT(#68,#64,(#31));
#61=PERSON_AND_ORGANIZATION_ROLE('creator');
#62=PERSON_AND_ORGANIZATION_ROLE('design_owner');
#63=PERSON_AND_ORGANIZATION_ROLE('design_supplier');
#64=PERSON_AND_ORGANIZATION_ROLE('classification_officer');
#65=PERSON_AND_ORGANIZATION(#79,#72);
#66=PERSON_AND_ORGANIZATION(#79,#73);
#67=PERSON_AND_ORGANIZATION(#79,#74);
#68=PERSON_AND_ORGANIZATION(#79,#75);
#69=PERSON_AND_ORGANIZATION(#79,#76);
#70=PERSON_AND_ORGANIZATION(#79,#77);
#71=PERSON_AND_ORGANIZATION(#79,#78);
#72=ORGANIZATION(' ',' ',' ');
#73=ORGANIZATION(' ',' ',' ');
#74=ORGANIZATION(' ',' ',' ');
#75=ORGANIZATION(' ',' ',' ');
#76=ORGANIZATION(' ',' ',' ');
#77=ORGANIZATION(' ',' ',' ');
#78=ORGANIZATION(' ',' ',' ');
#79=PERSON(' ',' ',' ',(' '),$,$);
#80=SHAPE_DEFINITION_REPRESENTATION(#81,#94);
#81=PRODUCT_DEFINITION_SHAPE('','',#82);
#82=PRODUCT_DEFINITION(' ','',#84,#83);
#83=DESIGN_CONTEXT('',#93,'design');
#84=PRODUCT_DEFINITION_FORMATION_WITH_SPECIFIED_SOURCE(' ',' ',#86,.NOT_KNOWN.);
#85=PRODUCT_RELATED_PRODUCT_CATEGORY('detail','',(#86));
#86=PRODUCT('316_12SM210_12005P_SIM','316_12SM210_12005P_SIM',' ',(#91));
#87=PRODUCT_CATEGORY_RELATIONSHIP(' ',' ',#89,#90);
#88=PRODUCT_CATEGORY_RELATIONSHIP('','',#90,#85);
#89=PRODUCT_CATEGORY('part',' ');
#90=PRODUCT_CATEGORY(' ','');
#91=MECHANICAL_CONTEXT(' ',#93,'mechanical');
#92=APPLICATION_PROTOCOL_DEFINITION('international standard',
'config_control_design',1994,#93);
#93=APPLICATION_CONTEXT(
'configuration controlled 3D designs of mechanical parts and assemblies');
#94=SHAPE_REPRESENTATION('316_12SM210_12005P_SIM-None',(#230),#333);
#95=CONICAL_SURFACE('',#246,3.88273908256056,6.);
#96=PRESENTATION_LAYER_ASSIGNMENT('1','Layer 1',(#113,#114));
#97=STYLED_ITEM('',(#99),#113);
#98=STYLED_ITEM('',(#100),#114);
#99=PRESENTATION_STYLE_ASSIGNMENT((#101));
#100=PRESENTATION_STYLE_ASSIGNMENT((#102));
#101=SURFACE_STYLE_USAGE(.BOTH.,#103);
#102=SURFACE_STYLE_USAGE(.BOTH.,#104);
#103=SURFACE_SIDE_STYLE('',(#105));
#104=SURFACE_SIDE_STYLE('',(#106));
#105=SURFACE_STYLE_FILL_AREA(#107);
#106=SURFACE_STYLE_FILL_AREA(#108);
#107=FILL_AREA_STYLE('',(#109));
#108=FILL_AREA_STYLE('',(#110));
#109=FILL_AREA_STYLE_COLOUR('',#111);
#110=FILL_AREA_STYLE_COLOUR('',#112);
#111=COLOUR_RGB('TLS_CUT',0.8,0.8,0.8);
#112=COLOUR_RGB('TLS_NOCUT',0.499992370489052,0.499992370489052,0.499992370489052);
#113=MANIFOLD_SOLID_BREP('',#115);
#114=MANIFOLD_SOLID_BREP('',#116);
#115=CLOSED_SHELL('',(#138,#139,#140,#141));
#116=CLOSED_SHELL('',(#142,#143,#144,#145,#146,#147,#148,#149));
#117=CYLINDRICAL_SURFACE('',#236,6.);
#118=CYLINDRICAL_SURFACE('',#240,5.85);
#119=CYLINDRICAL_SURFACE('',#244,4.65);
#120=CYLINDRICAL_SURFACE('',#250,2.75);
#121=TOROIDAL_SURFACE('',#234,5.5,0.5);
#122=FACE_BOUND('',#161,.T.);
#123=FACE_BOUND('',#162,.T.);
#124=FACE_BOUND('',#163,.T.);
#125=FACE_BOUND('',#164,.T.);
#126=FACE_BOUND('',#166,.T.);
#127=FACE_BOUND('',#167,.T.);
#128=FACE_BOUND('',#168,.T.);
#129=FACE_BOUND('',#169,.T.);
#130=FACE_BOUND('',#170,.T.);
#131=FACE_BOUND('',#171,.T.);
#132=FACE_BOUND('',#172,.T.);
#133=FACE_BOUND('',#173,.T.);
#134=FACE_BOUND('',#174,.T.);
#135=FACE_BOUND('',#175,.T.);
#136=FACE_BOUND('',#176,.T.);
#137=FACE_BOUND('',#177,.T.);
#138=ADVANCED_FACE('',(#156),#150,.F.);
#139=ADVANCED_FACE('',(#122,#123),#121,.T.);
#140=ADVANCED_FACE('',(#124,#125),#117,.T.);
#141=ADVANCED_FACE('',(#157),#151,.F.);
#142=ADVANCED_FACE('',(#126,#127),#118,.T.);
#143=ADVANCED_FACE('',(#128,#129),#152,.F.);
#144=ADVANCED_FACE('',(#130,#131),#119,.T.);
#145=ADVANCED_FACE('',(#132,#133),#95,.T.);
#146=ADVANCED_FACE('',(#134,#135),#153,.F.);
#147=ADVANCED_FACE('',(#136,#137),#120,.T.);
#148=ADVANCED_FACE('',(#158),#154,.F.);
#149=ADVANCED_FACE('',(#159),#155,.F.);
#150=PLANE('',#232);
#151=PLANE('',#237);
#152=PLANE('',#242);
#153=PLANE('',#248);
#154=PLANE('',#251);
#155=PLANE('',#252);
#156=FACE_OUTER_BOUND('',#160,.T.);
#157=FACE_OUTER_BOUND('',#165,.T.);
#158=FACE_OUTER_BOUND('',#178,.T.);
#159=FACE_OUTER_BOUND('',#179,.T.);
#160=EDGE_LOOP('',(#180));
#161=EDGE_LOOP('',(#181));
#162=EDGE_LOOP('',(#182));
#163=EDGE_LOOP('',(#183));
#164=EDGE_LOOP('',(#184));
#165=EDGE_LOOP('',(#185));
#166=EDGE_LOOP('',(#186));
#167=EDGE_LOOP('',(#187));
#168=EDGE_LOOP('',(#188));
#169=EDGE_LOOP('',(#189));
#170=EDGE_LOOP('',(#190));
#171=EDGE_LOOP('',(#191));
#172=EDGE_LOOP('',(#192));
#173=EDGE_LOOP('',(#193));
#174=EDGE_LOOP('',(#194));
#175=EDGE_LOOP('',(#195));
#176=EDGE_LOOP('',(#196));
#177=EDGE_LOOP('',(#197));
#178=EDGE_LOOP('',(#198));
#179=EDGE_LOOP('',(#199));
#180=ORIENTED_EDGE('',*,*,#210,.T.);
#181=ORIENTED_EDGE('',*,*,#210,.F.);
#182=ORIENTED_EDGE('',*,*,#211,.T.);
#183=ORIENTED_EDGE('',*,*,#211,.F.);
#184=ORIENTED_EDGE('',*,*,#212,.T.);
#185=ORIENTED_EDGE('',*,*,#212,.F.);
#186=ORIENTED_EDGE('',*,*,#213,.F.);
#187=ORIENTED_EDGE('',*,*,#214,.T.);
#188=ORIENTED_EDGE('',*,*,#214,.F.);
#189=ORIENTED_EDGE('',*,*,#215,.T.);
#190=ORIENTED_EDGE('',*,*,#215,.F.);
#191=ORIENTED_EDGE('',*,*,#216,.T.);
#192=ORIENTED_EDGE('',*,*,#216,.F.);
#193=ORIENTED_EDGE('',*,*,#217,.T.);
#194=ORIENTED_EDGE('',*,*,#217,.F.);
#195=ORIENTED_EDGE('',*,*,#218,.T.);
#196=ORIENTED_EDGE('',*,*,#218,.F.);
#197=ORIENTED_EDGE('',*,*,#219,.T.);
#198=ORIENTED_EDGE('',*,*,#219,.F.);
#199=ORIENTED_EDGE('',*,*,#213,.T.);
#200=VERTEX_POINT('',#301);
#201=VERTEX_POINT('',#304);
#202=VERTEX_POINT('',#307);
#203=VERTEX_POINT('',#311);
#204=VERTEX_POINT('',#313);
#205=VERTEX_POINT('',#316);
#206=VERTEX_POINT('',#319);
#207=VERTEX_POINT('',#322);
#208=VERTEX_POINT('',#325);
#209=VERTEX_POINT('',#328);
#210=EDGE_CURVE('',#200,#200,#220,.T.);
#211=EDGE_CURVE('',#201,#201,#221,.T.);
#212=EDGE_CURVE('',#202,#202,#222,.T.);
#213=EDGE_CURVE('',#203,#203,#223,.T.);
#214=EDGE_CURVE('',#204,#204,#224,.T.);
#215=EDGE_CURVE('',#205,#205,#225,.T.);
#216=EDGE_CURVE('',#206,#206,#226,.T.);
#217=EDGE_CURVE('',#207,#207,#227,.T.);
#218=EDGE_CURVE('',#208,#208,#228,.T.);
#219=EDGE_CURVE('',#209,#209,#229,.T.);
#220=CIRCLE('',#231,5.5);
#221=CIRCLE('',#233,6.);
#222=CIRCLE('',#235,6.);
#223=CIRCLE('',#238,5.85);
#224=CIRCLE('',#239,5.85);
#225=CIRCLE('',#241,4.65);
#226=CIRCLE('',#243,4.65);
#227=CIRCLE('',#245,3.88273908256056);
#228=CIRCLE('',#247,2.75);
#229=CIRCLE('',#249,2.75);
#230=AXIS2_PLACEMENT_3D('',#299,#253,#254);
#231=AXIS2_PLACEMENT_3D('',#300,#255,#256);
#232=AXIS2_PLACEMENT_3D('',#302,#257,#258);
#233=AXIS2_PLACEMENT_3D('',#303,#259,#260);
#234=AXIS2_PLACEMENT_3D('',#305,#261,#262);
#235=AXIS2_PLACEMENT_3D('',#306,#263,#264);
#236=AXIS2_PLACEMENT_3D('',#308,#265,#266);
#237=AXIS2_PLACEMENT_3D('',#309,#267,#268);
#238=AXIS2_PLACEMENT_3D('',#310,#269,#270);
#239=AXIS2_PLACEMENT_3D('',#312,#271,#272);
#240=AXIS2_PLACEMENT_3D('',#314,#273,#274);
#241=AXIS2_PLACEMENT_3D('',#315,#275,#276);
#242=AXIS2_PLACEMENT_3D('',#317,#277,#278);
#243=AXIS2_PLACEMENT_3D('',#318,#279,#280);
#244=AXIS2_PLACEMENT_3D('',#320,#281,#282);
#245=AXIS2_PLACEMENT_3D('',#321,#283,#284);
#246=AXIS2_PLACEMENT_3D('',#323,#285,#286);
#247=AXIS2_PLACEMENT_3D('',#324,#287,#288);
#248=AXIS2_PLACEMENT_3D('',#326,#289,#290);
#249=AXIS2_PLACEMENT_3D('',#327,#291,#292);
#250=AXIS2_PLACEMENT_3D('',#329,#293,#294);
#251=AXIS2_PLACEMENT_3D('',#330,#295,#296);
#252=AXIS2_PLACEMENT_3D('',#331,#297,#298);
#253=DIRECTION('',(0.,0.,1.));
#254=DIRECTION('',(1.,0.,0.));
#255=DIRECTION('',(0.,0.,-1.));
#256=DIRECTION('',(-1.,0.,0.));
#257=DIRECTION('',(0.,0.,1.));
#258=DIRECTION('',(1.,0.,0.));
#259=DIRECTION('',(0.,0.,-1.));
#260=DIRECTION('',(-1.,0.,0.));
#261=DIRECTION('',(0.,0.,-1.));
#262=DIRECTION('',(-1.,0.,0.));
#263=DIRECTION('',(0.,0.,-1.));
#264=DIRECTION('',(-1.,0.,0.));
#265=DIRECTION('',(0.,0.,-1.));
#266=DIRECTION('',(-1.,0.,0.));
#267=DIRECTION('',(0.,0.,-1.));
#268=DIRECTION('',(-1.,0.,0.));
#269=DIRECTION('',(0.,0.,-1.));
#270=DIRECTION('',(-1.,0.,0.));
#271=DIRECTION('',(0.,0.,-1.));
#272=DIRECTION('',(-1.,0.,0.));
#273=DIRECTION('',(0.,0.,-1.));
#274=DIRECTION('',(-1.,0.,0.));
#275=DIRECTION('',(0.,0.,-1.));
#276=DIRECTION('',(-1.,0.,0.));
#277=DIRECTION('',(0.,0.,-1.));
#278=DIRECTION('',(-1.,0.,0.));
#279=DIRECTION('',(0.,0.,-1.));
#280=DIRECTION('',(-1.,0.,0.));
#281=DIRECTION('',(0.,0.,-1.));
#282=DIRECTION('',(-1.,0.,0.));
#283=DIRECTION('',(0.,0.,-1.));
#284=DIRECTION('',(-1.,0.,0.));
#285=DIRECTION('',(0.,0.,-1.));
#286=DIRECTION('',(-1.,0.,-1.59167963543422E-017));
#287=DIRECTION('',(0.,0.,-1.));
#288=DIRECTION('',(-1.,0.,0.));
#289=DIRECTION('',(0.,0.,-1.));
#290=DIRECTION('',(-1.,0.,0.));
#291=DIRECTION('',(0.,0.,-1.));
#292=DIRECTION('',(-1.,0.,0.));
#293=DIRECTION('',(0.,0.,-1.));
#294=DIRECTION('',(-1.,0.,0.));
#295=DIRECTION('',(0.,0.,-1.));
#296=DIRECTION('',(-1.,0.,0.));
#297=DIRECTION('',(0.,0.,1.));
#298=DIRECTION('',(1.,0.,0.));
#299=CARTESIAN_POINT('',(0.,0.,0.));
#300=CARTESIAN_POINT('',(1.38673588463006E-005,-8.88178419700125E-016,-13.8999861326411));
#301=CARTESIAN_POINT('',(-5.49998613264115,-8.88178419700125E-016,-13.8999861326411));
#302=CARTESIAN_POINT('',(1.38673588463006E-005,5.5,-13.8999861326411));
#303=CARTESIAN_POINT('',(1.38673588463006E-005,-8.88178419700125E-016,-13.3999861326412));
#304=CARTESIAN_POINT('',(-5.99998613264115,-8.88178419700125E-016,-13.3999861326412));
#305=CARTESIAN_POINT('',(1.38673588463006E-005,-8.67361737988404E-016,-13.3999861326412));
#306=CARTESIAN_POINT('',(1.38673588463006E-005,-8.88178419700125E-016,-3.8));
#307=CARTESIAN_POINT('',(-5.99998613264115,-8.88178419700125E-016,-3.8));
#308=CARTESIAN_POINT('',(1.38673588463006E-005,-8.88178419700125E-016,13.3000138673588));
#309=CARTESIAN_POINT('',(1.38673588463006E-005,5.85,-3.8));
#310=CARTESIAN_POINT('',(1.38673588463006E-005,-8.88178419700125E-016,-3.8));
#311=CARTESIAN_POINT('',(-5.84998613264115,-8.88178419700125E-016,-3.8));
#312=CARTESIAN_POINT('',(1.38673588463006E-005,-8.88178419700125E-016,0.));
#313=CARTESIAN_POINT('',(-5.84998613264115,-8.88178419700125E-016,0.));
#314=CARTESIAN_POINT('',(1.38673588463006E-005,-8.88178419700125E-016,13.3000138673588));
#315=CARTESIAN_POINT('',(1.38673588463006E-005,-8.88178419700125E-016,2.84458642751952E-006));
#316=CARTESIAN_POINT('',(-4.64998613264115,-8.88178419700125E-016,2.84458642751952E-006));
#317=CARTESIAN_POINT('',(1.38673588463006E-005,4.65,1.4222932143114E-006));
#318=CARTESIAN_POINT('',(1.38673588463006E-005,-8.88178419700125E-016,2.50001386735885));
#319=CARTESIAN_POINT('',(-4.64998613264115,-8.88178419700125E-016,2.50001386735885));
#320=CARTESIAN_POINT('',(1.38673588463006E-005,-8.88178419700125E-016,13.3000138673588));
#321=CARTESIAN_POINT('',(1.38673588463006E-005,-8.88178419700125E-016,9.80001386735885));
#322=CARTESIAN_POINT('',(-3.88272521520171,-8.88178419700125E-016,9.80001386735885));
#323=CARTESIAN_POINT('',(1.38673588463006E-005,-8.88178419700125E-016,9.80001386735885));
#324=CARTESIAN_POINT('',(1.38673588463006E-005,-8.88178419700125E-016,9.80001386735885));
#325=CARTESIAN_POINT('',(-2.74998613264115,-8.88178419700125E-016,9.80001386735885));
#326=CARTESIAN_POINT('',(1.38673588463006E-005,2.75,9.80001386735885));
#327=CARTESIAN_POINT('',(1.38673588463006E-005,-8.88178419700125E-016,13.3000138673588));
#328=CARTESIAN_POINT('',(-2.74998613264115,-8.88178419700125E-016,13.3000138673588));
#329=CARTESIAN_POINT('',(1.38673588463006E-005,-8.88178419700125E-016,13.3000138673588));
#330=CARTESIAN_POINT('',(1.38673588463006E-005,-8.88178419700125E-016,13.3000138673588));
#331=CARTESIAN_POINT('',(1.38673588461202E-005,-8.88178419700125E-016,-3.8));
#332=MECHANICAL_DESIGN_GEOMETRIC_PRESENTATION_REPRESENTATION('',(#97,#98),
#333);
#333=(
GEOMETRIC_REPRESENTATION_CONTEXT(3)
GLOBAL_UNCERTAINTY_ASSIGNED_CONTEXT((#334))
GLOBAL_UNIT_ASSIGNED_CONTEXT((#340,#336,#335))
REPRESENTATION_CONTEXT('316_12SM210_12005P_SIM',
'TOP_LEVEL_ASSEMBLY_PART')
);
#334=UNCERTAINTY_MEASURE_WITH_UNIT(LENGTH_MEASURE(2.E-005),#340,
'DISTANCE_ACCURACY_VALUE','Maximum Tolerance applied to model');
#335=(
NAMED_UNIT(*)
SI_UNIT($,.STERADIAN.)
SOLID_ANGLE_UNIT()
);
#336=(
CONVERSION_BASED_UNIT('DEGREE',#338)
NAMED_UNIT(#337)
PLANE_ANGLE_UNIT()
);
#337=DIMENSIONAL_EXPONENTS(0.,0.,0.,0.,0.,0.,0.);
#338=PLANE_ANGLE_MEASURE_WITH_UNIT(PLANE_ANGLE_MEASURE(0.0174532925),#339);
#339=(
NAMED_UNIT(*)
PLANE_ANGLE_UNIT()
SI_UNIT($,.RADIAN.)
);
#340=(
LENGTH_UNIT()
NAMED_UNIT(*)
SI_UNIT(.MILLI.,.METRE.)
);
ENDSEC;
END-ISO-10303-21;
