ISO-10303-21;
HEADER;
/* Generated by software containing ST-Developer
 * from STEP Tools, Inc. (www.steptools.com) 
 */
/* OPTION: using custom schema-name function */

FILE_DESCRIPTION(
/* description */ ('3-D model version:1'),
/* implementation_level */ '2;1');

FILE_NAME(
/* name */ '316-12CM600-12045G',
/* time_stamp */ '2014-08-21T14:29:05+02:00',
/* author */ ('InteractiveCad'),
/* organization */ ('AB Sandvik Coromant'),
/* preprocessor_version */ 'ST-DEVELOPER v11',
/* originating_system */ 'SIEMENS UGS NX 6.0',
/* authorisation */ '');

FILE_SCHEMA (('AP203_CONFIGURATION_CONTROLLED_3D_DESIGN_OF_MECHANICAL_PARTS_AND_ASSEMBLIES_MIM_LF'));
ENDSEC;

DATA;
#10=SHAPE_REPRESENTATION_RELATIONSHIP('None',
'relationship between 316_12CM600_12045G_SIM-None and 316_12CM600_12045
G_SIM-None',#94,#11);
#11=ADVANCED_BREP_SHAPE_REPRESENTATION('316_12CM600_12045G_SIM-None',(#113,
#114),#377);
#12=CC_DESIGN_APPROVAL(#24,(#82));
#13=CC_DESIGN_APPROVAL(#25,(#84));
#14=CC_DESIGN_APPROVAL(#26,(#31));
#15=APPROVAL_PERSON_ORGANIZATION(#69,#24,#18);
#16=APPROVAL_PERSON_ORGANIZATION(#70,#25,#19);
#17=APPROVAL_PERSON_ORGANIZATION(#71,#26,#20);
#18=APPROVAL_ROLE('approver');
#19=APPROVAL_ROLE('approver');
#20=APPROVAL_ROLE('approver');
#21=APPROVAL_DATE_TIME(#39,#24);
#22=APPROVAL_DATE_TIME(#40,#25);
#23=APPROVAL_DATE_TIME(#41,#26);
#24=APPROVAL(#27,' ');
#25=APPROVAL(#28,' ');
#26=APPROVAL(#29,' ');
#27=APPROVAL_STATUS('not_yet_approved');
#28=APPROVAL_STATUS('not_yet_approved');
#29=APPROVAL_STATUS('not_yet_approved');
#30=CC_DESIGN_SECURITY_CLASSIFICATION(#31,(#84));
#31=SECURITY_CLASSIFICATION(' ',' ',#32);
#32=SECURITY_CLASSIFICATION_LEVEL('confidential');
#33=CC_DESIGN_DATE_AND_TIME_ASSIGNMENT(#37,#35,(#82));
#34=CC_DESIGN_DATE_AND_TIME_ASSIGNMENT(#38,#36,(#31));
#35=DATE_TIME_ROLE('creation_date');
#36=DATE_TIME_ROLE('classification_date');
#37=DATE_AND_TIME(#52,#42);
#38=DATE_AND_TIME(#53,#43);
#39=DATE_AND_TIME(#54,#44);
#40=DATE_AND_TIME(#55,#45);
#41=DATE_AND_TIME(#56,#46);
#42=LOCAL_TIME(0,0,0.,#47);
#43=LOCAL_TIME(0,0,0.,#48);
#44=LOCAL_TIME(0,0,0.,#49);
#45=LOCAL_TIME(0,0,0.,#50);
#46=LOCAL_TIME(0,0,0.,#51);
#47=COORDINATED_UNIVERSAL_TIME_OFFSET(0,0,.BEHIND.);
#48=COORDINATED_UNIVERSAL_TIME_OFFSET(0,0,.BEHIND.);
#49=COORDINATED_UNIVERSAL_TIME_OFFSET(0,0,.BEHIND.);
#50=COORDINATED_UNIVERSAL_TIME_OFFSET(0,0,.BEHIND.);
#51=COORDINATED_UNIVERSAL_TIME_OFFSET(0,0,.BEHIND.);
#52=CALENDAR_DATE(0,1,1);
#53=CALENDAR_DATE(0,1,1);
#54=CALENDAR_DATE(0,1,1);
#55=CALENDAR_DATE(0,1,1);
#56=CALENDAR_DATE(0,1,1);
#57=CC_DESIGN_PERSON_AND_ORGANIZATION_ASSIGNMENT(#65,#61,(#82,#84));
#58=CC_DESIGN_PERSON_AND_ORGANIZATION_ASSIGNMENT(#66,#62,(#86));
#59=CC_DESIGN_PERSON_AND_ORGANIZATION_ASSIGNMENT(#67,#63,(#84));
#60=CC_DESIGN_PERSON_AND_ORGANIZATION_ASSIGNMENT(#68,#64,(#31));
#61=PERSON_AND_ORGANIZATION_ROLE('creator');
#62=PERSON_AND_ORGANIZATION_ROLE('design_owner');
#63=PERSON_AND_ORGANIZATION_ROLE('design_supplier');
#64=PERSON_AND_ORGANIZATION_ROLE('classification_officer');
#65=PERSON_AND_ORGANIZATION(#79,#72);
#66=PERSON_AND_ORGANIZATION(#79,#73);
#67=PERSON_AND_ORGANIZATION(#79,#74);
#68=PERSON_AND_ORGANIZATION(#79,#75);
#69=PERSON_AND_ORGANIZATION(#79,#76);
#70=PERSON_AND_ORGANIZATION(#79,#77);
#71=PERSON_AND_ORGANIZATION(#79,#78);
#72=ORGANIZATION(' ',' ',' ');
#73=ORGANIZATION(' ',' ',' ');
#74=ORGANIZATION(' ',' ',' ');
#75=ORGANIZATION(' ',' ',' ');
#76=ORGANIZATION(' ',' ',' ');
#77=ORGANIZATION(' ',' ',' ');
#78=ORGANIZATION(' ',' ',' ');
#79=PERSON(' ',' ',' ',(' '),$,$);
#80=SHAPE_DEFINITION_REPRESENTATION(#81,#94);
#81=PRODUCT_DEFINITION_SHAPE('','',#82);
#82=PRODUCT_DEFINITION(' ','',#84,#83);
#83=DESIGN_CONTEXT('',#93,'design');
#84=PRODUCT_DEFINITION_FORMATION_WITH_SPECIFIED_SOURCE(' ',' ',#86,.NOT_KNOWN.);
#85=PRODUCT_RELATED_PRODUCT_CATEGORY('detail','',(#86));
#86=PRODUCT('316_12CM600_12045G_SIM','316_12CM600_12045G_SIM',' ',(#91));
#87=PRODUCT_CATEGORY_RELATIONSHIP(' ',' ',#89,#90);
#88=PRODUCT_CATEGORY_RELATIONSHIP('','',#90,#85);
#89=PRODUCT_CATEGORY('part',' ');
#90=PRODUCT_CATEGORY(' ','');
#91=MECHANICAL_CONTEXT(' ',#93,'mechanical');
#92=APPLICATION_PROTOCOL_DEFINITION('international standard',
'config_control_design',1994,#93);
#93=APPLICATION_CONTEXT(
'configuration controlled 3D designs of mechanical parts and assemblies');
#94=SHAPE_REPRESENTATION('316_12CM600_12045G_SIM-None',(#255),#377);
#95=VERTEX_LOOP('',#229);
#96=PRESENTATION_LAYER_ASSIGNMENT('1','Layer 1',(#113,#114));
#97=STYLED_ITEM('',(#99),#113);
#98=STYLED_ITEM('',(#100),#114);
#99=PRESENTATION_STYLE_ASSIGNMENT((#101));
#100=PRESENTATION_STYLE_ASSIGNMENT((#102));
#101=SURFACE_STYLE_USAGE(.BOTH.,#103);
#102=SURFACE_STYLE_USAGE(.BOTH.,#104);
#103=SURFACE_SIDE_STYLE('',(#105));
#104=SURFACE_SIDE_STYLE('',(#106));
#105=SURFACE_STYLE_FILL_AREA(#107);
#106=SURFACE_STYLE_FILL_AREA(#108);
#107=FILL_AREA_STYLE('',(#109));
#108=FILL_AREA_STYLE('',(#110));
#109=FILL_AREA_STYLE_COLOUR('',#111);
#110=FILL_AREA_STYLE_COLOUR('',#112);
#111=COLOUR_RGB('TLS_NOCUT',0.499992370489052,0.499992370489052,0.499992370489052);
#112=COLOUR_RGB('TLS_CUT',0.8,0.8,0.8);
#113=MANIFOLD_SOLID_BREP('',#115);
#114=MANIFOLD_SOLID_BREP('',#116);
#115=CLOSED_SHELL('',(#148,#149,#150,#151,#152,#153,#154,#155,#156,#157,
#158));
#116=CLOSED_SHELL('',(#159,#160,#161));
#117=CONICAL_SURFACE('',#267,4.60391757576667,2.20000000000004);
#118=CONICAL_SURFACE('',#269,4.51895968754297,5.99999999999999);
#119=CONICAL_SURFACE('',#276,2.75,45.);
#120=CONICAL_SURFACE('',#280,6.,45.);
#121=TOROIDAL_SURFACE('',#265,4.90369645068986,0.3);
#122=TOROIDAL_SURFACE('',#273,3.25,0.5);
#123=CYLINDRICAL_SURFACE('',#261,5.85);
#124=CYLINDRICAL_SURFACE('',#275,2.75);
#125=CYLINDRICAL_SURFACE('',#281,6.);
#126=FACE_BOUND('',#172,.T.);
#127=FACE_BOUND('',#173,.T.);
#128=FACE_BOUND('',#174,.T.);
#129=FACE_BOUND('',#175,.T.);
#130=FACE_BOUND('',#176,.T.);
#131=FACE_BOUND('',#177,.T.);
#132=FACE_BOUND('',#178,.T.);
#133=FACE_BOUND('',#179,.T.);
#134=FACE_BOUND('',#180,.T.);
#135=FACE_BOUND('',#181,.T.);
#136=FACE_BOUND('',#182,.T.);
#137=FACE_BOUND('',#183,.T.);
#138=FACE_BOUND('',#184,.T.);
#139=FACE_BOUND('',#185,.T.);
#140=FACE_BOUND('',#186,.T.);
#141=FACE_BOUND('',#187,.T.);
#142=FACE_BOUND('',#188,.T.);
#143=FACE_BOUND('',#189,.T.);
#144=FACE_BOUND('',#95,.T.);
#145=FACE_BOUND('',#191,.T.);
#146=FACE_BOUND('',#192,.T.);
#147=FACE_BOUND('',#193,.T.);
#148=ADVANCED_FACE('',(#167),#162,.T.);
#149=ADVANCED_FACE('',(#168),#163,.T.);
#150=ADVANCED_FACE('',(#126,#127),#123,.T.);
#151=ADVANCED_FACE('',(#128,#129),#164,.T.);
#152=ADVANCED_FACE('',(#130,#131),#121,.F.);
#153=ADVANCED_FACE('',(#132,#133),#117,.T.);
#154=ADVANCED_FACE('',(#134,#135),#118,.T.);
#155=ADVANCED_FACE('',(#136,#137),#165,.T.);
#156=ADVANCED_FACE('',(#138,#139),#122,.F.);
#157=ADVANCED_FACE('',(#140,#141),#124,.T.);
#158=ADVANCED_FACE('',(#142,#143),#119,.T.);
#159=ADVANCED_FACE('',(#169),#166,.T.);
#160=ADVANCED_FACE('',(#144,#145),#120,.T.);
#161=ADVANCED_FACE('',(#146,#147),#125,.T.);
#162=PLANE('',#257);
#163=PLANE('',#259);
#164=PLANE('',#263);
#165=PLANE('',#271);
#166=PLANE('',#278);
#167=FACE_OUTER_BOUND('',#170,.T.);
#168=FACE_OUTER_BOUND('',#171,.T.);
#169=FACE_OUTER_BOUND('',#190,.T.);
#170=EDGE_LOOP('',(#194));
#171=EDGE_LOOP('',(#195));
#172=EDGE_LOOP('',(#196));
#173=EDGE_LOOP('',(#197));
#174=EDGE_LOOP('',(#198));
#175=EDGE_LOOP('',(#199));
#176=EDGE_LOOP('',(#200));
#177=EDGE_LOOP('',(#201));
#178=EDGE_LOOP('',(#202));
#179=EDGE_LOOP('',(#203));
#180=EDGE_LOOP('',(#204));
#181=EDGE_LOOP('',(#205));
#182=EDGE_LOOP('',(#206));
#183=EDGE_LOOP('',(#207));
#184=EDGE_LOOP('',(#208));
#185=EDGE_LOOP('',(#209));
#186=EDGE_LOOP('',(#210));
#187=EDGE_LOOP('',(#211));
#188=EDGE_LOOP('',(#212));
#189=EDGE_LOOP('',(#213));
#190=EDGE_LOOP('',(#214));
#191=EDGE_LOOP('',(#215));
#192=EDGE_LOOP('',(#216));
#193=EDGE_LOOP('',(#217));
#194=ORIENTED_EDGE('',*,*,#231,.F.);
#195=ORIENTED_EDGE('',*,*,#232,.T.);
#196=ORIENTED_EDGE('',*,*,#233,.T.);
#197=ORIENTED_EDGE('',*,*,#232,.F.);
#198=ORIENTED_EDGE('',*,*,#234,.T.);
#199=ORIENTED_EDGE('',*,*,#233,.F.);
#200=ORIENTED_EDGE('',*,*,#235,.T.);
#201=ORIENTED_EDGE('',*,*,#234,.F.);
#202=ORIENTED_EDGE('',*,*,#236,.T.);
#203=ORIENTED_EDGE('',*,*,#235,.F.);
#204=ORIENTED_EDGE('',*,*,#237,.T.);
#205=ORIENTED_EDGE('',*,*,#236,.F.);
#206=ORIENTED_EDGE('',*,*,#238,.T.);
#207=ORIENTED_EDGE('',*,*,#237,.F.);
#208=ORIENTED_EDGE('',*,*,#239,.T.);
#209=ORIENTED_EDGE('',*,*,#238,.F.);
#210=ORIENTED_EDGE('',*,*,#240,.T.);
#211=ORIENTED_EDGE('',*,*,#239,.F.);
#212=ORIENTED_EDGE('',*,*,#231,.T.);
#213=ORIENTED_EDGE('',*,*,#240,.F.);
#214=ORIENTED_EDGE('',*,*,#241,.F.);
#215=ORIENTED_EDGE('',*,*,#242,.F.);
#216=ORIENTED_EDGE('',*,*,#242,.T.);
#217=ORIENTED_EDGE('',*,*,#241,.T.);
#218=VERTEX_POINT('',#338);
#219=VERTEX_POINT('',#341);
#220=VERTEX_POINT('',#344);
#221=VERTEX_POINT('',#347);
#222=VERTEX_POINT('',#350);
#223=VERTEX_POINT('',#353);
#224=VERTEX_POINT('',#356);
#225=VERTEX_POINT('',#359);
#226=VERTEX_POINT('',#362);
#227=VERTEX_POINT('',#365);
#228=VERTEX_POINT('',#369);
#229=VERTEX_POINT('',#371);
#230=VERTEX_POINT('',#373);
#231=EDGE_CURVE('',#218,#218,#243,.T.);
#232=EDGE_CURVE('',#219,#219,#244,.T.);
#233=EDGE_CURVE('',#220,#220,#245,.T.);
#234=EDGE_CURVE('',#221,#221,#246,.T.);
#235=EDGE_CURVE('',#222,#222,#247,.T.);
#236=EDGE_CURVE('',#223,#223,#248,.T.);
#237=EDGE_CURVE('',#224,#224,#249,.T.);
#238=EDGE_CURVE('',#225,#225,#250,.T.);
#239=EDGE_CURVE('',#226,#226,#251,.T.);
#240=EDGE_CURVE('',#227,#227,#252,.T.);
#241=EDGE_CURVE('',#228,#228,#253,.T.);
#242=EDGE_CURVE('',#230,#230,#254,.T.);
#243=CIRCLE('',#256,2.55);
#244=CIRCLE('',#258,5.85);
#245=CIRCLE('',#260,5.85);
#246=CIRCLE('',#262,4.90369645068986);
#247=CIRCLE('',#264,4.60391757576667);
#248=CIRCLE('',#266,4.51895968754297);
#249=CIRCLE('',#268,3.75169877010353);
#250=CIRCLE('',#270,3.25);
#251=CIRCLE('',#272,2.75);
#252=CIRCLE('',#274,2.75);
#253=CIRCLE('',#277,6.);
#254=CIRCLE('',#279,6.);
#255=AXIS2_PLACEMENT_3D('',#336,#282,#283);
#256=AXIS2_PLACEMENT_3D('',#337,#284,#285);
#257=AXIS2_PLACEMENT_3D('',#339,#286,#287);
#258=AXIS2_PLACEMENT_3D('',#340,#288,#289);
#259=AXIS2_PLACEMENT_3D('',#342,#290,#291);
#260=AXIS2_PLACEMENT_3D('',#343,#292,#293);
#261=AXIS2_PLACEMENT_3D('',#345,#294,#295);
#262=AXIS2_PLACEMENT_3D('',#346,#296,#297);
#263=AXIS2_PLACEMENT_3D('',#348,#298,#299);
#264=AXIS2_PLACEMENT_3D('',#349,#300,#301);
#265=AXIS2_PLACEMENT_3D('',#351,#302,#303);
#266=AXIS2_PLACEMENT_3D('',#352,#304,#305);
#267=AXIS2_PLACEMENT_3D('',#354,#306,#307);
#268=AXIS2_PLACEMENT_3D('',#355,#308,#309);
#269=AXIS2_PLACEMENT_3D('',#357,#310,#311);
#270=AXIS2_PLACEMENT_3D('',#358,#312,#313);
#271=AXIS2_PLACEMENT_3D('',#360,#314,#315);
#272=AXIS2_PLACEMENT_3D('',#361,#316,#317);
#273=AXIS2_PLACEMENT_3D('',#363,#318,#319);
#274=AXIS2_PLACEMENT_3D('',#364,#320,#321);
#275=AXIS2_PLACEMENT_3D('',#366,#322,#323);
#276=AXIS2_PLACEMENT_3D('',#367,#324,#325);
#277=AXIS2_PLACEMENT_3D('',#368,#326,#327);
#278=AXIS2_PLACEMENT_3D('',#370,#328,#329);
#279=AXIS2_PLACEMENT_3D('',#372,#330,#331);
#280=AXIS2_PLACEMENT_3D('',#374,#332,#333);
#281=AXIS2_PLACEMENT_3D('',#375,#334,#335);
#282=DIRECTION('',(0.,0.,1.));
#283=DIRECTION('',(1.,0.,0.));
#284=DIRECTION('',(0.,0.,-1.));
#285=DIRECTION('',(-1.,0.,0.));
#286=DIRECTION('',(0.,0.,1.));
#287=DIRECTION('',(1.,0.,0.));
#288=DIRECTION('',(0.,0.,-1.));
#289=DIRECTION('',(-1.,0.,0.));
#290=DIRECTION('',(0.,0.,-1.));
#291=DIRECTION('',(-1.,0.,0.));
#292=DIRECTION('',(0.,0.,-1.));
#293=DIRECTION('',(-1.,0.,0.));
#294=DIRECTION('',(0.,0.,-1.));
#295=DIRECTION('',(-1.,0.,0.));
#296=DIRECTION('',(0.,0.,-1.));
#297=DIRECTION('',(-1.,0.,0.));
#298=DIRECTION('',(0.,0.,1.));
#299=DIRECTION('',(1.,0.,0.));
#300=DIRECTION('',(0.,0.,-1.));
#301=DIRECTION('',(-1.,0.,0.));
#302=DIRECTION('',(0.,0.,-1.));
#303=DIRECTION('',(-1.,0.,0.));
#304=DIRECTION('',(0.,0.,-1.));
#305=DIRECTION('',(-1.,0.,0.));
#306=DIRECTION('',(0.,0.,-1.));
#307=DIRECTION('',(-1.,0.,-5.92253041561159E-017));
#308=DIRECTION('',(0.,0.,-1.));
#309=DIRECTION('',(-1.,0.,0.));
#310=DIRECTION('',(0.,0.,-1.));
#311=DIRECTION('',(-1.,0.,-1.10770939827284E-016));
#312=DIRECTION('',(0.,0.,-1.));
#313=DIRECTION('',(-1.,0.,0.));
#314=DIRECTION('',(0.,0.,1.));
#315=DIRECTION('',(1.,0.,0.));
#316=DIRECTION('',(0.,0.,-1.));
#317=DIRECTION('',(-1.,0.,0.));
#318=DIRECTION('',(0.,0.,-1.));
#319=DIRECTION('',(-1.,0.,0.));
#320=DIRECTION('',(0.,0.,-1.));
#321=DIRECTION('',(-1.,0.,0.));
#322=DIRECTION('',(0.,0.,-1.));
#323=DIRECTION('',(-1.,0.,0.));
#324=DIRECTION('',(0.,0.,-1.));
#325=DIRECTION('',(-1.,0.,-5.36289481478744E-017));
#326=DIRECTION('',(0.,0.,-1.));
#327=DIRECTION('',(-1.,0.,0.));
#328=DIRECTION('',(0.,0.,1.));
#329=DIRECTION('',(1.,0.,0.));
#330=DIRECTION('',(0.,0.,1.));
#331=DIRECTION('',(1.,0.,0.));
#332=DIRECTION('',(0.,0.,1.));
#333=DIRECTION('',(-1.,0.,4.82825619556169E-017));
#334=DIRECTION('',(0.,0.,1.));
#335=DIRECTION('',(-1.,0.,0.));
#336=CARTESIAN_POINT('',(0.,0.,0.));
#337=CARTESIAN_POINT('',(0.,0.,13.8));
#338=CARTESIAN_POINT('',(-2.55,0.,13.8));
#339=CARTESIAN_POINT('',(0.,2.55,13.8));
#340=CARTESIAN_POINT('',(0.,0.,-8.));
#341=CARTESIAN_POINT('',(-5.85,0.,-8.));
#342=CARTESIAN_POINT('',(0.,0.,-8.));
#343=CARTESIAN_POINT('',(0.,0.,0.));
#344=CARTESIAN_POINT('',(-5.85,0.,0.));
#345=CARTESIAN_POINT('',(0.,0.,-1.0842021724855E-016));
#346=CARTESIAN_POINT('',(0.,0.,-1.0842021724855E-016));
#347=CARTESIAN_POINT('',(-4.90369645068986,0.,-1.0842021724855E-016));
#348=CARTESIAN_POINT('',(0.,5.85,-5.42101086242752E-017));
#349=CARTESIAN_POINT('',(0.,0.,0.288483657273744));
#350=CARTESIAN_POINT('',(-4.60391757576667,0.,0.288483657273744));
#351=CARTESIAN_POINT('',(0.,0.,0.3));
#352=CARTESIAN_POINT('',(0.,0.,2.50000000000007));
#353=CARTESIAN_POINT('',(-4.51895968754297,0.,2.50000000000007));
#354=CARTESIAN_POINT('',(0.,0.,0.288483657273744));
#355=CARTESIAN_POINT('',(0.,0.,9.8));
#356=CARTESIAN_POINT('',(-3.75169877010353,0.,9.8));
#357=CARTESIAN_POINT('',(0.,0.,2.50000000000007));
#358=CARTESIAN_POINT('',(0.,0.,9.8));
#359=CARTESIAN_POINT('',(-3.25,0.,9.8));
#360=CARTESIAN_POINT('',(0.,3.75169877010354,9.8));
#361=CARTESIAN_POINT('',(0.,0.,10.3));
#362=CARTESIAN_POINT('',(-2.75,0.,10.3));
#363=CARTESIAN_POINT('',(0.,0.,10.3));
#364=CARTESIAN_POINT('',(0.,0.,13.6));
#365=CARTESIAN_POINT('',(-2.75,0.,13.6));
#366=CARTESIAN_POINT('',(0.,0.,-1.0842021724855E-016));
#367=CARTESIAN_POINT('',(0.,0.,13.6));
#368=CARTESIAN_POINT('',(-3.98986399474665E-014,0.,-8.));
#369=CARTESIAN_POINT('',(-6.00000000000004,0.,-8.));
#370=CARTESIAN_POINT('',(-3.99680288865056E-014,0.,-8.));
#371=CARTESIAN_POINT('',(-3.03576608295941E-014,0.,-14.5));
#372=CARTESIAN_POINT('',(-3.98986399474665E-014,0.,-8.5));
#373=CARTESIAN_POINT('',(6.,0.,-8.5));
#374=CARTESIAN_POINT('',(-3.98986399474665E-014,0.,-8.5));
#375=CARTESIAN_POINT('',(-3.98986399474665E-014,0.,-16.1999999999997));
#376=MECHANICAL_DESIGN_GEOMETRIC_PRESENTATION_REPRESENTATION('',(#97,#98),
#377);
#377=(
GEOMETRIC_REPRESENTATION_CONTEXT(3)
GLOBAL_UNCERTAINTY_ASSIGNED_CONTEXT((#378))
GLOBAL_UNIT_ASSIGNED_CONTEXT((#384,#380,#379))
REPRESENTATION_CONTEXT('316_12CM600_12045G_SIM',
'TOP_LEVEL_ASSEMBLY_PART')
);
#378=UNCERTAINTY_MEASURE_WITH_UNIT(LENGTH_MEASURE(2.E-005),#384,
'DISTANCE_ACCURACY_VALUE','Maximum Tolerance applied to model');
#379=(
NAMED_UNIT(*)
SI_UNIT($,.STERADIAN.)
SOLID_ANGLE_UNIT()
);
#380=(
CONVERSION_BASED_UNIT('DEGREE',#382)
NAMED_UNIT(#381)
PLANE_ANGLE_UNIT()
);
#381=DIMENSIONAL_EXPONENTS(0.,0.,0.,0.,0.,0.,0.);
#382=PLANE_ANGLE_MEASURE_WITH_UNIT(PLANE_ANGLE_MEASURE(0.0174532925),#383);
#383=(
NAMED_UNIT(*)
PLANE_ANGLE_UNIT()
SI_UNIT($,.RADIAN.)
);
#384=(
LENGTH_UNIT()
NAMED_UNIT(*)
SI_UNIT(.MILLI.,.METRE.)
);
ENDSEC;
END-ISO-10303-21;
