ISO-10303-21;
HEADER;
FILE_DESCRIPTION(('STEP'), '1');
FILE_NAME('C:\\Users\\ds2002\\OneDrive - Sandvik\\HomeShare\\Documents\\Batchrepair\\CorSRT2\\NEW_MILSQ_SLD\\Output\\MOD000000000000000020082340800000.stp', '2019-01-02T12:08:16', (''), (''), 'Express v3.0.0.0', 'Express Tool', 'Unknown');
FILE_SCHEMA(('AUTOMOTIVE_DESIGN'));
ENDSEC;

DATA;
#1 = MANIFOLD_SOLID_BREP('NOCUT', #2);
#2 = CLOSED_SHELL('', (#3, #50, #70, #117, #164, #173, #185, #216));
#3 = ADVANCED_FACE('', (#4), #31, .T.);
#4 = FACE_OUTER_BOUND('', #5, .T.);
#5 = EDGE_LOOP('', (#6, #16, #23, #24));
#6 = ORIENTED_EDGE('', *, *, #7, .F.);
#7 = EDGE_CURVE('', #8, #10, #12, .T.);
#8 = VERTEX_POINT('', #9);
#9 = CARTESIAN_POINT('', (-4.85, 2.96976848793233E-16, -5.47382212626882E-48));
#10 = VERTEX_POINT('', #11);
#11 = CARTESIAN_POINT('', (-4.85, 6.94987058516123E-16, -6.5));
#12 = LINE('', #13, #14);
#13 = CARTESIAN_POINT('', (-4.85, 2.96976848793233E-16, -5.47382212626882E-48));
#14 = VECTOR('', #15, 6.5);
#15 = DIRECTION('', (0., 3.9801020972289E-16, -6.5));
#16 = ORIENTED_EDGE('', *, *, #17, .T.);
#17 = EDGE_CURVE('', #8, #8, #18, .T.);
#18 = CIRCLE('', #19, 4.85);
#19 = AXIS2_PLACEMENT_3D('', #20, #21, #22);
#20 = CARTESIAN_POINT('', (6.52256026967279E-16, 3.44169137633799E-15, 2.1570415377137E-31));
#21 = DIRECTION('', (4.77235561894381E-33, 6.12323399573676E-17, -1.));
#22 = DIRECTION('', (-1., -8.93324107776842E-16, -5.94726810784475E-32));
#23 = ORIENTED_EDGE('', *, *, #7, .T.);
#24 = ORIENTED_EDGE('', *, *, #25, .F.);
#25 = EDGE_CURVE('', #10, #10, #26, .T.);
#26 = CIRCLE('', #27, 4.85);
#27 = AXIS2_PLACEMENT_3D('', #28, #29, #30);
#28 = CARTESIAN_POINT('', (-2.35922392732846E-16, 3.77475828372553E-15, -6.5));
#29 = DIRECTION('', (0., 0., -1.));
#30 = DIRECTION('', (-1., -8.79933736161308E-16, 0.));
#31 = (
   BOUNDED_SURFACE ()
   B_SPLINE_SURFACE (2, 1, ((#32, #33), (#34, #35), (#36, #37), (#38, #39), (#40, #41), (#42, #43), (#44, #45), (#46, #47), (#48, #49)), .UNSPECIFIED., .T., .F., .U.)
   B_SPLINE_SURFACE_WITH_KNOTS ((3, 2, 2, 2, 3), (2, 2), (0., 7.61836218495525, 15.2367243699105, 22.8550865548658, 30.473448739821), (0., 1.), .UNSPECIFIED.)
   GEOMETRIC_REPRESENTATION_ITEM ()
   RATIONAL_B_SPLINE_SURFACE (((1., 1.), (0.707106781186548, 0.707106781186548), (1., 1.), (0.707106781186548, 0.707106781186548), (1., 1.), (0.707106781186548, 0.707106781186548), (1., 1.), (0.707106781186548, 0.707106781186548), (1., 1.)))
   REPRESENTATION_ITEM ('')
   SURFACE ()
);
#32 = CARTESIAN_POINT('', (-4.85, 2.96976848793233E-16, -5.47382212626882E-48));
#33 = CARTESIAN_POINT('', (-4.85, 5.19021453718264E-16, -6.5));
#34 = CARTESIAN_POINT('', (-4.85, 4.85, 1.65679435982523E-16));
#35 = CARTESIAN_POINT('', (-4.85, 4.85, -6.5));
#36 = CARTESIAN_POINT('', (1.52655665885959E-16, 4.85, 1.65679435982523E-16));
#37 = CARTESIAN_POINT('', (1.52655665885959E-16, 4.85, -6.5));
#38 = CARTESIAN_POINT('', (4.85, 4.85, 1.65679435982523E-16));
#39 = CARTESIAN_POINT('', (4.85, 4.85, -6.5));
#40 = CARTESIAN_POINT('', (4.85, -3.69156965981861E-16, -4.13398791243379E-32));
#41 = CARTESIAN_POINT('', (4.85, -1.47112361056829E-16, -6.5));
#42 = CARTESIAN_POINT('', (4.85, -4.85, -1.65679435982523E-16));
#43 = CARTESIAN_POINT('', (4.85, -4.85, -6.5));
#44 = CARTESIAN_POINT('', (8.04755486973314E-17, -4.85, -1.65679435982523E-16));
#45 = CARTESIAN_POINT('', (8.04755486973314E-17, -4.85, -6.5));
#46 = CARTESIAN_POINT('', (-4.85, -4.85, -1.65679435982523E-16));
#47 = CARTESIAN_POINT('', (-4.85, -4.85, -6.5));
#48 = CARTESIAN_POINT('', (-4.85, 2.96976848793233E-16, -5.47382212626882E-48));
#49 = CARTESIAN_POINT('', (-4.85, 5.19021453718264E-16, -6.5));
#50 = ADVANCED_FACE('', (#51, #54), #65, .T.);
#51 = FACE_OUTER_BOUND('', #52, .T.);
#52 = EDGE_LOOP('', (#53));
#53 = ORIENTED_EDGE('', *, *, #17, .F.);
#54 = FACE_BOUND('', #55, .T.);
#55 = EDGE_LOOP('', (#56));
#56 = ORIENTED_EDGE('', *, *, #57, .T.);
#57 = EDGE_CURVE('', #58, #58, #60, .T.);
#58 = VERTEX_POINT('', #59);
#59 = CARTESIAN_POINT('', (-3.625, 2.21967232345458E-16, -5.47382212626882E-48));
#60 = CIRCLE('', #61, 3.625);
#61 = AXIS2_PLACEMENT_3D('', #62, #63, #64);
#62 = CARTESIAN_POINT('', (-3.88578058618805E-16, -7.7715611723761E-16, -7.39557098644699E-32));
#63 = DIRECTION('', (-3.5247032450912E-33, 6.12323399573678E-17, -1.));
#64 = DIRECTION('', (-1., 3.06908745382722E-17, 5.4039773084076E-33));
#65 = B_SPLINE_SURFACE_WITH_KNOTS('', 1, 1, ((#66, #67), (#68, #69)), .UNSPECIFIED., .F., .F., .U., (2, 2), (2, 2), (2.69482935526046, 12.3948293552605), (2.69482935526046, 12.3948293552605), .UNSPECIFIED.);
#66 = CARTESIAN_POINT('', (4.85, -4.85, -2.96976848793233E-16));
#67 = CARTESIAN_POINT('', (-4.85, -4.85, -2.96976848793233E-16));
#68 = CARTESIAN_POINT('', (4.85, 4.85, 2.96976848793233E-16));
#69 = CARTESIAN_POINT('', (-4.85, 4.85, 2.96976848793233E-16));
#70 = ADVANCED_FACE('', (#71), #98, .T.);
#71 = FACE_OUTER_BOUND('', #72, .T.);
#72 = EDGE_LOOP('', (#73, #83, #90, #91));
#73 = ORIENTED_EDGE('', *, *, #74, .T.);
#74 = EDGE_CURVE('', #75, #77, #79, .T.);
#75 = VERTEX_POINT('', #76);
#76 = CARTESIAN_POINT('', (-3.545, 8.84807312383963E-17, 2.1));
#77 = VERTEX_POINT('', #78);
#78 = CARTESIAN_POINT('', (-2.955, -2.90547453097709E-16, 7.7));
#79 = LINE('', #80, #81);
#80 = CARTESIAN_POINT('', (-3.545, 8.84807312383963E-17, 2.1));
#81 = VECTOR('', #82, 5.63099458355271);
#82 = DIRECTION('', (0.59, -3.79028184336105E-16, 5.6));
#83 = ORIENTED_EDGE('', *, *, #84, .T.);
#84 = EDGE_CURVE('', #77, #77, #85, .T.);
#85 = CIRCLE('', #86, 2.955);
#86 = AXIS2_PLACEMENT_3D('', #87, #88, #89);
#87 = CARTESIAN_POINT('', (5.13478148889135E-16, -4.44089209850063E-16, 7.7));
#88 = DIRECTION('', (0., 0., -1.));
#89 = DIRECTION('', (-1., 5.19599853645867E-17, 0.));
#90 = ORIENTED_EDGE('', *, *, #74, .F.);
#91 = ORIENTED_EDGE('', *, *, #92, .F.);
#92 = EDGE_CURVE('', #75, #75, #93, .T.);
#93 = CIRCLE('', #94, 3.545);
#94 = AXIS2_PLACEMENT_3D('', #95, #96, #97);
#95 = CARTESIAN_POINT('', (1.52655665885959E-16, -2.1094237467878E-15, 2.1));
#96 = DIRECTION('', (0., 0., -1.));
#97 = DIRECTION('', (-1., 6.20001263194977E-16, 0.));
#98 = (
   BOUNDED_SURFACE ()
   B_SPLINE_SURFACE (1, 2, ((#99, #100, #101, #102, #103, #104, #105, #106, #107), (#108, #109, #110, #111, #112, #113, #114, #115, #116)), .UNSPECIFIED., .F., .T., .U.)
   B_SPLINE_SURFACE_WITH_KNOTS ((2, 2), (3, 2, 2, 2, 3), (0., 1.), (0., 0.25, 0.5, 0.75, 1.), .UNSPECIFIED.)
   GEOMETRIC_REPRESENTATION_ITEM ()
   RATIONAL_B_SPLINE_SURFACE (((1., 0.707106781186548, 1., 0.707106781186548, 1., 0.707106781186548, 1., 0.707106781186548, 1.), (1., 0.707106781186548, 1., 0.707106781186548, 1., 0.707106781186548, 1., 0.707106781186548, 1.)))
   REPRESENTATION_ITEM ('')
   SURFACE ()
);
#99 = CARTESIAN_POINT('', (-3.545, -2.76888238438803E-15, 2.1));
#100 = CARTESIAN_POINT('', (-3.545, 3.545, 2.1));
#101 = CARTESIAN_POINT('', (-1.94908538073512E-15, 3.545, 2.1));
#102 = CARTESIAN_POINT('', (3.545, 3.545, 2.1));
#103 = CARTESIAN_POINT('', (3.545, -1.90400623858995E-15, 2.1));
#104 = CARTESIAN_POINT('', (3.545, -3.545, 2.1));
#105 = CARTESIAN_POINT('', (-6.50071944639296E-16, -3.545, 2.1));
#106 = CARTESIAN_POINT('', (-3.545, -3.545, 2.1));
#107 = CARTESIAN_POINT('', (-3.545, -2.76888238438803E-15, 2.1));
#108 = CARTESIAN_POINT('', (-2.955, -2.90547453097709E-16, 7.7));
#109 = CARTESIAN_POINT('', (-2.955, 2.955, 7.7));
#110 = CARTESIAN_POINT('', (-1.93933261515442E-16, 2.955, 7.7));
#111 = CARTESIAN_POINT('', (2.955, 2.955, 7.7));
#112 = CARTESIAN_POINT('', (2.955, 4.30385977320721E-16, 7.7));
#113 = CARTESIAN_POINT('', (2.955, -2.955, 7.7));
#114 = CARTESIAN_POINT('', (8.88883298051032E-16, -2.955, 7.7));
#115 = CARTESIAN_POINT('', (-2.955, -2.955, 7.7));
#116 = CARTESIAN_POINT('', (-2.955, -2.90547453097709E-16, 7.7));
#117 = ADVANCED_FACE('', (#118), #145, .T.);
#118 = FACE_OUTER_BOUND('', #119, .T.);
#119 = EDGE_LOOP('', (#120, #130, #137, #138));
#120 = ORIENTED_EDGE('', *, *, #121, .T.);
#121 = EDGE_CURVE('', #122, #124, #126, .T.);
#122 = VERTEX_POINT('', #123);
#123 = CARTESIAN_POINT('', (-2.2, -3.36777869765522E-16, 7.7));
#124 = VERTEX_POINT('', #125);
#125 = CARTESIAN_POINT('', (-2.2, -5.51091059616309E-16, 11.2));
#126 = LINE('', #127, #128);
#127 = CARTESIAN_POINT('', (-2.2, -3.36777869765522E-16, 7.7));
#128 = VECTOR('', #129, 3.5);
#129 = DIRECTION('', (0., -2.14313189850787E-16, 3.5));
#130 = ORIENTED_EDGE('', *, *, #131, .T.);
#131 = EDGE_CURVE('', #124, #124, #132, .T.);
#132 = CIRCLE('', #133, 2.2);
#133 = AXIS2_PLACEMENT_3D('', #134, #135, #136);
#134 = CARTESIAN_POINT('', (5.759281940243E-16, -4.9960036108132E-16, 11.2));
#135 = DIRECTION('', (0., 0., -1.));
#136 = DIRECTION('', (-1., -2.34048629704493E-17, 0.));
#137 = ORIENTED_EDGE('', *, *, #121, .F.);
#138 = ORIENTED_EDGE('', *, *, #139, .F.);
#139 = EDGE_CURVE('', #122, #122, #140, .T.);
#140 = CIRCLE('', #141, 2.2);
#141 = AXIS2_PLACEMENT_3D('', #142, #143, #144);
#142 = CARTESIAN_POINT('', (5.62050406216485E-16, -3.33066907387547E-16, 7.7));
#143 = DIRECTION('', (0., 0., -1.));
#144 = DIRECTION('', (-1., -1.68680108089775E-18, 0.));
#145 = (
   BOUNDED_SURFACE ()
   B_SPLINE_SURFACE (1, 2, ((#146, #147, #148, #149, #150, #151, #152, #153, #154), (#155, #156, #157, #158, #159, #160, #161, #162, #163)), .UNSPECIFIED., .F., .T., .U.)
   B_SPLINE_SURFACE_WITH_KNOTS ((2, 2), (3, 2, 2, 2, 3), (0., 1.), (0., 3.45575191894878, 6.91150383789755, 10.3672557568463, 13.8230076757951), .UNSPECIFIED.)
   GEOMETRIC_REPRESENTATION_ITEM ()
   RATIONAL_B_SPLINE_SURFACE (((1., 0.707106781186548, 1., 0.707106781186548, 1., 0.707106781186548, 1., 0.707106781186548, 1.), (1., 0.707106781186548, 1., 0.707106781186548, 1., 0.707106781186548, 1., 0.707106781186548, 1.)))
   REPRESENTATION_ITEM ('')
   SURFACE ()
);
#146 = CARTESIAN_POINT('', (-2.2, -3.84557605922536E-16, 7.7));
#147 = CARTESIAN_POINT('', (-2.2, 2.2, 7.7));
#148 = CARTESIAN_POINT('', (-1.48377500647185E-15, 2.2, 7.7));
#149 = CARTESIAN_POINT('', (2.2, 2.2, 7.7));
#150 = CARTESIAN_POINT('', (2.2, 3.20912994347406E-16, 7.7));
#151 = CARTESIAN_POINT('', (2.2, -2.2, 7.7));
#152 = CARTESIAN_POINT('', (-5.0888211038949E-16, -2.2, 7.7));
#153 = CARTESIAN_POINT('', (-2.2, -2.2, 7.7));
#154 = CARTESIAN_POINT('', (-2.2, -3.84557605922536E-16, 7.7));
#155 = CARTESIAN_POINT('', (-2.2, -5.51091059616309E-16, 11.2));
#156 = CARTESIAN_POINT('', (-2.2, 2.2, 11.2));
#157 = CARTESIAN_POINT('', (-1.48377500647185E-15, 2.2, 11.2));
#158 = CARTESIAN_POINT('', (2.2, 2.2, 11.2));
#159 = CARTESIAN_POINT('', (2.2, 1.54379540653633E-16, 11.2));
#160 = CARTESIAN_POINT('', (2.2, -2.2, 11.2));
#161 = CARTESIAN_POINT('', (-5.0888211038949E-16, -2.2, 11.2));
#162 = CARTESIAN_POINT('', (-2.2, -2.2, 11.2));
#163 = CARTESIAN_POINT('', (-2.2, -5.51091059616309E-16, 11.2));
#164 = ADVANCED_FACE('', (#165), #168, .T.);
#165 = FACE_OUTER_BOUND('', #166, .T.);
#166 = EDGE_LOOP('', (#167));
#167 = ORIENTED_EDGE('', *, *, #131, .F.);
#168 = B_SPLINE_SURFACE_WITH_KNOTS('', 1, 1, ((#169, #170), (#171, #172)), .UNSPECIFIED., .F., .F., .U., (2, 2), (2, 2), (1.22239682094289, 5.62239682094289), (1.22239682094289, 5.62239682094289), .UNSPECIFIED.);
#169 = CARTESIAN_POINT('', (2.2, -2.2, 11.2));
#170 = CARTESIAN_POINT('', (-2.2, -2.2, 11.2));
#171 = CARTESIAN_POINT('', (2.2, 2.2, 11.2));
#172 = CARTESIAN_POINT('', (-2.2, 2.2, 11.2));
#173 = ADVANCED_FACE('', (#174, #177), #180, .T.);
#174 = FACE_OUTER_BOUND('', #175, .T.);
#175 = EDGE_LOOP('', (#176));
#176 = ORIENTED_EDGE('', *, *, #84, .F.);
#177 = FACE_BOUND('', #178, .T.);
#178 = EDGE_LOOP('', (#179));
#179 = ORIENTED_EDGE('', *, *, #139, .T.);
#180 = B_SPLINE_SURFACE_WITH_KNOTS('', 1, 1, ((#181, #182), (#183, #184)), .UNSPECIFIED., .F., .F., .U., (2, 2), (2, 2), (1.64190118449375, 7.55190118449375), (1.64190118449375, 7.55190118449375), .UNSPECIFIED.);
#181 = CARTESIAN_POINT('', (2.955, -2.955, 7.7));
#182 = CARTESIAN_POINT('', (-2.955, -2.955, 7.7));
#183 = CARTESIAN_POINT('', (2.955, 2.955, 7.7));
#184 = CARTESIAN_POINT('', (-2.955, 2.955, 7.7));
#185 = ADVANCED_FACE('', (#186), #197, .T.);
#186 = FACE_OUTER_BOUND('', #187, .T.);
#187 = EDGE_LOOP('', (#188, #194, #195, #196));
#188 = ORIENTED_EDGE('', *, *, #189, .T.);
#189 = EDGE_CURVE('', #58, #75, #190, .T.);
#190 = LINE('', #191, #192);
#191 = CARTESIAN_POINT('', (-3.625, 2.21967232345458E-16, -5.47382212626882E-48));
#192 = VECTOR('', #193, 2.10152325706855);
#193 = DIRECTION('', (0.0800000000000001, -1.33486501107062E-16, 2.1));
#194 = ORIENTED_EDGE('', *, *, #92, .T.);
#195 = ORIENTED_EDGE('', *, *, #189, .F.);
#196 = ORIENTED_EDGE('', *, *, #57, .F.);
#197 = (
   BOUNDED_SURFACE ()
   B_SPLINE_SURFACE (1, 2, ((#198, #199, #200, #201, #202, #203, #204, #205, #206), (#207, #208, #209, #210, #211, #212, #213, #214, #215)), .UNSPECIFIED., .F., .T., .U.)
   B_SPLINE_SURFACE_WITH_KNOTS ((2, 2), (3, 2, 2, 2, 3), (0., 1.), (0., 0.25, 0.5, 0.75, 1.), .UNSPECIFIED.)
   GEOMETRIC_REPRESENTATION_ITEM ()
   RATIONAL_B_SPLINE_SURFACE (((1., 0.707106781186548, 1., 0.707106781186548, 1., 0.707106781186548, 1., 0.707106781186548, 1.), (1., 0.707106781186548, 1., 0.707106781186548, 1., 0.707106781186548, 1., 0.707106781186548, 1.)))
   REPRESENTATION_ITEM ('')
   SURFACE ()
);
#198 = CARTESIAN_POINT('', (-3.625, 2.81263785071398E-15, -4.44089209850063E-16));
#199 = CARTESIAN_POINT('', (-3.625, 3.625, 4.15540617788273E-15));
#200 = CARTESIAN_POINT('', (3.17353770629673E-15, 3.625, 4.15540617788273E-15));
#201 = CARTESIAN_POINT('', (3.625, 3.625, 4.15540617788273E-15));
#202 = CARTESIAN_POINT('', (3.625, -2.14665878109803E-15, -4.44089209850062E-16));
#203 = CARTESIAN_POINT('', (3.625, -3.625, -5.04358459758285E-15));
#204 = CARTESIAN_POINT('', (-1.34182446082436E-15, -3.625, -5.04358459758285E-15));
#205 = CARTESIAN_POINT('', (-3.625, -3.625, -5.04358459758285E-15));
#206 = CARTESIAN_POINT('', (-3.625, 2.81263785071398E-15, -4.44089209850063E-16));
#207 = CARTESIAN_POINT('', (-3.545, 8.84807312383957E-17, 2.1));
#208 = CARTESIAN_POINT('', (-3.545, 3.545, 2.1));
#209 = CARTESIAN_POINT('', (3.11881443311811E-15, 3.545, 2.1));
#210 = CARTESIAN_POINT('', (3.545, 3.545, 2.1));
#211 = CARTESIAN_POINT('', (3.545, -4.76136935421638E-15, 2.1));
#212 = CARTESIAN_POINT('', (3.545, -3.54500000000001, 2.1));
#213 = CARTESIAN_POINT('', (-1.29689836203893E-15, -3.545, 2.1));
#214 = CARTESIAN_POINT('', (-3.545, -3.545, 2.1));
#215 = CARTESIAN_POINT('', (-3.545, 8.84807312383957E-17, 2.1));
#216 = ADVANCED_FACE('', (#217), #220, .T.);
#217 = FACE_OUTER_BOUND('', #218, .T.);
#218 = EDGE_LOOP('', (#219));
#219 = ORIENTED_EDGE('', *, *, #25, .T.);
#220 = B_SPLINE_SURFACE_WITH_KNOTS('', 1, 1, ((#221, #222), (#223, #224)), .UNSPECIFIED., .F., .F., .U., (2, 2), (2, 2), (29.0047386762683, 38.7047386762683), (27.0855462478767, 36.7855462478767), .UNSPECIFIED.);
#221 = CARTESIAN_POINT('', (-4.85, 4.85, -6.5));
#222 = CARTESIAN_POINT('', (-4.85, -4.85, -6.5));
#223 = CARTESIAN_POINT('', (4.85, 4.85, -6.5));
#224 = CARTESIAN_POINT('', (4.85, -4.85, -6.5));
#225 = DRAUGHTING_MODEL('', (#233, #347, #402, #407, #412, #417, #422, #427, #432), #446);
#226 = PRESENTATION_STYLE_ASSIGNMENT((#227));
#227 = SURFACE_STYLE_USAGE(.POSITIVE., #228);
#228 = SURFACE_SIDE_STYLE('', (#229));
#229 = SURFACE_STYLE_FILL_AREA(#230);
#230 = FILL_AREA_STYLE('', (#231));
#231 = FILL_AREA_STYLE_COLOUR('', #232);
#232 = COLOUR_RGB('', 0.50196078431373, 0.50196078431373, 0.50196078431373);
#233 = STYLED_ITEM('', (#226), #1);
#234 = MANIFOLD_SOLID_BREP('CUT', #235);
#235 = CLOSED_SHELL('', (#236, #253, #292, #331));
#236 = ADVANCED_FACE('', (#237), #248, .T.);
#237 = FACE_OUTER_BOUND('', #238, .T.);
#238 = EDGE_LOOP('', (#239));
#239 = ORIENTED_EDGE('', *, *, #240, .F.);
#240 = EDGE_CURVE('', #241, #241, #243, .T.);
#241 = VERTEX_POINT('', #242);
#242 = CARTESIAN_POINT('', (-5., 7.04171909509728E-16, -6.5));
#243 = CIRCLE('', #244, 5.);
#244 = AXIS2_PLACEMENT_3D('', #245, #246, #247);
#245 = CARTESIAN_POINT('', (-4.16333634234434E-17, 5.55111512312578E-16, -6.5));
#246 = DIRECTION('', (0., 0., -1.));
#247 = DIRECTION('', (-1., 2.98120794394299E-17, 0.));
#248 = B_SPLINE_SURFACE_WITH_KNOTS('', 1, 1, ((#249, #250), (#251, #252)), .UNSPECIFIED., .F., .F., .U., (2, 2), (2, 2), (2.77817459305202, 12.778174593052), (2.77817459305202, 12.778174593052), .UNSPECIFIED.);
#249 = CARTESIAN_POINT('', (5., -5., -6.5));
#250 = CARTESIAN_POINT('', (-5., -5., -6.5));
#251 = CARTESIAN_POINT('', (5., 5., -6.5));
#252 = CARTESIAN_POINT('', (-5., 5., -6.5));
#253 = ADVANCED_FACE('', (#254), #273, .T.);
#254 = FACE_OUTER_BOUND('', #255, .T.);
#255 = EDGE_LOOP('', (#256, #264, #265, #266));
#256 = ORIENTED_EDGE('', *, *, #257, .F.);
#257 = EDGE_CURVE('', #241, #258, #260, .T.);
#258 = VERTEX_POINT('', #259);
#259 = CARTESIAN_POINT('', (-5., 1.42977513800453E-15, -18.35));
#260 = LINE('', #261, #262);
#261 = CARTESIAN_POINT('', (-5., 7.04171909509728E-16, -6.5));
#262 = VECTOR('', #263, 11.85);
#263 = DIRECTION('', (0., 7.25603228494802E-16, -11.85));
#264 = ORIENTED_EDGE('', *, *, #240, .T.);
#265 = ORIENTED_EDGE('', *, *, #257, .T.);
#266 = ORIENTED_EDGE('', *, *, #267, .F.);
#267 = EDGE_CURVE('', #258, #258, #268, .T.);
#268 = CIRCLE('', #269, 5.);
#269 = AXIS2_PLACEMENT_3D('', #270, #271, #272);
#270 = CARTESIAN_POINT('', (-6.93889390390723E-17, 1.55431223447522E-15, -18.35));
#271 = DIRECTION('', (-6.02350809290579E-32, 2.41835897238999E-15, -1.));
#272 = DIRECTION('', (-1., -2.49074192941378E-17, 0.));
#273 = (
   BOUNDED_SURFACE ()
   B_SPLINE_SURFACE (2, 1, ((#274, #275), (#276, #277), (#278, #279), (#280, #281), (#282, #283), (#284, #285), (#286, #287), (#288, #289), (#290, #291)), .UNSPECIFIED., .T., .F., .U.)
   B_SPLINE_SURFACE_WITH_KNOTS ((3, 2, 2, 2, 3), (2, 2), (0., 7.85398163397447, 15.707963267949, 23.5619449019234, 31.4159265358979), (0., 1.), .UNSPECIFIED.)
   GEOMETRIC_REPRESENTATION_ITEM ()
   RATIONAL_B_SPLINE_SURFACE (((1., 1.), (0.707106781186548, 0.707106781186548), (1., 1.), (0.707106781186548, 0.707106781186548), (1., 1.), (0.707106781186548, 0.707106781186548), (1., 1.), (0.707106781186548, 0.707106781186548), (1., 1.)))
   REPRESENTATION_ITEM ('')
   SURFACE ()
);
#274 = CARTESIAN_POINT('', (-5., 7.04171909509727E-16, -6.5));
#275 = CARTESIAN_POINT('', (-5., 1.59235032920985E-15, -18.35));
#276 = CARTESIAN_POINT('', (-5., 5., -6.5));
#277 = CARTESIAN_POINT('', (-5., 5., -18.35));
#278 = CARTESIAN_POINT('', (2.95152316636075E-15, 5., -6.5));
#279 = CARTESIAN_POINT('', (2.95152316636075E-15, 5., -18.35));
#280 = CARTESIAN_POINT('', (5., 5., -6.5));
#281 = CARTESIAN_POINT('', (5., 5., -18.35));
#282 = CARTESIAN_POINT('', (5., -3.42251758381152E-15, -6.5));
#283 = CARTESIAN_POINT('', (5., -2.53433916411139E-15, -18.35));
#284 = CARTESIAN_POINT('', (5., -5., -6.5));
#285 = CARTESIAN_POINT('', (5., -5., -18.35));
#286 = CARTESIAN_POINT('', (-5.62842927386822E-16, -5., -6.5));
#287 = CARTESIAN_POINT('', (-5.62842927386822E-16, -5., -18.35));
#288 = CARTESIAN_POINT('', (-5., -5., -6.5));
#289 = CARTESIAN_POINT('', (-5., -5., -18.35));
#290 = CARTESIAN_POINT('', (-5., 7.04171909509727E-16, -6.5));
#291 = CARTESIAN_POINT('', (-5., 1.59235032920985E-15, -18.35));
#292 = ADVANCED_FACE('', (#293), #312, .T.);
#293 = FACE_OUTER_BOUND('', #294, .T.);
#294 = EDGE_LOOP('', (#295, #303, #304, #305));
#295 = ORIENTED_EDGE('', *, *, #296, .F.);
#296 = EDGE_CURVE('', #258, #297, #299, .T.);
#297 = VERTEX_POINT('', #298);
#298 = CARTESIAN_POINT('', (-4.85, 1.42977513800453E-15, -18.5));
#299 = LINE('', #300, #301);
#300 = CARTESIAN_POINT('', (-5., 1.42977513800453E-15, -18.35));
#301 = VECTOR('', #302, 0.212132034355964);
#302 = DIRECTION('', (0.15, 0., -0.149999999999999));
#303 = ORIENTED_EDGE('', *, *, #267, .T.);
#304 = ORIENTED_EDGE('', *, *, #296, .T.);
#305 = ORIENTED_EDGE('', *, *, #306, .F.);
#306 = EDGE_CURVE('', #297, #297, #307, .T.);
#307 = CIRCLE('', #308, 4.85);
#308 = AXIS2_PLACEMENT_3D('', #309, #310, #311);
#309 = CARTESIAN_POINT('', (-2.3037127760972E-15, -1.55431223447522E-15, -18.5));
#310 = DIRECTION('', (0., 0., -1.));
#311 = DIRECTION('', (-1., 6.15275746903041E-16, 0.));
#312 = (
   BOUNDED_SURFACE ()
   B_SPLINE_SURFACE (2, 1, ((#313, #314), (#315, #316), (#317, #318), (#319, #320), (#321, #322), (#323, #324), (#325, #326), (#327, #328), (#329, #330)), .UNSPECIFIED., .T., .F., .U.)
   B_SPLINE_SURFACE_WITH_KNOTS ((3, 2, 2, 2, 3), (2, 2), (0., 0.25, 0.5, 0.75, 1.), (0., 1.), .UNSPECIFIED.)
   GEOMETRIC_REPRESENTATION_ITEM ()
   RATIONAL_B_SPLINE_SURFACE (((1., 1.), (0.707106781186548, 0.707106781186548), (1., 1.), (0.707106781186548, 0.707106781186548), (1., 1.), (0.707106781186548, 0.707106781186548), (1., 1.), (0.707106781186548, 0.707106781186548), (1., 1.)))
   REPRESENTATION_ITEM ('')
   SURFACE ()
);
#313 = CARTESIAN_POINT('', (-5., 1.42977513800453E-15, -18.35));
#314 = CARTESIAN_POINT('', (-4.85, -2.00711994167511E-18, -18.5));
#315 = CARTESIAN_POINT('', (-5., 5., -18.35));
#316 = CARTESIAN_POINT('', (-4.85, 4.85, -18.5));
#317 = CARTESIAN_POINT('', (2.42812549215225E-15, 5., -18.35));
#318 = CARTESIAN_POINT('', (2.33779571474984E-15, 4.85, -18.5));
#319 = CARTESIAN_POINT('', (5., 5., -18.35));
#320 = CARTESIAN_POINT('', (4.85, 4.84999999999999, -18.5));
#321 = CARTESIAN_POINT('', (5., -4.59221002215639E-15, -18.35));
#322 = CARTESIAN_POINT('', (4.85, -5.84333272529777E-15, -18.5));
#323 = CARTESIAN_POINT('', (5., -5., -18.35));
#324 = CARTESIAN_POINT('', (4.85, -4.85000000000001, -18.5));
#325 = CARTESIAN_POINT('', (-2.98153626843499E-15, -5., -18.35));
#326 = CARTESIAN_POINT('', (-2.90957619301979E-15, -4.85, -18.5));
#327 = CARTESIAN_POINT('', (-5., -5., -18.35));
#328 = CARTESIAN_POINT('', (-4.85, -4.85, -18.5));
#329 = CARTESIAN_POINT('', (-5., 1.42977513800453E-15, -18.35));
#330 = CARTESIAN_POINT('', (-4.85, -2.00711994167511E-18, -18.5));
#331 = ADVANCED_FACE('', (#332), #335, .T.);
#332 = FACE_OUTER_BOUND('', #333, .T.);
#333 = EDGE_LOOP('', (#334));
#334 = ORIENTED_EDGE('', *, *, #306, .T.);
#335 = B_SPLINE_SURFACE_WITH_KNOTS('', 1, 1, ((#336, #337), (#338, #339)), .UNSPECIFIED., .F., .F., .U., (2, 2), (2, 2), (2.69482935526046, 12.3948293552605), (2.69482935526046, 12.3948293552605), .UNSPECIFIED.);
#336 = CARTESIAN_POINT('', (4.85, -4.85, -18.5));
#337 = CARTESIAN_POINT('', (4.85, 4.85, -18.5));
#338 = CARTESIAN_POINT('', (-4.85, -4.85, -18.5));
#339 = CARTESIAN_POINT('', (-4.85, 4.85, -18.5));
#340 = PRESENTATION_STYLE_ASSIGNMENT((#341));
#341 = SURFACE_STYLE_USAGE(.POSITIVE., #342);
#342 = SURFACE_SIDE_STYLE('', (#343));
#343 = SURFACE_STYLE_FILL_AREA(#344);
#344 = FILL_AREA_STYLE('', (#345));
#345 = FILL_AREA_STYLE_COLOUR('', #346);
#346 = COLOUR_RGB('', 0.8, 0.8, 0.8);
#347 = STYLED_ITEM('', (#340), #234);
#348 = TRIMMED_CURVE('cutting part line', #349, (#353), (#354), .T., .CARTESIAN.);
#349 = LINE('', #350, #351);
#350 = CARTESIAN_POINT('', (-7.31132894047656E-32, -3.9801020972289E-16, -6.5));
#351 = VECTOR('', #352, 4.85);
#352 = DIRECTION('', (4.85, -8.90930546379699E-16, 0.));
#353 = CARTESIAN_POINT('', (-7.31132894047656E-32, -3.9801020972289E-16, -6.5));
#354 = CARTESIAN_POINT('', (4.85, -1.28894075610259E-15, -6.5));
#355 = TRIMMED_CURVE('cutting part line', #356, (#360), (#361), .T., .CARTESIAN.);
#356 = LINE('', #357, #358);
#357 = CARTESIAN_POINT('', (4.85, -1.28894075610259E-15, -6.5));
#358 = VECTOR('', #359, 0.15);
#359 = DIRECTION('', (0.15, -2.75545529808154E-17, 0.));
#360 = CARTESIAN_POINT('', (4.85, -1.28894075610259E-15, -6.5));
#361 = CARTESIAN_POINT('', (5., -1.3164953090834E-15, -6.5));
#362 = TRIMMED_CURVE('cutting part line', #363, (#367), (#368), .T., .CARTESIAN.);
#363 = LINE('', #364, #365);
#364 = CARTESIAN_POINT('', (5., -1.3164953090834E-15, -6.5));
#365 = VECTOR('', #366, 11.85);
#366 = DIRECTION('', (0., -7.25603228494802E-16, -11.85));
#367 = CARTESIAN_POINT('', (5., -1.3164953090834E-15, -6.5));
#368 = CARTESIAN_POINT('', (5., -2.04209853757821E-15, -18.35));
#369 = TRIMMED_CURVE('cutting part line', #370, (#374), (#375), .T., .CARTESIAN.);
#370 = LINE('', #371, #372);
#371 = CARTESIAN_POINT('', (5., -2.04209853757821E-15, -18.35));
#372 = VECTOR('', #373, 0.212132034355964);
#373 = DIRECTION('', (-0.15, 1.83697019872104E-17, -0.149999999999999));
#374 = CARTESIAN_POINT('', (5., -2.04209853757821E-15, -18.35));
#375 = CARTESIAN_POINT('', (4.85, -2.023728835591E-15, -18.5));
#376 = TRIMMED_CURVE('cutting part line', #377, (#381), (#382), .T., .CARTESIAN.);
#377 = LINE('', #378, #379);
#378 = CARTESIAN_POINT('', (4.85, -2.023728835591E-15, -18.5));
#379 = VECTOR('', #380, 4.85);
#380 = DIRECTION('', (-4.85, 8.90930546379696E-16, 0.));
#381 = CARTESIAN_POINT('', (4.85, -2.023728835591E-15, -18.5));
#382 = CARTESIAN_POINT('', (-1.38727779896222E-31, -1.1327982892113E-15, -18.5));
#383 = TRIMMED_CURVE('cutting part line', #384, (#388), (#389), .T., .CARTESIAN.);
#384 = LINE('', #385, #386);
#385 = CARTESIAN_POINT('', (-2.08091669844333E-31, -1.1327982892113E-15, -18.5));
#386 = VECTOR('', #387, 12.);
#387 = DIRECTION('', (1.34978380439567E-31, 7.3478807948841E-16, 12.));
#388 = CARTESIAN_POINT('', (-2.08091669844333E-31, -1.1327982892113E-15, -18.5));
#389 = CARTESIAN_POINT('', (-7.31132894047656E-32, -3.9801020972289E-16, -6.5));
#390 = COMPOSITE_CURVE('cutting part line', (#391, #392, #393, #394, #395, #396), .U.);
#391 = COMPOSITE_CURVE_SEGMENT(.CONTINUOUS., .T., #348);
#392 = COMPOSITE_CURVE_SEGMENT(.CONTINUOUS., .T., #355);
#393 = COMPOSITE_CURVE_SEGMENT(.CONTINUOUS., .T., #362);
#394 = COMPOSITE_CURVE_SEGMENT(.CONTINUOUS., .T., #369);
#395 = COMPOSITE_CURVE_SEGMENT(.CONTINUOUS., .T., #376);
#396 = COMPOSITE_CURVE_SEGMENT(.CONTINUOUS., .T., #383);
#397 = GEOMETRIC_SET('', (#390, #445));
#398 = PRESENTATION_STYLE_ASSIGNMENT((#399));
#399 = CURVE_STYLE('', #401, POSITIVE_LENGTH_MEASURE(1.E-6), #400);
#400 = COLOUR_RGB('', 0., 0., 1.);
#401 = DRAUGHTING_PRE_DEFINED_CURVE_FONT('continuous');
#402 = STYLED_ITEM('', (#398), #390);
#403 = PRESENTATION_STYLE_ASSIGNMENT((#404));
#404 = CURVE_STYLE('', #406, POSITIVE_LENGTH_MEASURE(1.E-6), #405);
#405 = COLOUR_RGB('', 0., 0., 1.);
#406 = DRAUGHTING_PRE_DEFINED_CURVE_FONT('continuous');
#407 = OVER_RIDING_STYLED_ITEM('', (#403), #348, #402);
#408 = PRESENTATION_STYLE_ASSIGNMENT((#409));
#409 = CURVE_STYLE('', #411, POSITIVE_LENGTH_MEASURE(1.E-6), #410);
#410 = COLOUR_RGB('', 0., 0., 1.);
#411 = DRAUGHTING_PRE_DEFINED_CURVE_FONT('continuous');
#412 = OVER_RIDING_STYLED_ITEM('', (#408), #355, #402);
#413 = PRESENTATION_STYLE_ASSIGNMENT((#414));
#414 = CURVE_STYLE('', #416, POSITIVE_LENGTH_MEASURE(1.E-6), #415);
#415 = COLOUR_RGB('', 0., 0., 1.);
#416 = DRAUGHTING_PRE_DEFINED_CURVE_FONT('continuous');
#417 = OVER_RIDING_STYLED_ITEM('', (#413), #362, #402);
#418 = PRESENTATION_STYLE_ASSIGNMENT((#419));
#419 = CURVE_STYLE('', #421, POSITIVE_LENGTH_MEASURE(1.E-6), #420);
#420 = COLOUR_RGB('', 0., 0., 1.);
#421 = DRAUGHTING_PRE_DEFINED_CURVE_FONT('continuous');
#422 = OVER_RIDING_STYLED_ITEM('', (#418), #369, #402);
#423 = PRESENTATION_STYLE_ASSIGNMENT((#424));
#424 = CURVE_STYLE('', #426, POSITIVE_LENGTH_MEASURE(1.E-6), #425);
#425 = COLOUR_RGB('', 0., 0., 1.);
#426 = DRAUGHTING_PRE_DEFINED_CURVE_FONT('continuous');
#427 = OVER_RIDING_STYLED_ITEM('', (#423), #376, #402);
#428 = PRESENTATION_STYLE_ASSIGNMENT((#429));
#429 = CURVE_STYLE('', #431, POSITIVE_LENGTH_MEASURE(1.E-6), #430);
#430 = COLOUR_RGB('', 0., 0., 1.);
#431 = DRAUGHTING_PRE_DEFINED_CURVE_FONT('continuous');
#432 = OVER_RIDING_STYLED_ITEM('', (#428), #383, #402);
#433 = AXIS2_PLACEMENT_3D('CIP', #434, #435, #436);
#434 = CARTESIAN_POINT('', (6.93638899481109E-32, 1.1327982892113E-15, -18.5));
#435 = DIRECTION('', (-3.74939945665465E-33, -6.12323399573677E-17, 1.));
#436 = DIRECTION('', (1., -6.12323399573677E-17, 0.));
#437 = AXIS2_PLACEMENT_3D('MCS', #438, #439, #440);
#438 = CARTESIAN_POINT('', (0., 0., 0.));
#439 = DIRECTION('', (0., 0., 1.));
#440 = DIRECTION('', (1., 0., 0.));
#441 = AXIS2_PLACEMENT_3D('PCS', #442, #443, #444);
#442 = CARTESIAN_POINT('', (0., 0., 0.));
#443 = DIRECTION('', (0., 0., 1.));
#444 = DIRECTION('', (1., 0., 0.));
#445 = CARTESIAN_POINT('CRP', (5., 0., -18.5));
#446 = (
   GEOMETRIC_REPRESENTATION_CONTEXT (3)
   GLOBAL_UNCERTAINTY_ASSIGNED_CONTEXT ((#448))
   GLOBAL_UNIT_ASSIGNED_CONTEXT ((#447, #449, #450))
   REPRESENTATION_CONTEXT ('', '3D')
);
#447 = (
   LENGTH_UNIT ()
   NAMED_UNIT (*)
   SI_UNIT (.MILLI., .METRE.)
);
#448 = UNCERTAINTY_MEASURE_WITH_UNIT(LENGTH_MEASURE(1.E-6), #447, 'DISTANCE_ACCURACY_VALUE', '');
#449 = (
   NAMED_UNIT (*)
   SI_UNIT ($, .STERADIAN.)
   SOLID_ANGLE_UNIT ()
);
#450 = (
   NAMED_UNIT (*)
   PLANE_ANGLE_UNIT ()
   SI_UNIT ($, .RADIAN.)
);
#451 = SHAPE_REPRESENTATION('', (), #446);
#452 = PRODUCT_DEFINITION_SHAPE('', '', #453);
#453 = PRODUCT_DEFINITION('', '', #456, #460);
#454 = APPLICATION_CONTEXT('configuration controlled 3D designs of mechanical parts and assemblies');
#455 = APPLICATION_PROTOCOL_DEFINITION('International Standard', 'automotive_design', 2002, #454);
#456 = PRODUCT_DEFINITION_FORMATION_WITH_SPECIFIED_SOURCE('', '', #457, .NOT_KNOWN.);
#457 = PRODUCT('EmptyName', 'EmptyName', '', (#458));
#458 = PRODUCT_CONTEXT('', #454, 'mechanical');
#459 = PRODUCT_RELATED_PRODUCT_CATEGORY('detail', '', (#457));
#460 = PRODUCT_DEFINITION_CONTEXT('part definition', #454, 'design');
#461 = SHAPE_DEFINITION_REPRESENTATION(#452, #451);
#462 = CONSTRUCTIVE_GEOMETRY_REPRESENTATION('supplemental geometry', (#433, #437, #441), #446);
#463 = CONSTRUCTIVE_GEOMETRY_REPRESENTATION_RELATIONSHIP('', '', #451, #462);
#464 = SHAPE_REPRESENTATION_RELATIONSHIP('', '', #451, #465);
#465 = SHAPE_REPRESENTATION('', (#397), #446);
#466 = SHAPE_REPRESENTATION_RELATIONSHIP('', '', #451, #467);
#467 = ADVANCED_BREP_SHAPE_REPRESENTATION('', (#1, #234), #446);
ENDSEC;
END-ISO-10303-21;
