ISO-10303-21;
HEADER;
FILE_DESCRIPTION(('STEP'), '1');
FILE_NAME('C:\\Users\\ds2002\\OneDrive - Sandvik\\HomeShare\\Documents\\Batchrepair\\CorSRT2\\NEW_MILSQ_SLD\\Output\\MOD000000000000000020082337900000.stp', '2019-01-02T12:06:52', (''), (''), 'Express v3.0.0.0', 'Express Tool', 'Unknown');
FILE_SCHEMA(('AUTOMOTIVE_DESIGN'));
ENDSEC;

DATA;
#1 = MANIFOLD_SOLID_BREP('NOCUT', #2);
#2 = CLOSED_SHELL('', (#3, #50, #59, #98));
#3 = ADVANCED_FACE('', (#4), #31, .T.);
#4 = FACE_OUTER_BOUND('', #5, .T.);
#5 = EDGE_LOOP('', (#6, #16, #23, #24));
#6 = ORIENTED_EDGE('', *, *, #7, .T.);
#7 = EDGE_CURVE('', #8, #10, #12, .T.);
#8 = VERTEX_POINT('', #9);
#9 = CARTESIAN_POINT('', (-8., 5.38844591624835E-16, -0.799999999999997));
#10 = VERTEX_POINT('', #11);
#11 = CARTESIAN_POINT('', (-7.2, 4.40872847693047E-16, 0.));
#12 = LINE('', #13, #14);
#13 = CARTESIAN_POINT('', (-8., 5.38844591624835E-16, -0.799999999999997));
#14 = VECTOR('', #15, 1.13137084989847);
#15 = DIRECTION('', (0.8, -9.7971743931788E-17, 0.799999999999997));
#16 = ORIENTED_EDGE('', *, *, #17, .T.);
#17 = EDGE_CURVE('', #10, #10, #18, .T.);
#18 = CIRCLE('', #19, 7.2);
#19 = AXIS2_PLACEMENT_3D('', #20, #21, #22);
#20 = CARTESIAN_POINT('', (-1.4432899320127E-15, -4.44089209850063E-15, -2.83496887813801E-31));
#21 = DIRECTION('', (2.14236152270701E-33, 6.12323399573676E-17, -1.));
#22 = DIRECTION('', (-1., 6.78022909193566E-16, 3.93745677519168E-32));
#23 = ORIENTED_EDGE('', *, *, #7, .F.);
#24 = ORIENTED_EDGE('', *, *, #25, .F.);
#25 = EDGE_CURVE('', #8, #8, #26, .T.);
#26 = CIRCLE('', #27, 8.);
#27 = AXIS2_PLACEMENT_3D('', #28, #29, #30);
#28 = CARTESIAN_POINT('', (-6.66133814775094E-16, -3.5527136788005E-15, -0.799999999999997));
#29 = DIRECTION('', (-1.38777878078144E-17, 1.39615984421496E-16, -1.));
#30 = DIRECTION('', (-1., 5.11444783803167E-16, 1.38777878078145E-17));
#31 = (
   BOUNDED_SURFACE ()
   B_SPLINE_SURFACE (1, 2, ((#32, #33, #34, #35, #36, #37, #38, #39, #40), (#41, #42, #43, #44, #45, #46, #47, #48, #49)), .UNSPECIFIED., .F., .T., .U.)
   B_SPLINE_SURFACE_WITH_KNOTS ((2, 2), (3, 2, 2, 2, 3), (0., 1.), (0., 0.25, 0.5, 0.75, 1.), .UNSPECIFIED.)
   GEOMETRIC_REPRESENTATION_ITEM ()
   RATIONAL_B_SPLINE_SURFACE (((1., 0.707106781186548, 1., 0.707106781186548, 1., 0.707106781186548, 1., 0.707106781186548, 1.), (1., 0.707106781186548, 1., 0.707106781186548, 1., 0.707106781186548, 1., 0.707106781186548, 1.)))
   REPRESENTATION_ITEM ('')
   SURFACE ()
);
#32 = CARTESIAN_POINT('', (-8., -4.09906311545837E-15, -0.799999999999997));
#33 = CARTESIAN_POINT('', (-8., 7.99999999999999, -0.800000000000044));
#34 = CARTESIAN_POINT('', (6.56881956236551E-16, 7.99999999999999, -0.800000000000044));
#35 = CARTESIAN_POINT('', (8., 7.99999999999999, -0.800000000000044));
#36 = CARTESIAN_POINT('', (8., -5.57936048162525E-15, -0.799999999999997));
#37 = CARTESIAN_POINT('', (8., -8.00000000000001, -0.799999999999951));
#38 = CARTESIAN_POINT('', (1.56302029387557E-16, -8.00000000000001, -0.799999999999951));
#39 = CARTESIAN_POINT('', (-8., -8.00000000000001, -0.799999999999951));
#40 = CARTESIAN_POINT('', (-8., -4.09906311545837E-15, -0.799999999999997));
#41 = CARTESIAN_POINT('', (-7.2, 4.40872847693047E-16, 0.));
#42 = CARTESIAN_POINT('', (-7.2, 7.2, -4.19664303308311E-14));
#43 = CARTESIAN_POINT('', (5.82867087928207E-16, 7.2, -4.19664303308311E-14));
#44 = CARTESIAN_POINT('', (7.2, 7.2, -4.19664303308311E-14));
#45 = CARTESIAN_POINT('', (7.2, -8.9139478185714E-16, -5.23801307078189E-30));
#46 = CARTESIAN_POINT('', (7.2, -7.2, 4.19664303308311E-14));
#47 = CARTESIAN_POINT('', (1.32345153764114E-16, -7.2, 4.19664303308311E-14));
#48 = CARTESIAN_POINT('', (-7.2, -7.2, 4.19664303308311E-14));
#49 = CARTESIAN_POINT('', (-7.2, 4.40872847693047E-16, 0.));
#50 = ADVANCED_FACE('', (#51), #54, .T.);
#51 = FACE_OUTER_BOUND('', #52, .T.);
#52 = EDGE_LOOP('', (#53));
#53 = ORIENTED_EDGE('', *, *, #17, .F.);
#54 = B_SPLINE_SURFACE_WITH_KNOTS('', 1, 1, ((#55, #56), (#57, #58)), .UNSPECIFIED., .F., .F., .U., (2, 2), (2, 2), (4.0005714139949, 18.4005714139949), (4.0005714139949, 18.4005714139949), .UNSPECIFIED.);
#55 = CARTESIAN_POINT('', (7.2, -7.2, 1.3769981867509E-14));
#56 = CARTESIAN_POINT('', (-7.2, -7.2, -1.4651727562895E-14));
#57 = CARTESIAN_POINT('', (7.2, 7.2, 1.4651727562895E-14));
#58 = CARTESIAN_POINT('', (-7.2, 7.2, -1.37699818675089E-14));
#59 = ADVANCED_FACE('', (#60), #79, .T.);
#60 = FACE_OUTER_BOUND('', #61, .T.);
#61 = EDGE_LOOP('', (#62, #71, #77, #78));
#62 = ORIENTED_EDGE('', *, *, #63, .F.);
#63 = EDGE_CURVE('', #64, #64, #66, .T.);
#64 = VERTEX_POINT('', #65);
#65 = CARTESIAN_POINT('', (-8., 4.04133443718627E-15, -58.));
#66 = CIRCLE('', #67, 8.);
#67 = AXIS2_PLACEMENT_3D('', #68, #69, #70);
#68 = CARTESIAN_POINT('', (-8.04911692853238E-16, 8.88178419700125E-15, -58.));
#69 = DIRECTION('', (-2.56946281665858E-30, 3.02294871548761E-15, -1.));
#70 = DIRECTION('', (-1., -8.49985579806344E-16, 0.));
#71 = ORIENTED_EDGE('', *, *, #72, .T.);
#72 = EDGE_CURVE('', #64, #8, #73, .T.);
#73 = LINE('', #74, #75);
#74 = CARTESIAN_POINT('', (-8., 4.04133443718627E-15, -58.));
#75 = VECTOR('', #76, 57.2);
#76 = DIRECTION('', (0., -3.50248984556143E-15, 57.2));
#77 = ORIENTED_EDGE('', *, *, #25, .T.);
#78 = ORIENTED_EDGE('', *, *, #72, .F.);
#79 = (
   BOUNDED_SURFACE ()
   B_SPLINE_SURFACE (1, 2, ((#80, #81, #82, #83, #84, #85, #86, #87, #88), (#89, #90, #91, #92, #93, #94, #95, #96, #97)), .UNSPECIFIED., .F., .T., .U.)
   B_SPLINE_SURFACE_WITH_KNOTS ((2, 2), (3, 2, 2, 2, 3), (-2.22044604925031E-16, 1.), (0., 0.25, 0.5, 0.75, 1.), .UNSPECIFIED.)
   GEOMETRIC_REPRESENTATION_ITEM ()
   RATIONAL_B_SPLINE_SURFACE (((1., 0.707106781186548, 1., 0.707106781186548, 1., 0.707106781186548, 1., 0.707106781186548, 1.), (1., 0.707106781186548, 1., 0.707106781186548, 1., 0.707106781186548, 1., 0.707106781186548, 1.)))
   REPRESENTATION_ITEM ('')
   SURFACE ()
);
#80 = CARTESIAN_POINT('', (-8., 4.97973669012546E-15, -58.));
#81 = CARTESIAN_POINT('', (-7.99999999999999, 8., -58.));
#82 = CARTESIAN_POINT('', (4.02913541524708E-15, 8., -58.));
#83 = CARTESIAN_POINT('', (8., 8., -58.));
#84 = CARTESIAN_POINT('', (8., -2.22366241140733E-15, -58.));
#85 = CARTESIAN_POINT('', (8., -8., -58.));
#86 = CARTESIAN_POINT('', (-2.19454624696782E-15, -8., -58.));
#87 = CARTESIAN_POINT('', (-8., -8., -58.));
#88 = CARTESIAN_POINT('', (-8., 4.97973669012546E-15, -58.));
#89 = CARTESIAN_POINT('', (-8., 5.38844591624835E-16, -0.799999999999997));
#90 = CARTESIAN_POINT('', (-8., 8., -0.799999999999996));
#91 = CARTESIAN_POINT('', (4.82294487785407E-15, 8., -0.799999999999996));
#92 = CARTESIAN_POINT('', (8.00000000000001, 7.99999999999999, -0.799999999999997));
#93 = CARTESIAN_POINT('', (8., -6.66455450990795E-15, -0.799999999999997));
#94 = CARTESIAN_POINT('', (8., -8.00000000000001, -0.799999999999998));
#95 = CARTESIAN_POINT('', (-1.40073678436084E-15, -8.00000000000001, -0.799999999999998));
#96 = CARTESIAN_POINT('', (-8., -8., -0.799999999999998));
#97 = CARTESIAN_POINT('', (-8., 5.38844591624835E-16, -0.799999999999997));
#98 = ADVANCED_FACE('', (#99), #102, .T.);
#99 = FACE_OUTER_BOUND('', #100, .T.);
#100 = EDGE_LOOP('', (#101));
#101 = ORIENTED_EDGE('', *, *, #63, .T.);
#102 = B_SPLINE_SURFACE_WITH_KNOTS('', 1, 1, ((#103, #104), (#105, #106)), .UNSPECIFIED., .F., .F., .U., (2, 2), (2, 2), (88.8287164466413, 104.828716446641), (84.6548025411593, 100.654802541159), .UNSPECIFIED.);
#103 = CARTESIAN_POINT('', (-8., 8.00000000000001, -58.));
#104 = CARTESIAN_POINT('', (-8., -8., -58.));
#105 = CARTESIAN_POINT('', (8.00000000000001, 8.00000000000001, -58.));
#106 = CARTESIAN_POINT('', (8., -8., -58.));
#107 = DRAUGHTING_MODEL('', (#115, #239, #287, #292, #297, #302, #307, #312), #326);
#108 = PRESENTATION_STYLE_ASSIGNMENT((#109));
#109 = SURFACE_STYLE_USAGE(.POSITIVE., #110);
#110 = SURFACE_SIDE_STYLE('', (#111));
#111 = SURFACE_STYLE_FILL_AREA(#112);
#112 = FILL_AREA_STYLE('', (#113));
#113 = FILL_AREA_STYLE_COLOUR('', #114);
#114 = COLOUR_RGB('', 0.50196078431373, 0.50196078431373, 0.50196078431373);
#115 = STYLED_ITEM('', (#108), #1);
#116 = MANIFOLD_SOLID_BREP('CUT', #117);
#117 = CLOSED_SHELL('', (#118, #135, #174, #223));
#118 = ADVANCED_FACE('', (#119), #130, .T.);
#119 = FACE_OUTER_BOUND('', #120, .T.);
#120 = EDGE_LOOP('', (#121));
#121 = ORIENTED_EDGE('', *, *, #122, .F.);
#122 = EDGE_CURVE('', #123, #123, #125, .T.);
#123 = VERTEX_POINT('', #124);
#124 = CARTESIAN_POINT('', (-8., 4.04133443718627E-15, -58.));
#125 = CIRCLE('', #126, 8.);
#126 = AXIS2_PLACEMENT_3D('', #127, #128, #129);
#127 = CARTESIAN_POINT('', (-8.04911692853238E-16, 8.88178419700125E-15, -58.));
#128 = DIRECTION('', (-2.56946281665858E-30, 3.02294871548761E-15, -1.));
#129 = DIRECTION('', (-1., -8.49985579806344E-16, 0.));
#130 = B_SPLINE_SURFACE_WITH_KNOTS('', 1, 1, ((#131, #132), (#133, #134)), .UNSPECIFIED., .F., .F., .U., (2, 2), (2, 2), (84.6548025411593, 100.654802541159), (88.8287164466413, 104.828716446641), .UNSPECIFIED.);
#131 = CARTESIAN_POINT('', (-8., 8.00000000000001, -58.));
#132 = CARTESIAN_POINT('', (8., 8.00000000000001, -58.));
#133 = CARTESIAN_POINT('', (-8., -8., -58.));
#134 = CARTESIAN_POINT('', (8., -8., -58.));
#135 = ADVANCED_FACE('', (#136), #155, .T.);
#136 = FACE_OUTER_BOUND('', #137, .T.);
#137 = EDGE_LOOP('', (#138, #139, #147, #154));
#138 = ORIENTED_EDGE('', *, *, #122, .T.);
#139 = ORIENTED_EDGE('', *, *, #140, .F.);
#140 = EDGE_CURVE('', #141, #123, #143, .T.);
#141 = VERTEX_POINT('', #142);
#142 = CARTESIAN_POINT('', (-8., 6.00076931582203E-15, -90.));
#143 = LINE('', #144, #145);
#144 = CARTESIAN_POINT('', (-8., 6.00076931582203E-15, -90.));
#145 = VECTOR('', #146, 32.);
#146 = DIRECTION('', (0., -1.95943487863576E-15, 32.));
#147 = ORIENTED_EDGE('', *, *, #148, .F.);
#148 = EDGE_CURVE('', #141, #141, #149, .T.);
#149 = CIRCLE('', #150, 8.);
#150 = AXIS2_PLACEMENT_3D('', #151, #152, #153);
#151 = CARTESIAN_POINT('', (-9.15933995315754E-16, 4.88498130835069E-15, -90.));
#152 = DIRECTION('', (0., 0., -1.));
#153 = DIRECTION('', (-1., 1.39473500933918E-16, 0.));
#154 = ORIENTED_EDGE('', *, *, #140, .T.);
#155 = (
   BOUNDED_SURFACE ()
   B_SPLINE_SURFACE (1, 2, ((#156, #157, #158, #159, #160, #161, #162, #163, #164), (#165, #166, #167, #168, #169, #170, #171, #172, #173)), .UNSPECIFIED., .F., .T., .U.)
   B_SPLINE_SURFACE_WITH_KNOTS ((2, 2), (3, 2, 2, 2, 3), (-0.559440559440559, -1.11022302462516E-16), (0., 0.25, 0.5, 0.75, 1.), .UNSPECIFIED.)
   GEOMETRIC_REPRESENTATION_ITEM ()
   RATIONAL_B_SPLINE_SURFACE (((1., 0.707106781186548, 1., 0.707106781186548, 1., 0.707106781186548, 1., 0.707106781186548, 1.), (1., 0.707106781186548, 1., 0.707106781186548, 1., 0.707106781186548, 1., 0.707106781186548, 1.)))
   REPRESENTATION_ITEM ('')
   SURFACE ()
);
#156 = CARTESIAN_POINT('', (-8., 1.04806279800122E-14, -90.));
#157 = CARTESIAN_POINT('', (-7.99999999999999, 8.00000000000001, -90.));
#158 = CARTESIAN_POINT('', (3.99556492737739E-15, 8.00000000000001, -90.));
#159 = CARTESIAN_POINT('', (8., 8., -90.));
#160 = CARTESIAN_POINT('', (8., 5.15403338435777E-15, -90.));
#161 = CARTESIAN_POINT('', (8., -7.99999999999999, -90.));
#162 = CARTESIAN_POINT('', (-3.5131222895913E-16, -7.99999999999999, -90.));
#163 = CARTESIAN_POINT('', (-8., -7.99999999999999, -90.));
#164 = CARTESIAN_POINT('', (-8., 1.04806279800122E-14, -90.));
#165 = CARTESIAN_POINT('', (-8., 4.04133443718627E-15, -58.));
#166 = CARTESIAN_POINT('', (-7.99999999999999, 8., -58.));
#167 = CARTESIAN_POINT('', (3.99556492737739E-15, 8., -58.));
#168 = CARTESIAN_POINT('', (8., 8., -58.));
#169 = CARTESIAN_POINT('', (8., -1.28526015846814E-15, -58.));
#170 = CARTESIAN_POINT('', (8., -8., -58.));
#171 = CARTESIAN_POINT('', (-3.51312228959133E-16, -8., -58.));
#172 = CARTESIAN_POINT('', (-8., -8., -58.));
#173 = CARTESIAN_POINT('', (-8., 4.04133443718627E-15, -58.));
#174 = ADVANCED_FACE('', (#175), #195, .T.);
#175 = FACE_OUTER_BOUND('', #176, .T.);
#176 = EDGE_LOOP('', (#177, #186, #187, #188));
#177 = ORIENTED_EDGE('', *, *, #178, .F.);
#178 = EDGE_CURVE('', #141, #179, #181, .T.);
#179 = VERTEX_POINT('', #180);
#180 = CARTESIAN_POINT('', (-6., 6.00076931582203E-15, -92.));
#181 = CIRCLE('', #182, 2.00000000000005);
#182 = AXIS2_PLACEMENT_3D('', #183, #184, #185);
#183 = CARTESIAN_POINT('', (-5.99999999999996, 5.87830463590728E-15, -90.));
#184 = DIRECTION('', (-6.12323399573709E-17, -1., -6.12323399573711E-17));
#185 = DIRECTION('', (-1., 6.12323399573722E-17, -2.13162820728026E-14));
#186 = ORIENTED_EDGE('', *, *, #148, .T.);
#187 = ORIENTED_EDGE('', *, *, #178, .T.);
#188 = ORIENTED_EDGE('', *, *, #189, .F.);
#189 = EDGE_CURVE('', #179, #179, #190, .T.);
#190 = CIRCLE('', #191, 6.);
#191 = AXIS2_PLACEMENT_3D('', #192, #193, #194);
#192 = CARTESIAN_POINT('', (4.71844785465692E-16, -8.88178419700125E-16, -92.));
#193 = DIRECTION('', (0., 0., -1.));
#194 = DIRECTION('', (-1., 1.14815795592036E-15, 0.));
#195 = (
   BOUNDED_SURFACE ()
   B_SPLINE_SURFACE (2, 2, ((#196, #197, #198), (#199, #200, #201), (#202, #203, #204), (#205, #206, #207), (#208, #209, #210), (#211, #212, #213), (#214, #215, #216), (#217, #218, #219), (#220, #221, #222)), .UNSPECIFIED., .T., .F., .U.)
   B_SPLINE_SURFACE_WITH_KNOTS ((3, 2, 2, 2, 3), (3, 3), (0., 0.25, 0.5, 0.75, 1.), (0., 1.), .UNSPECIFIED.)
   GEOMETRIC_REPRESENTATION_ITEM ()
   RATIONAL_B_SPLINE_SURFACE (((1., 0.707106781186548, 1.), (0.707106781186548, 0.5, 0.707106781186548), (1., 0.707106781186548, 1.), (0.707106781186548, 0.5, 0.707106781186548), (1., 0.707106781186548, 1.), (0.707106781186548, 0.5, 0.707106781186548), (1., 0.707106781186548, 1.), (0.707106781186548, 0.5, 0.707106781186548), (1., 0.707106781186548, 1.)))
   REPRESENTATION_ITEM ('')
   SURFACE ()
);
#196 = CARTESIAN_POINT('', (-8., 6.00076931582203E-15, -90.));
#197 = CARTESIAN_POINT('', (-8., 6.12323399573677E-15, -92.));
#198 = CARTESIAN_POINT('', (-6., 6.00076931582203E-15, -92.));
#199 = CARTESIAN_POINT('', (-8., 8., -90.));
#200 = CARTESIAN_POINT('', (-8., 8., -92.));
#201 = CARTESIAN_POINT('', (-6., 6.00000000000001, -92.));
#202 = CARTESIAN_POINT('', (-1.23471253809581E-16, 8.00000000000001, -90.));
#203 = CARTESIAN_POINT('', (-1.0065738948407E-18, 8.00000000000001, -92.));
#204 = CARTESIAN_POINT('', (-1.00657389484523E-18, 6.00000000000001, -92.));
#205 = CARTESIAN_POINT('', (8., 8.00000000000001, -90.));
#206 = CARTESIAN_POINT('', (8., 8.00000000000001, -92.));
#207 = CARTESIAN_POINT('', (6., 6.00000000000001, -92.));
#208 = CARTESIAN_POINT('', (8., 6.96935678944754E-15, -90.));
#209 = CARTESIAN_POINT('', (8., 6.8468921095328E-15, -92.));
#210 = CARTESIAN_POINT('', (6., 6.72442742961807E-15, -92.));
#211 = CARTESIAN_POINT('', (8., -7.99999999999999, -90.));
#212 = CARTESIAN_POINT('', (8., -7.99999999999999, -92.));
#213 = CARTESIAN_POINT('', (6., -5.99999999999999, -92.));
#214 = CARTESIAN_POINT('', (1.82483365913381E-15, -7.99999999999999, -90.));
#215 = CARTESIAN_POINT('', (1.70236897921907E-15, -7.99999999999999, -92.));
#216 = CARTESIAN_POINT('', (1.45743961938961E-15, -5.99999999999999, -92.));
#217 = CARTESIAN_POINT('', (-8., -7.99999999999999, -90.));
#218 = CARTESIAN_POINT('', (-8., -7.99999999999999, -92.));
#219 = CARTESIAN_POINT('', (-6., -6., -92.));
#220 = CARTESIAN_POINT('', (-8., 6.00076931582203E-15, -90.));
#221 = CARTESIAN_POINT('', (-8., 6.12323399573677E-15, -92.));
#222 = CARTESIAN_POINT('', (-6., 6.00076931582203E-15, -92.));
#223 = ADVANCED_FACE('', (#224), #227, .T.);
#224 = FACE_OUTER_BOUND('', #225, .T.);
#225 = EDGE_LOOP('', (#226));
#226 = ORIENTED_EDGE('', *, *, #189, .T.);
#227 = B_SPLINE_SURFACE_WITH_KNOTS('', 1, 1, ((#228, #229), (#230, #231)), .UNSPECIFIED., .F., .F., .U., (2, 2), (2, 2), (3.33380951166243, 15.3338095116624), (3.33380951166242, 15.3338095116624), .UNSPECIFIED.);
#228 = CARTESIAN_POINT('', (6., -6., -92.));
#229 = CARTESIAN_POINT('', (6., 6.00000000000001, -92.));
#230 = CARTESIAN_POINT('', (-6., -6., -92.));
#231 = CARTESIAN_POINT('', (-6., 6.00000000000001, -92.));
#232 = PRESENTATION_STYLE_ASSIGNMENT((#233));
#233 = SURFACE_STYLE_USAGE(.POSITIVE., #234);
#234 = SURFACE_SIDE_STYLE('', (#235));
#235 = SURFACE_STYLE_FILL_AREA(#236);
#236 = FILL_AREA_STYLE('', (#237));
#237 = FILL_AREA_STYLE_COLOUR('', #238);
#238 = COLOUR_RGB('', 0.8, 0.8, 0.8);
#239 = STYLED_ITEM('', (#232), #116);
#240 = TRIMMED_CURVE('cutting part line', #241, (#245), (#246), .T., .CARTESIAN.);
#241 = LINE('', #242, #243);
#242 = CARTESIAN_POINT('', (-6.52395505457907E-31, -3.55147571752732E-15, -58.));
#243 = VECTOR('', #244, 8.);
#244 = DIRECTION('', (8., -1.46957615897683E-15, 0.));
#245 = CARTESIAN_POINT('', (-6.52395505457907E-31, -3.55147571752732E-15, -58.));
#246 = CARTESIAN_POINT('', (8., -5.02105187650415E-15, -58.));
#247 = TRIMMED_CURVE('cutting part line', #248, (#252), (#253), .T., .CARTESIAN.);
#248 = LINE('', #249, #250);
#249 = CARTESIAN_POINT('', (8., -5.02105187650415E-15, -58.));
#250 = VECTOR('', #251, 32.);
#251 = DIRECTION('', (0., -1.95943487863576E-15, -32.));
#252 = CARTESIAN_POINT('', (8., -5.02105187650415E-15, -58.));
#253 = CARTESIAN_POINT('', (8., -6.98048675513991E-15, -90.));
#254 = TRIMMED_CURVE('cutting part line', #255, (#260), (#261), .T., .CARTESIAN.);
#255 = CIRCLE('', #256, 1.99999999999999);
#256 = AXIS2_PLACEMENT_3D('', #257, #258, #259);
#257 = CARTESIAN_POINT('', (6.00000000000001, -6.6130927153957E-15, -90.));
#258 = DIRECTION('', (1.83697019872107E-16, 1., -6.12323399573714E-17));
#259 = DIRECTION('', (1., -1.83697019872107E-16, 0.));
#260 = CARTESIAN_POINT('', (8., -6.98048675513991E-15, -90.));
#261 = CARTESIAN_POINT('', (6., -6.73555739531044E-15, -92.));
#262 = TRIMMED_CURVE('cutting part line', #263, (#267), (#268), .T., .CARTESIAN.);
#263 = LINE('', #264, #265);
#264 = CARTESIAN_POINT('', (6., -6.73555739531044E-15, -92.));
#265 = VECTOR('', #266, 6.);
#266 = DIRECTION('', (-6., 1.10218211923262E-15, 0.));
#267 = CARTESIAN_POINT('', (6., -6.73555739531044E-15, -92.));
#268 = CARTESIAN_POINT('', (-6.89889500024454E-31, -5.63337527607782E-15, -92.));
#269 = TRIMMED_CURVE('cutting part line', #270, (#274), (#275), .T., .CARTESIAN.);
#270 = LINE('', #271, #272);
#271 = CARTESIAN_POINT('', (-1.03483425003668E-30, -5.63337527607782E-15, -92.));
#272 = VECTOR('', #273, 34.);
#273 = DIRECTION('', (3.82438744578774E-31, 2.0818995585505E-15, 34.));
#274 = CARTESIAN_POINT('', (-1.03483425003668E-30, -5.63337527607782E-15, -92.));
#275 = CARTESIAN_POINT('', (-6.52395505457907E-31, -3.55147571752732E-15, -58.));
#276 = COMPOSITE_CURVE('cutting part line', (#277, #278, #279, #280, #281), .U.);
#277 = COMPOSITE_CURVE_SEGMENT(.CONTINUOUS., .T., #240);
#278 = COMPOSITE_CURVE_SEGMENT(.CONTINUOUS., .T., #247);
#279 = COMPOSITE_CURVE_SEGMENT(.CONTINUOUS., .T., #254);
#280 = COMPOSITE_CURVE_SEGMENT(.CONTINUOUS., .T., #262);
#281 = COMPOSITE_CURVE_SEGMENT(.CONTINUOUS., .T., #269);
#282 = GEOMETRIC_SET('', (#276, #325));
#283 = PRESENTATION_STYLE_ASSIGNMENT((#284));
#284 = CURVE_STYLE('', #286, POSITIVE_LENGTH_MEASURE(1.E-6), #285);
#285 = COLOUR_RGB('', 0., 0., 1.);
#286 = DRAUGHTING_PRE_DEFINED_CURVE_FONT('continuous');
#287 = STYLED_ITEM('', (#283), #276);
#288 = PRESENTATION_STYLE_ASSIGNMENT((#289));
#289 = CURVE_STYLE('', #291, POSITIVE_LENGTH_MEASURE(1.E-6), #290);
#290 = COLOUR_RGB('', 0., 0., 1.);
#291 = DRAUGHTING_PRE_DEFINED_CURVE_FONT('continuous');
#292 = OVER_RIDING_STYLED_ITEM('', (#288), #240, #287);
#293 = PRESENTATION_STYLE_ASSIGNMENT((#294));
#294 = CURVE_STYLE('', #296, POSITIVE_LENGTH_MEASURE(1.E-6), #295);
#295 = COLOUR_RGB('', 0., 0., 1.);
#296 = DRAUGHTING_PRE_DEFINED_CURVE_FONT('continuous');
#297 = OVER_RIDING_STYLED_ITEM('', (#293), #247, #287);
#298 = PRESENTATION_STYLE_ASSIGNMENT((#299));
#299 = CURVE_STYLE('', #301, POSITIVE_LENGTH_MEASURE(1.E-6), #300);
#300 = COLOUR_RGB('', 0., 0., 1.);
#301 = DRAUGHTING_PRE_DEFINED_CURVE_FONT('continuous');
#302 = OVER_RIDING_STYLED_ITEM('', (#298), #254, #287);
#303 = PRESENTATION_STYLE_ASSIGNMENT((#304));
#304 = CURVE_STYLE('', #306, POSITIVE_LENGTH_MEASURE(1.E-6), #305);
#305 = COLOUR_RGB('', 0., 0., 1.);
#306 = DRAUGHTING_PRE_DEFINED_CURVE_FONT('continuous');
#307 = OVER_RIDING_STYLED_ITEM('', (#303), #262, #287);
#308 = PRESENTATION_STYLE_ASSIGNMENT((#309));
#309 = CURVE_STYLE('', #311, POSITIVE_LENGTH_MEASURE(1.E-6), #310);
#310 = COLOUR_RGB('', 0., 0., 1.);
#311 = DRAUGHTING_PRE_DEFINED_CURVE_FONT('continuous');
#312 = OVER_RIDING_STYLED_ITEM('', (#308), #269, #287);
#313 = AXIS2_PLACEMENT_3D('CIP', #314, #315, #316);
#314 = CARTESIAN_POINT('', (3.44944750012227E-31, 5.63337527607782E-15, -92.));
#315 = DIRECTION('', (-3.74939945665465E-33, -6.12323399573677E-17, 1.));
#316 = DIRECTION('', (1., -6.12323399573677E-17, 0.));
#317 = AXIS2_PLACEMENT_3D('MCS', #318, #319, #320);
#318 = CARTESIAN_POINT('', (1.79971173919423E-31, 2.93915231795365E-15, -48.));
#319 = DIRECTION('', (-3.74939945665465E-33, -6.12323399573677E-17, 1.));
#320 = DIRECTION('', (1., -6.12323399573677E-17, 0.));
#321 = AXIS2_PLACEMENT_3D('PCS', #322, #323, #324);
#322 = CARTESIAN_POINT('', (0., 0., 0.));
#323 = DIRECTION('', (0., 0., 1.));
#324 = DIRECTION('', (1., 0., 0.));
#325 = CARTESIAN_POINT('CRP', (8., 0., -92.));
#326 = (
   GEOMETRIC_REPRESENTATION_CONTEXT (3)
   GLOBAL_UNCERTAINTY_ASSIGNED_CONTEXT ((#328))
   GLOBAL_UNIT_ASSIGNED_CONTEXT ((#327, #329, #330))
   REPRESENTATION_CONTEXT ('', '3D')
);
#327 = (
   LENGTH_UNIT ()
   NAMED_UNIT (*)
   SI_UNIT (.MILLI., .METRE.)
);
#328 = UNCERTAINTY_MEASURE_WITH_UNIT(LENGTH_MEASURE(1.E-6), #327, 'DISTANCE_ACCURACY_VALUE', '');
#329 = (
   NAMED_UNIT (*)
   SI_UNIT ($, .STERADIAN.)
   SOLID_ANGLE_UNIT ()
);
#330 = (
   NAMED_UNIT (*)
   PLANE_ANGLE_UNIT ()
   SI_UNIT ($, .RADIAN.)
);
#331 = SHAPE_REPRESENTATION('', (), #326);
#332 = PRODUCT_DEFINITION_SHAPE('', '', #333);
#333 = PRODUCT_DEFINITION('', '', #336, #340);
#334 = APPLICATION_CONTEXT('configuration controlled 3D designs of mechanical parts and assemblies');
#335 = APPLICATION_PROTOCOL_DEFINITION('International Standard', 'automotive_design', 2002, #334);
#336 = PRODUCT_DEFINITION_FORMATION_WITH_SPECIFIED_SOURCE('', '', #337, .NOT_KNOWN.);
#337 = PRODUCT('NONE', '2S342-1600-200CMA   1740', '', (#338));
#338 = PRODUCT_CONTEXT('', #334, 'mechanical');
#339 = PRODUCT_RELATED_PRODUCT_CATEGORY('detail', '', (#337));
#340 = PRODUCT_DEFINITION_CONTEXT('part definition', #334, 'design');
#341 = SHAPE_DEFINITION_REPRESENTATION(#332, #331);
#342 = CONSTRUCTIVE_GEOMETRY_REPRESENTATION('supplemental geometry', (#313, #317, #321), #326);
#343 = CONSTRUCTIVE_GEOMETRY_REPRESENTATION_RELATIONSHIP('', '', #331, #342);
#344 = SHAPE_REPRESENTATION_RELATIONSHIP('', '', #331, #345);
#345 = SHAPE_REPRESENTATION('', (#282), #326);
#346 = SHAPE_REPRESENTATION_RELATIONSHIP('', '', #331, #347);
#347 = ADVANCED_BREP_SHAPE_REPRESENTATION('', (#1, #116), #326);
ENDSEC;
END-ISO-10303-21;
