ISO-10303-21;
HEADER;
FILE_DESCRIPTION(('STEP'), '1');
FILE_NAME('C:\\Users\\ds2002\\OneDrive - Sandvik\\HomeShare\\Documents\\Batchrepair\\CorSRT2\\NEW_MILSQ_SLD\\Output\\MOD000000000000000020082330800000.stp', '2019-01-02T12:08:54', (''), (''), 'Express v3.0.0.0', 'Express Tool', 'Unknown');
FILE_SCHEMA(('AUTOMOTIVE_DESIGN'));
ENDSEC;

DATA;
#1 = MANIFOLD_SOLID_BREP('NOCUT', #2);
#2 = CLOSED_SHELL('', (#3, #50, #89, #98, #137));
#3 = ADVANCED_FACE('', (#4), #31, .T.);
#4 = FACE_OUTER_BOUND('', #5, .T.);
#5 = EDGE_LOOP('', (#6, #16, #23, #24));
#6 = ORIENTED_EDGE('', *, *, #7, .T.);
#7 = EDGE_CURVE('', #8, #10, #12, .T.);
#8 = VERTEX_POINT('', #9);
#9 = CARTESIAN_POINT('', (-10., 3.67394039744206E-15, -50.));
#10 = VERTEX_POINT('', #11);
#11 = CARTESIAN_POINT('', (-10., 6.73555739531044E-16, -1.));
#12 = LINE('', #13, #14);
#13 = CARTESIAN_POINT('', (-10., 3.67394039744206E-15, -50.));
#14 = VECTOR('', #15, 49.);
#15 = DIRECTION('', (0., -3.00038465791102E-15, 49.));
#16 = ORIENTED_EDGE('', *, *, #17, .T.);
#17 = EDGE_CURVE('', #10, #10, #18, .T.);
#18 = CIRCLE('', #19, 10.);
#19 = AXIS2_PLACEMENT_3D('', #20, #21, #22);
#20 = CARTESIAN_POINT('', (-3.10862446895044E-15, -3.99680288865056E-15, -1.));
#21 = DIRECTION('', (1.11022302462516E-17, 3.94546482371774E-17, -1.));
#22 = DIRECTION('', (-1., 4.67035862818161E-16, -1.11022302462516E-17));
#23 = ORIENTED_EDGE('', *, *, #7, .F.);
#24 = ORIENTED_EDGE('', *, *, #25, .F.);
#25 = EDGE_CURVE('', #8, #8, #26, .T.);
#26 = CIRCLE('', #27, 10.);
#27 = AXIS2_PLACEMENT_3D('', #28, #29, #30);
#28 = CARTESIAN_POINT('', (-1.11022302462516E-16, -1.06581410364015E-14, -50.));
#29 = DIRECTION('', (0., 0., -1.));
#30 = DIRECTION('', (-1., 1.43320814338436E-15, 0.));
#31 = (
   BOUNDED_SURFACE ()
   B_SPLINE_SURFACE (1, 2, ((#32, #33, #34, #35, #36, #37, #38, #39, #40), (#41, #42, #43, #44, #45, #46, #47, #48, #49)), .UNSPECIFIED., .F., .T., .U.)
   B_SPLINE_SURFACE_WITH_KNOTS ((2, 2), (3, 2, 2, 2, 3), (0., 1.), (0., 15.707963267949, 31.415926535898, 47.1238898038469, 62.8318530717959), .UNSPECIFIED.)
   GEOMETRIC_REPRESENTATION_ITEM ()
   RATIONAL_B_SPLINE_SURFACE (((1., 0.707106781186548, 1., 0.707106781186548, 1., 0.707106781186548, 1., 0.707106781186548, 1.), (1., 0.707106781186548, 1., 0.707106781186548, 1., 0.707106781186548, 1., 0.707106781186548, 1.)))
   REPRESENTATION_ITEM ('')
   SURFACE ()
);
#32 = CARTESIAN_POINT('', (-10., 4.22626941833155E-15, -50.));
#33 = CARTESIAN_POINT('', (-10., 10., -50.));
#34 = CARTESIAN_POINT('', (1.49342004172382E-15, 10., -50.));
#35 = CARTESIAN_POINT('', (10., 10., -50.));
#36 = CARTESIAN_POINT('', (10., -3.88980103888432E-15, -50.));
#37 = CARTESIAN_POINT('', (10., -10., -50.));
#38 = CARTESIAN_POINT('', (-5.39800361634469E-15, -10., -50.));
#39 = CARTESIAN_POINT('', (-10., -10., -50.));
#40 = CARTESIAN_POINT('', (-10., 4.22626941833155E-15, -50.));
#41 = CARTESIAN_POINT('', (-10., 6.73555739531046E-16, -1.));
#42 = CARTESIAN_POINT('', (-10., 10., -0.999999999999999));
#43 = CARTESIAN_POINT('', (9.49410759657495E-16, 10., -0.999999999999999));
#44 = CARTESIAN_POINT('', (10., 9.99999999999999, -0.999999999999999));
#45 = CARTESIAN_POINT('', (10., -7.44251471768482E-15, -1.));
#46 = CARTESIAN_POINT('', (9.99999999999999, -10., -1.));
#47 = CARTESIAN_POINT('', (-5.94201289841102E-15, -10., -1.));
#48 = CARTESIAN_POINT('', (-10., -10., -1.));
#49 = CARTESIAN_POINT('', (-10., 6.73555739531046E-16, -1.));
#50 = ADVANCED_FACE('', (#51), #70, .T.);
#51 = FACE_OUTER_BOUND('', #52, .T.);
#52 = EDGE_LOOP('', (#53, #61, #68, #69));
#53 = ORIENTED_EDGE('', *, *, #54, .T.);
#54 = EDGE_CURVE('', #10, #55, #57, .T.);
#55 = VERTEX_POINT('', #56);
#56 = CARTESIAN_POINT('', (-9., 5.51091059616309E-16, 0.));
#57 = LINE('', #58, #59);
#58 = CARTESIAN_POINT('', (-10., 6.73555739531044E-16, -1.));
#59 = VECTOR('', #60, 1.4142135623731);
#60 = DIRECTION('', (1., -1.22464679914735E-16, 1.));
#61 = ORIENTED_EDGE('', *, *, #62, .T.);
#62 = EDGE_CURVE('', #55, #55, #63, .T.);
#63 = CIRCLE('', #64, 9.);
#64 = AXIS2_PLACEMENT_3D('', #65, #66, #67);
#65 = CARTESIAN_POINT('', (4.57966997657877E-15, 0., 0.));
#66 = DIRECTION('', (3.74939945665464E-33, 6.12323399573677E-17, -1.));
#67 = DIRECTION('', (-1., 6.12323399573676E-17, 0.));
#68 = ORIENTED_EDGE('', *, *, #54, .F.);
#69 = ORIENTED_EDGE('', *, *, #17, .F.);
#70 = (
   BOUNDED_SURFACE ()
   B_SPLINE_SURFACE (1, 2, ((#71, #72, #73, #74, #75, #76, #77, #78, #79), (#80, #81, #82, #83, #84, #85, #86, #87, #88)), .UNSPECIFIED., .F., .T., .U.)
   B_SPLINE_SURFACE_WITH_KNOTS ((2, 2), (3, 2, 2, 2, 3), (0., 1.), (0., 0.25, 0.5, 0.75, 1.), .UNSPECIFIED.)
   GEOMETRIC_REPRESENTATION_ITEM ()
   RATIONAL_B_SPLINE_SURFACE (((1., 0.707106781186548, 1., 0.707106781186548, 1., 0.707106781186548, 1., 0.707106781186548, 1.), (1., 0.707106781186548, 1., 0.707106781186548, 1., 0.707106781186548, 1., 0.707106781186548, 1.)))
   REPRESENTATION_ITEM ('')
   SURFACE ()
);
#71 = CARTESIAN_POINT('', (-9.99999999999999, -5.38288093340217E-15, -1.));
#72 = CARTESIAN_POINT('', (-9.99999999999999, 9.99999999999999, -1.00000000000006));
#73 = CARTESIAN_POINT('', (4.57966997657877E-15, 9.99999999999999, -1.00000000000006));
#74 = CARTESIAN_POINT('', (10., 9.99999999999999, -1.00000000000006));
#75 = CARTESIAN_POINT('', (10., -5.38288093340217E-15, -1.));
#76 = CARTESIAN_POINT('', (10., -10., -0.99999999999994));
#77 = CARTESIAN_POINT('', (5.80431677572612E-15, -10., -0.99999999999994));
#78 = CARTESIAN_POINT('', (-9.99999999999999, -10., -0.99999999999994));
#79 = CARTESIAN_POINT('', (-9.99999999999999, -5.38288093340217E-15, -1.));
#80 = CARTESIAN_POINT('', (-9., 5.51091059616309E-16, 0.));
#81 = CARTESIAN_POINT('', (-9., 9., -5.39568389967826E-14));
#82 = CARTESIAN_POINT('', (4.57966997657877E-15, 9., -5.39568389967826E-14));
#83 = CARTESIAN_POINT('', (9.00000000000001, 9., -5.39568389967826E-14));
#84 = CARTESIAN_POINT('', (9.00000000000001, 5.51091059616309E-16, -6.60780701695189E-30));
#85 = CARTESIAN_POINT('', (9.00000000000001, -9., 5.39568389967826E-14));
#86 = CARTESIAN_POINT('', (5.68185209581139E-15, -9., 5.39568389967826E-14));
#87 = CARTESIAN_POINT('', (-8.99999999999999, -9., 5.39568389967826E-14));
#88 = CARTESIAN_POINT('', (-9., 5.51091059616309E-16, 0.));
#89 = ADVANCED_FACE('', (#90), #93, .T.);
#90 = FACE_OUTER_BOUND('', #91, .T.);
#91 = EDGE_LOOP('', (#92));
#92 = ORIENTED_EDGE('', *, *, #62, .F.);
#93 = B_SPLINE_SURFACE_WITH_KNOTS('', 1, 1, ((#94, #95), (#96, #97)), .UNSPECIFIED., .F., .F., .U., (2, 2), (2, 2), (0.0454545454545454, 0.954545454545454), (0.0454545454545454, 0.954545454545454), .UNSPECIFIED.);
#94 = CARTESIAN_POINT('', (9., -9., -5.51091059616309E-16));
#95 = CARTESIAN_POINT('', (-9., -9., -5.51091059616309E-16));
#96 = CARTESIAN_POINT('', (9., 9., 5.51091059616309E-16));
#97 = CARTESIAN_POINT('', (-9., 9., 5.51091059616309E-16));
#98 = ADVANCED_FACE('', (#99), #118, .T.);
#99 = FACE_OUTER_BOUND('', #100, .T.);
#100 = EDGE_LOOP('', (#101, #110, #116, #117));
#101 = ORIENTED_EDGE('', *, *, #102, .F.);
#102 = EDGE_CURVE('', #103, #103, #105, .T.);
#103 = VERTEX_POINT('', #104);
#104 = CARTESIAN_POINT('', (-10., 4.62304166678126E-15, -65.5));
#105 = CIRCLE('', #106, 10.);
#106 = AXIS2_PLACEMENT_3D('', #107, #108, #109);
#107 = CARTESIAN_POINT('', (-1.41553435639707E-15, -3.33066907387547E-15, -65.5));
#108 = DIRECTION('', (0., 0., -1.));
#109 = DIRECTION('', (-1., 7.95371074065673E-16, 0.));
#110 = ORIENTED_EDGE('', *, *, #111, .F.);
#111 = EDGE_CURVE('', #8, #103, #112, .T.);
#112 = LINE('', #113, #114);
#113 = CARTESIAN_POINT('', (-10., 3.67394039744206E-15, -50.));
#114 = VECTOR('', #115, 15.5);
#115 = DIRECTION('', (0., 9.491012693392E-16, -15.5));
#116 = ORIENTED_EDGE('', *, *, #25, .T.);
#117 = ORIENTED_EDGE('', *, *, #111, .T.);
#118 = (
   BOUNDED_SURFACE ()
   B_SPLINE_SURFACE (2, 1, ((#119, #120), (#121, #122), (#123, #124), (#125, #126), (#127, #128), (#129, #130), (#131, #132), (#133, #134), (#135, #136)), .UNSPECIFIED., .T., .F., .U.)
   B_SPLINE_SURFACE_WITH_KNOTS ((3, 2, 2, 2, 3), (2, 2), (0., 15.707963267949, 31.415926535898, 47.1238898038469, 62.8318530717959), (0., 0.295238095238095), .UNSPECIFIED.)
   GEOMETRIC_REPRESENTATION_ITEM ()
   RATIONAL_B_SPLINE_SURFACE (((1., 1.), (0.707106781186548, 0.707106781186548), (1., 1.), (0.707106781186548, 0.707106781186548), (1., 1.), (0.707106781186548, 0.707106781186548), (1., 1.), (0.707106781186548, 0.707106781186548), (1., 1.)))
   REPRESENTATION_ITEM ('')
   SURFACE ()
);
#119 = CARTESIAN_POINT('', (-10., 3.67394039744206E-15, -50.));
#120 = CARTESIAN_POINT('', (-10., 9.89118933534294E-15, -65.5));
#121 = CARTESIAN_POINT('', (-10., 10., -50.));
#122 = CARTESIAN_POINT('', (-10., 10., -65.5));
#123 = CARTESIAN_POINT('', (2.00690512447449E-15, 10., -50.));
#124 = CARTESIAN_POINT('', (2.00690512447449E-15, 10., -65.5));
#125 = CARTESIAN_POINT('', (10., 10., -50.));
#126 = CARTESIAN_POINT('', (10., 10., -65.5));
#127 = CARTESIAN_POINT('', (10., -3.33747201799483E-15, -50.));
#128 = CARTESIAN_POINT('', (10., 2.87977691990604E-15, -65.5));
#129 = CARTESIAN_POINT('', (10., -10., -50.));
#130 = CARTESIAN_POINT('', (10., -10., -65.5));
#131 = CARTESIAN_POINT('', (-3.77986049181506E-15, -10., -50.));
#132 = CARTESIAN_POINT('', (-3.77986049181505E-15, -9.99999999999999, -65.5));
#133 = CARTESIAN_POINT('', (-10., -10., -50.));
#134 = CARTESIAN_POINT('', (-10., -9.99999999999999, -65.5));
#135 = CARTESIAN_POINT('', (-10., 3.67394039744206E-15, -50.));
#136 = CARTESIAN_POINT('', (-10., 9.89118933534294E-15, -65.5));
#137 = ADVANCED_FACE('', (#138), #141, .T.);
#138 = FACE_OUTER_BOUND('', #139, .T.);
#139 = EDGE_LOOP('', (#140));
#140 = ORIENTED_EDGE('', *, *, #102, .T.);
#141 = B_SPLINE_SURFACE_WITH_KNOTS('', 1, 1, ((#142, #143), (#144, #145)), .UNSPECIFIED., .F., .F., .U., (2, 2), (2, 2), (0.465652190749169, 0.558435888526475), (0.441564111473525, 0.534347809250831), .UNSPECIFIED.);
#142 = CARTESIAN_POINT('', (-10., 10., -65.5));
#143 = CARTESIAN_POINT('', (-10., -9.99999999999997, -65.5));
#144 = CARTESIAN_POINT('', (9.99999999999997, 10., -65.5));
#145 = CARTESIAN_POINT('', (9.99999999999997, -9.99999999999997, -65.5));
#146 = DRAUGHTING_MODEL('', (#154, #278, #326, #331, #336, #341, #346, #351), #365);
#147 = PRESENTATION_STYLE_ASSIGNMENT((#148));
#148 = SURFACE_STYLE_USAGE(.POSITIVE., #149);
#149 = SURFACE_SIDE_STYLE('', (#150));
#150 = SURFACE_STYLE_FILL_AREA(#151);
#151 = FILL_AREA_STYLE('', (#152));
#152 = FILL_AREA_STYLE_COLOUR('', #153);
#153 = COLOUR_RGB('', 0.50196078431373, 0.50196078431373, 0.50196078431373);
#154 = STYLED_ITEM('', (#147), #1);
#155 = MANIFOLD_SOLID_BREP('CUT', #156);
#156 = CLOSED_SHELL('', (#157, #174, #213, #262));
#157 = ADVANCED_FACE('', (#158), #169, .T.);
#158 = FACE_OUTER_BOUND('', #159, .T.);
#159 = EDGE_LOOP('', (#160));
#160 = ORIENTED_EDGE('', *, *, #161, .F.);
#161 = EDGE_CURVE('', #162, #162, #164, .T.);
#162 = VERTEX_POINT('', #163);
#163 = CARTESIAN_POINT('', (-10., 4.62304166678126E-15, -65.5));
#164 = CIRCLE('', #165, 10.);
#165 = AXIS2_PLACEMENT_3D('', #166, #167, #168);
#166 = CARTESIAN_POINT('', (-1.41553435639707E-15, -3.33066907387547E-15, -65.5));
#167 = DIRECTION('', (0., 0., -1.));
#168 = DIRECTION('', (-1., 7.95371074065673E-16, 0.));
#169 = B_SPLINE_SURFACE_WITH_KNOTS('', 1, 1, ((#170, #171), (#172, #173)), .UNSPECIFIED., .F., .F., .U., (2, 2), (2, 2), (0.441564111473525, 0.534347809250831), (0.465652190749169, 0.558435888526475), .UNSPECIFIED.);
#170 = CARTESIAN_POINT('', (-10., 10., -65.5));
#171 = CARTESIAN_POINT('', (9.99999999999999, 10., -65.5));
#172 = CARTESIAN_POINT('', (-10., -10., -65.5));
#173 = CARTESIAN_POINT('', (9.99999999999999, -10., -65.5));
#174 = ADVANCED_FACE('', (#175), #194, .T.);
#175 = FACE_OUTER_BOUND('', #176, .T.);
#176 = EDGE_LOOP('', (#177, #178, #186, #193));
#177 = ORIENTED_EDGE('', *, *, #161, .T.);
#178 = ORIENTED_EDGE('', *, *, #179, .T.);
#179 = EDGE_CURVE('', #162, #180, #182, .T.);
#180 = VERTEX_POINT('', #181);
#181 = CARTESIAN_POINT('', (-10., 6.88863824520386E-15, -102.5));
#182 = LINE('', #183, #184);
#183 = CARTESIAN_POINT('', (-10., 4.62304166678126E-15, -65.5));
#184 = VECTOR('', #185, 37.);
#185 = DIRECTION('', (0., 2.2655965784226E-15, -37.));
#186 = ORIENTED_EDGE('', *, *, #187, .F.);
#187 = EDGE_CURVE('', #180, #180, #188, .T.);
#188 = CIRCLE('', #189, 10.);
#189 = AXIS2_PLACEMENT_3D('', #190, #191, #192);
#190 = CARTESIAN_POINT('', (-3.7470027081099E-15, 4.66293670342566E-15, -102.5));
#191 = DIRECTION('', (0., 0., -1.));
#192 = DIRECTION('', (-1., 2.2257015417782E-16, 0.));
#193 = ORIENTED_EDGE('', *, *, #179, .F.);
#194 = (
   BOUNDED_SURFACE ()
   B_SPLINE_SURFACE (2, 1, ((#195, #196), (#197, #198), (#199, #200), (#201, #202), (#203, #204), (#205, #206), (#207, #208), (#209, #210), (#211, #212)), .UNSPECIFIED., .T., .F., .U.)
   B_SPLINE_SURFACE_WITH_KNOTS ((3, 2, 2, 2, 3), (2, 2), (0., 15.707963267949, 31.415926535898, 47.1238898038469, 62.8318530717959), (0.295238095238095, 1.), .UNSPECIFIED.)
   GEOMETRIC_REPRESENTATION_ITEM ()
   RATIONAL_B_SPLINE_SURFACE (((1., 1.), (0.707106781186548, 0.707106781186548), (1., 1.), (0.707106781186548, 0.707106781186548), (1., 1.), (0.707106781186548, 0.707106781186548), (1., 1.), (0.707106781186548, 0.707106781186548), (1., 1.)))
   REPRESENTATION_ITEM ('')
   SURFACE ()
);
#195 = CARTESIAN_POINT('', (-10., 4.62304166678126E-15, -65.5));
#196 = CARTESIAN_POINT('', (-10., 6.62144311110654E-15, -102.5));
#197 = CARTESIAN_POINT('', (-10., 10., -65.5));
#198 = CARTESIAN_POINT('', (-10., 10., -102.5));
#199 = CARTESIAN_POINT('', (9.57604949488403E-16, 10., -65.5));
#200 = CARTESIAN_POINT('', (9.57604949488403E-16, 10., -102.5));
#201 = CARTESIAN_POINT('', (10., 10., -65.5));
#202 = CARTESIAN_POINT('', (10., 10., -102.5));
#203 = CARTESIAN_POINT('', (10., 1.93067565056684E-15, -65.5));
#204 = CARTESIAN_POINT('', (10., 3.92907709489213E-15, -102.5));
#205 = CARTESIAN_POINT('', (10., -10., -65.5));
#206 = CARTESIAN_POINT('', (10., -9.99999999999999, -102.5));
#207 = CARTESIAN_POINT('', (-5.10114267578659E-16, -10., -65.5));
#208 = CARTESIAN_POINT('', (-5.10114267578659E-16, -9.99999999999999, -102.5));
#209 = CARTESIAN_POINT('', (-10., -10., -65.5));
#210 = CARTESIAN_POINT('', (-10., -9.99999999999999, -102.5));
#211 = CARTESIAN_POINT('', (-10., 4.62304166678126E-15, -65.5));
#212 = CARTESIAN_POINT('', (-10., 6.62144311110654E-15, -102.5));
#213 = ADVANCED_FACE('', (#214), #234, .T.);
#214 = FACE_OUTER_BOUND('', #215, .T.);
#215 = EDGE_LOOP('', (#216, #225, #226, #227));
#216 = ORIENTED_EDGE('', *, *, #217, .F.);
#217 = EDGE_CURVE('', #180, #218, #220, .T.);
#218 = VERTEX_POINT('', #219);
#219 = CARTESIAN_POINT('', (-8.5, 6.88863824520386E-15, -104.));
#220 = CIRCLE('', #221, 1.49999999999999);
#221 = AXIS2_PLACEMENT_3D('', #222, #223, #224);
#222 = CARTESIAN_POINT('', (-8.50000000000001, 6.79678973526781E-15, -102.5));
#223 = DIRECTION('', (-6.12323399573679E-17, -1., -6.12323399573681E-17));
#224 = DIRECTION('', (-1., 6.12323399573679E-17, 0.));
#225 = ORIENTED_EDGE('', *, *, #187, .T.);
#226 = ORIENTED_EDGE('', *, *, #217, .T.);
#227 = ORIENTED_EDGE('', *, *, #228, .F.);
#228 = EDGE_CURVE('', #218, #218, #229, .T.);
#229 = CIRCLE('', #230, 8.5);
#230 = AXIS2_PLACEMENT_3D('', #231, #232, #233);
#231 = CARTESIAN_POINT('', (-2.4980018054066E-16, 6.21724893790088E-15, -104.));
#232 = DIRECTION('', (0., 0., -1.));
#233 = DIRECTION('', (-1., 7.89869773297627E-17, 0.));
#234 = (
   BOUNDED_SURFACE ()
   B_SPLINE_SURFACE (2, 2, ((#235, #236, #237), (#238, #239, #240), (#241, #242, #243), (#244, #245, #246), (#247, #248, #249), (#250, #251, #252), (#253, #254, #255), (#256, #257, #258), (#259, #260, #261)), .UNSPECIFIED., .T., .F., .U.)
   B_SPLINE_SURFACE_WITH_KNOTS ((3, 2, 2, 2, 3), (3, 3), (0., 0.25, 0.5, 0.75, 1.), (0., 1.), .UNSPECIFIED.)
   GEOMETRIC_REPRESENTATION_ITEM ()
   RATIONAL_B_SPLINE_SURFACE (((1., 0.707106781186548, 1.), (0.707106781186548, 0.5, 0.707106781186548), (1., 0.707106781186548, 1.), (0.707106781186548, 0.5, 0.707106781186548), (1., 0.707106781186548, 1.), (0.707106781186548, 0.5, 0.707106781186548), (1., 0.707106781186548, 1.), (0.707106781186548, 0.5, 0.707106781186548), (1., 0.707106781186548, 1.)))
   REPRESENTATION_ITEM ('')
   SURFACE ()
);
#235 = CARTESIAN_POINT('', (-10., 6.88863824520386E-15, -102.5));
#236 = CARTESIAN_POINT('', (-10., 6.98048675513991E-15, -104.));
#237 = CARTESIAN_POINT('', (-8.5, 6.88863824520386E-15, -104.));
#238 = CARTESIAN_POINT('', (-10., 10., -102.5));
#239 = CARTESIAN_POINT('', (-10., 10., -104.));
#240 = CARTESIAN_POINT('', (-8.50000000000001, 8.50000000000001, -104.));
#241 = CARTESIAN_POINT('', (-2.4389358976773E-15, 10., -102.5));
#242 = CARTESIAN_POINT('', (-9.60216430491114E-15, 10., -104.));
#243 = CARTESIAN_POINT('', (-9.60216430491114E-15, 8.50000000000001, -104.));
#244 = CARTESIAN_POINT('', (10., 10., -102.5));
#245 = CARTESIAN_POINT('', (9.99999999999999, 10., -104.));
#246 = CARTESIAN_POINT('', (8.49999999999999, 8.50000000000002, -104.));
#247 = CARTESIAN_POINT('', (10., 7.21459563959531E-15, -102.5));
#248 = CARTESIAN_POINT('', (10., 2.16329009639991E-14, -104.));
#249 = CARTESIAN_POINT('', (8.5, 2.1541052454063E-14, -104.));
#250 = CARTESIAN_POINT('', (10., -9.99999999999999, -102.5));
#251 = CARTESIAN_POINT('', (10., -9.99999999999998, -104.));
#252 = CARTESIAN_POINT('', (8.5, -8.49999999999998, -104.));
#253 = CARTESIAN_POINT('', (-8.88331704138494E-16, -9.99999999999999, -102.5));
#254 = CARTESIAN_POINT('', (6.27489670309535E-15, -9.99999999999998, -104.));
#255 = CARTESIAN_POINT('', (6.09119968322325E-15, -8.49999999999998, -104.));
#256 = CARTESIAN_POINT('', (-10., -9.99999999999999, -102.5));
#257 = CARTESIAN_POINT('', (-9.99999999999999, -9.99999999999999, -104.));
#258 = CARTESIAN_POINT('', (-8.49999999999999, -8.49999999999999, -104.));
#259 = CARTESIAN_POINT('', (-10., 6.88863824520386E-15, -102.5));
#260 = CARTESIAN_POINT('', (-10., 6.98048675513991E-15, -104.));
#261 = CARTESIAN_POINT('', (-8.5, 6.88863824520386E-15, -104.));
#262 = ADVANCED_FACE('', (#263), #266, .T.);
#263 = FACE_OUTER_BOUND('', #264, .T.);
#264 = EDGE_LOOP('', (#265));
#265 = ORIENTED_EDGE('', *, *, #228, .T.);
#266 = B_SPLINE_SURFACE_WITH_KNOTS('', 1, 1, ((#267, #268), (#269, #270)), .UNSPECIFIED., .F., .F., .U., (2, 2), (2, 2), (0.0454545454545454, 0.954545454545454), (0.0454545454545454, 0.954545454545454), .UNSPECIFIED.);
#267 = CARTESIAN_POINT('', (8.5, -8.49999999999999, -104.));
#268 = CARTESIAN_POINT('', (8.5, 8.50000000000001, -104.));
#269 = CARTESIAN_POINT('', (-8.5, -8.49999999999999, -104.));
#270 = CARTESIAN_POINT('', (-8.5, 8.50000000000001, -104.));
#271 = PRESENTATION_STYLE_ASSIGNMENT((#272));
#272 = SURFACE_STYLE_USAGE(.POSITIVE., #273);
#273 = SURFACE_SIDE_STYLE('', (#274));
#274 = SURFACE_STYLE_FILL_AREA(#275);
#275 = FILL_AREA_STYLE('', (#276));
#276 = FILL_AREA_STYLE_COLOUR('', #277);
#277 = COLOUR_RGB('', 0.8, 0.8, 0.8);
#278 = STYLED_ITEM('', (#271), #155);
#279 = TRIMMED_CURVE('cutting part line', #280, (#284), (#285), .T., .CARTESIAN.);
#280 = LINE('', #281, #282);
#281 = CARTESIAN_POINT('', (5.55111512312578E-16, 0., -104.));
#282 = VECTOR('', #283, 8.5);
#283 = DIRECTION('', (8.5, 0., 0.));
#284 = CARTESIAN_POINT('', (5.55111512312578E-16, 0., -104.));
#285 = CARTESIAN_POINT('', (8.5, 0., -104.));
#286 = TRIMMED_CURVE('cutting part line', #287, (#292), (#293), .T., .CARTESIAN.);
#287 = CIRCLE('', #288, 1.49999999999997);
#288 = AXIS2_PLACEMENT_3D('', #289, #290, #291);
#289 = CARTESIAN_POINT('', (8.50000000000002, 8.75781580446271E-15, -102.5));
#290 = DIRECTION('', (2.77555756155999E-16, -1., -9.61718808275795E-15));
#291 = DIRECTION('', (-1.77635683940028E-14, 9.61718808275795E-15, -1.));
#292 = CARTESIAN_POINT('', (8.49999999999999, 2.31835979285993E-14, -104.));
#293 = CARTESIAN_POINT('', (9.99999999999999, 9.17414943869641E-15, -102.5));
#294 = TRIMMED_CURVE('cutting part line', #295, (#299), (#300), .T., .CARTESIAN.);
#295 = LINE('', #296, #297);
#296 = CARTESIAN_POINT('', (10., 1.99809707810584E-15, -102.5));
#297 = VECTOR('', #298, 37.);
#298 = DIRECTION('', (0., -1.99809707810584E-15, 37.));
#299 = CARTESIAN_POINT('', (10., 1.99809707810584E-15, -102.5));
#300 = CARTESIAN_POINT('', (10., 0., -65.5));
#301 = TRIMMED_CURVE('cutting part line', #302, (#306), (#307), .T., .CARTESIAN.);
#302 = LINE('', #303, #304);
#303 = CARTESIAN_POINT('', (10., 0., -65.5));
#304 = VECTOR('', #305, 10.);
#305 = DIRECTION('', (-10., 0., 0.));
#306 = CARTESIAN_POINT('', (10., 0., -65.5));
#307 = CARTESIAN_POINT('', (-2.77555756156289E-17, 0., -65.5));
#308 = TRIMMED_CURVE('cutting part line', #309, (#313), (#314), .T., .CARTESIAN.);
#309 = LINE('', #310, #311);
#310 = CARTESIAN_POINT('', (0., 0., -65.5));
#311 = VECTOR('', #312, 38.5000000000001);
#312 = DIRECTION('', (0., 0., -38.5000000000001));
#313 = CARTESIAN_POINT('', (0., 0., -65.5));
#314 = CARTESIAN_POINT('', (0., 0., -104.));
#315 = COMPOSITE_CURVE('cutting part line', (#316, #317, #318, #319, #320), .U.);
#316 = COMPOSITE_CURVE_SEGMENT(.CONTINUOUS., .T., #279);
#317 = COMPOSITE_CURVE_SEGMENT(.CONTINUOUS., .T., #286);
#318 = COMPOSITE_CURVE_SEGMENT(.CONTINUOUS., .T., #294);
#319 = COMPOSITE_CURVE_SEGMENT(.CONTINUOUS., .T., #301);
#320 = COMPOSITE_CURVE_SEGMENT(.CONTINUOUS., .T., #308);
#321 = GEOMETRIC_SET('', (#315, #364));
#322 = PRESENTATION_STYLE_ASSIGNMENT((#323));
#323 = CURVE_STYLE('', #325, POSITIVE_LENGTH_MEASURE(1.E-6), #324);
#324 = COLOUR_RGB('', 0., 0., 1.);
#325 = DRAUGHTING_PRE_DEFINED_CURVE_FONT('continuous');
#326 = STYLED_ITEM('', (#322), #315);
#327 = PRESENTATION_STYLE_ASSIGNMENT((#328));
#328 = CURVE_STYLE('', #330, POSITIVE_LENGTH_MEASURE(1.E-6), #329);
#329 = COLOUR_RGB('', 0., 0., 1.);
#330 = DRAUGHTING_PRE_DEFINED_CURVE_FONT('continuous');
#331 = OVER_RIDING_STYLED_ITEM('', (#327), #279, #326);
#332 = PRESENTATION_STYLE_ASSIGNMENT((#333));
#333 = CURVE_STYLE('', #335, POSITIVE_LENGTH_MEASURE(1.E-6), #334);
#334 = COLOUR_RGB('', 0., 0., 1.);
#335 = DRAUGHTING_PRE_DEFINED_CURVE_FONT('continuous');
#336 = OVER_RIDING_STYLED_ITEM('', (#332), #286, #326);
#337 = PRESENTATION_STYLE_ASSIGNMENT((#338));
#338 = CURVE_STYLE('', #340, POSITIVE_LENGTH_MEASURE(1.E-6), #339);
#339 = COLOUR_RGB('', 0., 0., 1.);
#340 = DRAUGHTING_PRE_DEFINED_CURVE_FONT('continuous');
#341 = OVER_RIDING_STYLED_ITEM('', (#337), #294, #326);
#342 = PRESENTATION_STYLE_ASSIGNMENT((#343));
#343 = CURVE_STYLE('', #345, POSITIVE_LENGTH_MEASURE(1.E-6), #344);
#344 = COLOUR_RGB('', 0., 0., 1.);
#345 = DRAUGHTING_PRE_DEFINED_CURVE_FONT('continuous');
#346 = OVER_RIDING_STYLED_ITEM('', (#342), #301, #326);
#347 = PRESENTATION_STYLE_ASSIGNMENT((#348));
#348 = CURVE_STYLE('', #350, POSITIVE_LENGTH_MEASURE(1.E-6), #349);
#349 = COLOUR_RGB('', 0., 0., 1.);
#350 = DRAUGHTING_PRE_DEFINED_CURVE_FONT('continuous');
#351 = OVER_RIDING_STYLED_ITEM('', (#347), #308, #326);
#352 = AXIS2_PLACEMENT_3D('MCS', #353, #354, #355);
#353 = CARTESIAN_POINT('', (0., 0., -50.));
#354 = DIRECTION('', (0., 0., 1.));
#355 = DIRECTION('', (1., 0., 0.));
#356 = AXIS2_PLACEMENT_3D('PCS', #357, #358, #359);
#357 = CARTESIAN_POINT('', (0., 0., 0.));
#358 = DIRECTION('', (0., 0., 1.));
#359 = DIRECTION('', (1., 0., 0.));
#360 = AXIS2_PLACEMENT_3D('CIP', #361, #362, #363);
#361 = CARTESIAN_POINT('', (0., 0., -104.));
#362 = DIRECTION('', (0., 0., 1.));
#363 = DIRECTION('', (1., 0., 0.));
#364 = CARTESIAN_POINT('CRP', (10., 0., -104.));
#365 = (
   GEOMETRIC_REPRESENTATION_CONTEXT (3)
   GLOBAL_UNCERTAINTY_ASSIGNED_CONTEXT ((#367))
   GLOBAL_UNIT_ASSIGNED_CONTEXT ((#366, #368, #369))
   REPRESENTATION_CONTEXT ('', '3D')
);
#366 = (
   LENGTH_UNIT ()
   NAMED_UNIT (*)
   SI_UNIT (.MILLI., .METRE.)
);
#367 = UNCERTAINTY_MEASURE_WITH_UNIT(LENGTH_MEASURE(1.E-6), #366, 'DISTANCE_ACCURACY_VALUE', '');
#368 = (
   NAMED_UNIT (*)
   SI_UNIT ($, .STERADIAN.)
   SOLID_ANGLE_UNIT ()
);
#369 = (
   NAMED_UNIT (*)
   PLANE_ANGLE_UNIT ()
   SI_UNIT ($, .RADIAN.)
);
#370 = SHAPE_REPRESENTATION('', (), #365);
#371 = PRODUCT_DEFINITION_SHAPE('', '', #372);
#372 = PRODUCT_DEFINITION('', '', #375, #379);
#373 = APPLICATION_CONTEXT('configuration controlled 3D designs of mechanical parts and assemblies');
#374 = APPLICATION_PROTOCOL_DEFINITION('International Standard', 'automotive_design', 2002, #373);
#375 = PRODUCT_DEFINITION_FORMATION_WITH_SPECIFIED_SOURCE('', '', #376, .NOT_KNOWN.);
#376 = PRODUCT('product-name', '2S340-2000-150-MA   1640', '', (#377));
#377 = PRODUCT_CONTEXT('', #373, 'mechanical');
#378 = PRODUCT_RELATED_PRODUCT_CATEGORY('detail', '', (#376));
#379 = PRODUCT_DEFINITION_CONTEXT('part definition', #373, 'design');
#380 = SHAPE_DEFINITION_REPRESENTATION(#371, #370);
#381 = CONSTRUCTIVE_GEOMETRY_REPRESENTATION('supplemental geometry', (#352, #356, #360), #365);
#382 = CONSTRUCTIVE_GEOMETRY_REPRESENTATION_RELATIONSHIP('', '', #370, #381);
#383 = SHAPE_REPRESENTATION_RELATIONSHIP('', '', #370, #384);
#384 = SHAPE_REPRESENTATION('', (#321), #365);
#385 = SHAPE_REPRESENTATION_RELATIONSHIP('', '', #370, #386);
#386 = ADVANCED_BREP_SHAPE_REPRESENTATION('', (#1, #155), #365);
ENDSEC;
END-ISO-10303-21;
