ISO-10303-21;
HEADER;
FILE_DESCRIPTION(('STEP'), '1');
FILE_NAME('C:\\Users\\ds2002\\OneDrive - Sandvik\\HomeShare\\Documents\\Batchrepair\\CorSRT2\\NEW_MILSQ_SLD\\Output\\MOD000000000000000020082330600000.stp', '2019-01-02T12:08:49', (''), (''), 'Express v3.0.0.0', 'Express Tool', 'Unknown');
FILE_SCHEMA(('AUTOMOTIVE_DESIGN'));
ENDSEC;

DATA;
#1 = MANIFOLD_SOLID_BREP('NOCUT', #2);
#2 = CLOSED_SHELL('', (#3, #50, #89, #98, #137));
#3 = ADVANCED_FACE('', (#4), #31, .T.);
#4 = FACE_OUTER_BOUND('', #5, .T.);
#5 = EDGE_LOOP('', (#6, #16, #23, #24));
#6 = ORIENTED_EDGE('', *, *, #7, .T.);
#7 = EDGE_CURVE('', #8, #10, #12, .T.);
#8 = VERTEX_POINT('', #9);
#9 = CARTESIAN_POINT('', (-8., 3.42901103761259E-15, -48.));
#10 = VERTEX_POINT('', #11);
#11 = CARTESIAN_POINT('', (-8., 5.38844591624835E-16, -0.799999999999997));
#12 = LINE('', #13, #14);
#13 = CARTESIAN_POINT('', (-8., 3.42901103761259E-15, -48.));
#14 = VECTOR('', #15, 47.2);
#15 = DIRECTION('', (0., -2.89016644598775E-15, 47.2));
#16 = ORIENTED_EDGE('', *, *, #17, .T.);
#17 = EDGE_CURVE('', #10, #10, #18, .T.);
#18 = CIRCLE('', #19, 8.);
#19 = AXIS2_PLACEMENT_3D('', #20, #21, #22);
#20 = CARTESIAN_POINT('', (5.27355936696949E-16, -4.44089209850063E-16, -0.799999999999997));
#21 = DIRECTION('', (-1.38777878078144E-17, 9.23824107420045E-17, -1.));
#22 = DIRECTION('', (-1., 1.22866725184362E-16, 1.38777878078145E-17));
#23 = ORIENTED_EDGE('', *, *, #7, .F.);
#24 = ORIENTED_EDGE('', *, *, #25, .F.);
#25 = EDGE_CURVE('', #8, #8, #26, .T.);
#26 = CIRCLE('', #27, 8.);
#27 = AXIS2_PLACEMENT_3D('', #28, #29, #30);
#28 = CARTESIAN_POINT('', (5.55111512312578E-17, 3.10862446895044E-15, -48.));
#29 = DIRECTION('', (0., 0., -1.));
#30 = DIRECTION('', (-1., 4.0048321082769E-17, 0.));
#31 = (
   BOUNDED_SURFACE ()
   B_SPLINE_SURFACE (1, 2, ((#32, #33, #34, #35, #36, #37, #38, #39, #40), (#41, #42, #43, #44, #45, #46, #47, #48, #49)), .UNSPECIFIED., .F., .T., .U.)
   B_SPLINE_SURFACE_WITH_KNOTS ((2, 2), (3, 2, 2, 2, 3), (0., 1.), (0., 12.5663706143592, 25.1327412287184, 37.6991118430775, 50.2654824574367), .UNSPECIFIED.)
   GEOMETRIC_REPRESENTATION_ITEM ()
   RATIONAL_B_SPLINE_SURFACE (((1., 0.707106781186548, 1., 0.707106781186548, 1., 0.707106781186548, 1., 0.707106781186548, 1.), (1., 0.707106781186548, 1., 0.707106781186548, 1., 0.707106781186548, 1., 0.707106781186548, 1.)))
   REPRESENTATION_ITEM ('')
   SURFACE ()
);
#32 = CARTESIAN_POINT('', (-8., 5.38844591624835E-16, -48.));
#33 = CARTESIAN_POINT('', (-8., 8., -48.));
#34 = CARTESIAN_POINT('', (3.65399433984063E-16, 8., -48.));
#35 = CARTESIAN_POINT('', (8., 8., -48.));
#36 = CARTESIAN_POINT('', (8., -4.47305572007077E-16, -48.));
#37 = CARTESIAN_POINT('', (8., -8., -48.));
#38 = CARTESIAN_POINT('', (3.58966709670033E-16, -8., -48.));
#39 = CARTESIAN_POINT('', (-8., -8., -48.));
#40 = CARTESIAN_POINT('', (-8., 5.38844591624835E-16, -48.));
#41 = CARTESIAN_POINT('', (-8., 5.38844591624835E-16, -0.799999999999997));
#42 = CARTESIAN_POINT('', (-8., 8., -0.799999999999997));
#43 = CARTESIAN_POINT('', (1.02043101851291E-15, 8., -0.799999999999997));
#44 = CARTESIAN_POINT('', (8., 8., -0.799999999999997));
#45 = CARTESIAN_POINT('', (8., -4.47305572007078E-16, -0.799999999999997));
#46 = CARTESIAN_POINT('', (8., -8., -0.799999999999997));
#47 = CARTESIAN_POINT('', (1.01399829419888E-15, -8., -0.799999999999997));
#48 = CARTESIAN_POINT('', (-8., -8., -0.799999999999997));
#49 = CARTESIAN_POINT('', (-8., 5.38844591624835E-16, -0.799999999999997));
#50 = ADVANCED_FACE('', (#51), #70, .T.);
#51 = FACE_OUTER_BOUND('', #52, .T.);
#52 = EDGE_LOOP('', (#53, #61, #68, #69));
#53 = ORIENTED_EDGE('', *, *, #54, .T.);
#54 = EDGE_CURVE('', #10, #55, #57, .T.);
#55 = VERTEX_POINT('', #56);
#56 = CARTESIAN_POINT('', (-7.2, 4.40872847693047E-16, 0.));
#57 = LINE('', #58, #59);
#58 = CARTESIAN_POINT('', (-8., 5.38844591624835E-16, -0.799999999999997));
#59 = VECTOR('', #60, 1.13137084989847);
#60 = DIRECTION('', (0.8, -9.7971743931788E-17, 0.799999999999997));
#61 = ORIENTED_EDGE('', *, *, #62, .T.);
#62 = EDGE_CURVE('', #55, #55, #63, .T.);
#63 = CIRCLE('', #64, 7.2);
#64 = AXIS2_PLACEMENT_3D('', #65, #66, #67);
#65 = CARTESIAN_POINT('', (-8.32667268468867E-17, -6.66133814775094E-16, -4.93038065763132E-32));
#66 = DIRECTION('', (2.56677801597318E-33, 6.12323399573677E-17, -1.));
#67 = DIRECTION('', (-1., 1.53750925342797E-16, 6.84775091337684E-33));
#68 = ORIENTED_EDGE('', *, *, #54, .F.);
#69 = ORIENTED_EDGE('', *, *, #17, .F.);
#70 = (
   BOUNDED_SURFACE ()
   B_SPLINE_SURFACE (1, 2, ((#71, #72, #73, #74, #75, #76, #77, #78, #79), (#80, #81, #82, #83, #84, #85, #86, #87, #88)), .UNSPECIFIED., .F., .T., .U.)
   B_SPLINE_SURFACE_WITH_KNOTS ((2, 2), (3, 2, 2, 2, 3), (0., 1.), (0., 0.25, 0.5, 0.75, 1.), .UNSPECIFIED.)
   GEOMETRIC_REPRESENTATION_ITEM ()
   RATIONAL_B_SPLINE_SURFACE (((1., 0.707106781186548, 1., 0.707106781186548, 1., 0.707106781186548, 1., 0.707106781186548, 1.), (1., 0.707106781186548, 1., 0.707106781186548, 1., 0.707106781186548, 1., 0.707106781186548, 1.)))
   REPRESENTATION_ITEM ('')
   SURFACE ()
);
#71 = CARTESIAN_POINT('', (-8., -4.09906311545837E-15, -0.799999999999997));
#72 = CARTESIAN_POINT('', (-8., 7.99999999999999, -0.800000000000044));
#73 = CARTESIAN_POINT('', (6.56881956236551E-16, 7.99999999999999, -0.800000000000044));
#74 = CARTESIAN_POINT('', (8., 7.99999999999999, -0.800000000000044));
#75 = CARTESIAN_POINT('', (8., -5.57936048162525E-15, -0.799999999999997));
#76 = CARTESIAN_POINT('', (8., -8.00000000000001, -0.799999999999951));
#77 = CARTESIAN_POINT('', (1.56302029387557E-16, -8.00000000000001, -0.799999999999951));
#78 = CARTESIAN_POINT('', (-8., -8.00000000000001, -0.799999999999951));
#79 = CARTESIAN_POINT('', (-8., -4.09906311545837E-15, -0.799999999999997));
#80 = CARTESIAN_POINT('', (-7.2, 4.40872847693047E-16, 0.));
#81 = CARTESIAN_POINT('', (-7.2, 7.2, -4.19664303308311E-14));
#82 = CARTESIAN_POINT('', (5.82867087928207E-16, 7.2, -4.19664303308311E-14));
#83 = CARTESIAN_POINT('', (7.2, 7.2, -4.19664303308311E-14));
#84 = CARTESIAN_POINT('', (7.2, -8.9139478185714E-16, -5.23801307078189E-30));
#85 = CARTESIAN_POINT('', (7.2, -7.2, 4.19664303308311E-14));
#86 = CARTESIAN_POINT('', (1.32345153764114E-16, -7.2, 4.19664303308311E-14));
#87 = CARTESIAN_POINT('', (-7.2, -7.2, 4.19664303308311E-14));
#88 = CARTESIAN_POINT('', (-7.2, 4.40872847693047E-16, 0.));
#89 = ADVANCED_FACE('', (#90), #93, .T.);
#90 = FACE_OUTER_BOUND('', #91, .T.);
#91 = EDGE_LOOP('', (#92));
#92 = ORIENTED_EDGE('', *, *, #62, .F.);
#93 = B_SPLINE_SURFACE_WITH_KNOTS('', 1, 1, ((#94, #95), (#96, #97)), .UNSPECIFIED., .F., .F., .U., (2, 2), (2, 2), (0.0454545454545454, 0.954545454545455), (0.0454545454545454, 0.954545454545454), .UNSPECIFIED.);
#94 = CARTESIAN_POINT('', (7.2, -7.2, -4.40872847693047E-16));
#95 = CARTESIAN_POINT('', (-7.2, -7.2, -4.40872847693047E-16));
#96 = CARTESIAN_POINT('', (7.2, 7.2, 4.40872847693047E-16));
#97 = CARTESIAN_POINT('', (-7.2, 7.2, 4.40872847693047E-16));
#98 = ADVANCED_FACE('', (#99), #118, .T.);
#99 = FACE_OUTER_BOUND('', #100, .T.);
#100 = EDGE_LOOP('', (#101, #110, #116, #117));
#101 = ORIENTED_EDGE('', *, *, #102, .F.);
#102 = EDGE_CURVE('', #103, #103, #105, .T.);
#103 = VERTEX_POINT('', #104);
#104 = CARTESIAN_POINT('', (-8., 4.13318294712232E-15, -59.5));
#105 = CIRCLE('', #106, 8.);
#106 = AXIS2_PLACEMENT_3D('', #107, #108, #109);
#107 = CARTESIAN_POINT('', (4.44089209850063E-16, 7.54951656745106E-15, -59.5));
#108 = DIRECTION('', (0., 0., -1.));
#109 = DIRECTION('', (-1., -4.27041702541093E-16, 0.));
#110 = ORIENTED_EDGE('', *, *, #111, .F.);
#111 = EDGE_CURVE('', #8, #103, #112, .T.);
#112 = LINE('', #113, #114);
#113 = CARTESIAN_POINT('', (-8., 3.42901103761259E-15, -48.));
#114 = VECTOR('', #115, 11.5);
#115 = DIRECTION('', (0., 7.0417190950973E-16, -11.5));
#116 = ORIENTED_EDGE('', *, *, #25, .T.);
#117 = ORIENTED_EDGE('', *, *, #111, .T.);
#118 = (
   BOUNDED_SURFACE ()
   B_SPLINE_SURFACE (2, 1, ((#119, #120), (#121, #122), (#123, #124), (#125, #126), (#127, #128), (#129, #130), (#131, #132), (#133, #134), (#135, #136)), .UNSPECIFIED., .T., .F., .U.)
   B_SPLINE_SURFACE_WITH_KNOTS ((3, 2, 2, 2, 3), (2, 2), (0., 12.5663706143592, 25.1327412287184, 37.6991118430775, 50.2654824574367), (0., 0.280487804878049), .UNSPECIFIED.)
   GEOMETRIC_REPRESENTATION_ITEM ()
   RATIONAL_B_SPLINE_SURFACE (((1., 1.), (0.707106781186548, 0.707106781186548), (1., 1.), (0.707106781186548, 0.707106781186548), (1., 1.), (0.707106781186548, 0.707106781186548), (1., 1.), (0.707106781186548, 0.707106781186548), (1., 1.)))
   REPRESENTATION_ITEM ('')
   SURFACE ()
);
#119 = CARTESIAN_POINT('', (-8., 3.42901103761259E-15, -48.));
#120 = CARTESIAN_POINT('', (-8., 6.53763550656303E-15, -59.5));
#121 = CARTESIAN_POINT('', (-7.99999999999999, 8., -48.));
#122 = CARTESIAN_POINT('', (-7.99999999999999, 8.00000000000001, -59.5));
#123 = CARTESIAN_POINT('', (4.21590879627258E-15, 8., -48.));
#124 = CARTESIAN_POINT('', (4.21590879627258E-15, 8., -59.5));
#125 = CARTESIAN_POINT('', (8., 8., -48.));
#126 = CARTESIAN_POINT('', (8., 8., -59.5));
#127 = CARTESIAN_POINT('', (8., -3.33747201799483E-15, -48.));
#128 = CARTESIAN_POINT('', (8., -2.28847549044395E-16, -59.5));
#129 = CARTESIAN_POINT('', (8., -8., -48.));
#130 = CARTESIAN_POINT('', (8., -8., -59.5));
#131 = CARTESIAN_POINT('', (-1.57085682001696E-15, -8., -48.));
#132 = CARTESIAN_POINT('', (-1.57085682001696E-15, -8., -59.5));
#133 = CARTESIAN_POINT('', (-8., -8., -48.));
#134 = CARTESIAN_POINT('', (-8., -7.99999999999999, -59.5));
#135 = CARTESIAN_POINT('', (-8., 3.42901103761259E-15, -48.));
#136 = CARTESIAN_POINT('', (-8., 6.53763550656303E-15, -59.5));
#137 = ADVANCED_FACE('', (#138), #141, .T.);
#138 = FACE_OUTER_BOUND('', #139, .T.);
#139 = EDGE_LOOP('', (#140));
#140 = ORIENTED_EDGE('', *, *, #102, .T.);
#141 = B_SPLINE_SURFACE_WITH_KNOTS('', 1, 1, ((#142, #143), (#144, #145)), .UNSPECIFIED., .F., .F., .U., (2, 2), (2, 2), (0.470170633000909, 0.55461069451903), (0.44538930548097, 0.529829366999091), .UNSPECIFIED.);
#142 = CARTESIAN_POINT('', (-8.00000000000003, 8.00000000000003, -59.5));
#143 = CARTESIAN_POINT('', (-8.00000000000003, -7.99999999999999, -59.5));
#144 = CARTESIAN_POINT('', (7.99999999999997, 8.00000000000003, -59.5));
#145 = CARTESIAN_POINT('', (7.99999999999997, -7.99999999999999, -59.5));
#146 = DRAUGHTING_MODEL('', (#154, #278, #326, #331, #336, #341, #346, #351), #365);
#147 = PRESENTATION_STYLE_ASSIGNMENT((#148));
#148 = SURFACE_STYLE_USAGE(.POSITIVE., #149);
#149 = SURFACE_SIDE_STYLE('', (#150));
#150 = SURFACE_STYLE_FILL_AREA(#151);
#151 = FILL_AREA_STYLE('', (#152));
#152 = FILL_AREA_STYLE_COLOUR('', #153);
#153 = COLOUR_RGB('', 0.50196078431373, 0.50196078431373, 0.50196078431373);
#154 = STYLED_ITEM('', (#147), #1);
#155 = MANIFOLD_SOLID_BREP('CUT', #156);
#156 = CLOSED_SHELL('', (#157, #174, #213, #262));
#157 = ADVANCED_FACE('', (#158), #169, .T.);
#158 = FACE_OUTER_BOUND('', #159, .T.);
#159 = EDGE_LOOP('', (#160));
#160 = ORIENTED_EDGE('', *, *, #161, .F.);
#161 = EDGE_CURVE('', #162, #162, #164, .T.);
#162 = VERTEX_POINT('', #163);
#163 = CARTESIAN_POINT('', (-8., 4.13318294712232E-15, -59.5));
#164 = CIRCLE('', #165, 8.);
#165 = AXIS2_PLACEMENT_3D('', #166, #167, #168);
#166 = CARTESIAN_POINT('', (4.44089209850063E-16, 7.54951656745106E-15, -59.5));
#167 = DIRECTION('', (0., 0., -1.));
#168 = DIRECTION('', (-1., -4.27041702541093E-16, 0.));
#169 = B_SPLINE_SURFACE_WITH_KNOTS('', 1, 1, ((#170, #171), (#172, #173)), .UNSPECIFIED., .F., .F., .U., (2, 2), (2, 2), (0.44538930548097, 0.529829366999091), (0.470170633000909, 0.55461069451903), .UNSPECIFIED.);
#170 = CARTESIAN_POINT('', (-8., 8., -59.5));
#171 = CARTESIAN_POINT('', (8., 8., -59.5));
#172 = CARTESIAN_POINT('', (-8., -8.00000000000001, -59.5));
#173 = CARTESIAN_POINT('', (8., -8.00000000000001, -59.5));
#174 = ADVANCED_FACE('', (#175), #194, .T.);
#175 = FACE_OUTER_BOUND('', #176, .T.);
#176 = EDGE_LOOP('', (#177, #178, #186, #193));
#177 = ORIENTED_EDGE('', *, *, #161, .T.);
#178 = ORIENTED_EDGE('', *, *, #179, .T.);
#179 = EDGE_CURVE('', #162, #180, #182, .T.);
#180 = VERTEX_POINT('', #181);
#181 = CARTESIAN_POINT('', (-8., 5.93953697586466E-15, -89.));
#182 = LINE('', #183, #184);
#183 = CARTESIAN_POINT('', (-8., 4.13318294712232E-15, -59.5));
#184 = VECTOR('', #185, 29.5);
#185 = DIRECTION('', (0., 1.80635402874234E-15, -29.5));
#186 = ORIENTED_EDGE('', *, *, #187, .F.);
#187 = EDGE_CURVE('', #180, #180, #188, .T.);
#188 = CIRCLE('', #189, 8.);
#189 = AXIS2_PLACEMENT_3D('', #190, #191, #192);
#190 = CARTESIAN_POINT('', (7.7715611723761E-16, 5.77315972805081E-15, -89.));
#191 = DIRECTION('', (0., 0., -1.));
#192 = DIRECTION('', (-1., 2.07971559767308E-17, 0.));
#193 = ORIENTED_EDGE('', *, *, #179, .F.);
#194 = (
   BOUNDED_SURFACE ()
   B_SPLINE_SURFACE (2, 1, ((#195, #196), (#197, #198), (#199, #200), (#201, #202), (#203, #204), (#205, #206), (#207, #208), (#209, #210), (#211, #212)), .UNSPECIFIED., .T., .F., .U.)
   B_SPLINE_SURFACE_WITH_KNOTS ((3, 2, 2, 2, 3), (2, 2), (0., 12.5663706143592, 25.1327412287184, 37.6991118430775, 50.2654824574367), (0.280487804878049, 1.), .UNSPECIFIED.)
   GEOMETRIC_REPRESENTATION_ITEM ()
   RATIONAL_B_SPLINE_SURFACE (((1., 1.), (0.707106781186548, 0.707106781186548), (1., 1.), (0.707106781186548, 0.707106781186548), (1., 1.), (0.707106781186548, 0.707106781186548), (1., 1.), (0.707106781186548, 0.707106781186548), (1., 1.)))
   REPRESENTATION_ITEM ('')
   SURFACE ()
);
#195 = CARTESIAN_POINT('', (-8., 4.13318294712232E-15, -59.5));
#196 = CARTESIAN_POINT('', (-8., 7.24180741607276E-15, -89.));
#197 = CARTESIAN_POINT('', (-8., 8., -59.5));
#198 = CARTESIAN_POINT('', (-8., 8.00000000000001, -89.));
#199 = CARTESIAN_POINT('', (1.47838932944432E-15, 8., -59.5));
#200 = CARTESIAN_POINT('', (1.47838932944432E-15, 8.00000000000001, -89.));
#201 = CARTESIAN_POINT('', (8., 8., -59.5));
#202 = CARTESIAN_POINT('', (8., 8., -89.));
#203 = CARTESIAN_POINT('', (8., 2.17560501039631E-15, -59.5));
#204 = CARTESIAN_POINT('', (8., 5.28422947934675E-15, -89.));
#205 = CARTESIAN_POINT('', (8., -8., -59.5));
#206 = CARTESIAN_POINT('', (8., -7.99999999999999, -89.));
#207 = CARTESIAN_POINT('', (5.005288320362E-16, -8., -59.5));
#208 = CARTESIAN_POINT('', (5.005288320362E-16, -7.99999999999999, -89.));
#209 = CARTESIAN_POINT('', (-8., -8., -59.5));
#210 = CARTESIAN_POINT('', (-8., -7.99999999999999, -89.));
#211 = CARTESIAN_POINT('', (-8., 4.13318294712232E-15, -59.5));
#212 = CARTESIAN_POINT('', (-8., 7.24180741607276E-15, -89.));
#213 = ADVANCED_FACE('', (#214), #234, .T.);
#214 = FACE_OUTER_BOUND('', #215, .T.);
#215 = EDGE_LOOP('', (#216, #225, #226, #227));
#216 = ORIENTED_EDGE('', *, *, #217, .F.);
#217 = EDGE_CURVE('', #180, #218, #220, .T.);
#218 = VERTEX_POINT('', #219);
#219 = CARTESIAN_POINT('', (-5., 5.93953697586466E-15, -92.));
#220 = CIRCLE('', #221, 2.99999999999998);
#221 = AXIS2_PLACEMENT_3D('', #222, #223, #224);
#222 = CARTESIAN_POINT('', (-5.00000000000002, 5.75583995599255E-15, -89.));
#223 = DIRECTION('', (-6.12323399573698E-17, -1., -6.123233995737E-17));
#224 = DIRECTION('', (-1., 6.12323399573695E-17, 4.73695157173403E-15));
#225 = ORIENTED_EDGE('', *, *, #187, .T.);
#226 = ORIENTED_EDGE('', *, *, #217, .T.);
#227 = ORIENTED_EDGE('', *, *, #228, .F.);
#228 = EDGE_CURVE('', #218, #218, #229, .T.);
#229 = CIRCLE('', #230, 5.);
#230 = AXIS2_PLACEMENT_3D('', #231, #232, #233);
#231 = CARTESIAN_POINT('', (-3.19189119579733E-16, 7.88258347483861E-15, -92.));
#232 = DIRECTION('', (0., 0., -1.));
#233 = DIRECTION('', (-1., -3.8860929979479E-16, 0.));
#234 = (
   BOUNDED_SURFACE ()
   B_SPLINE_SURFACE (2, 2, ((#235, #236, #237), (#238, #239, #240), (#241, #242, #243), (#244, #245, #246), (#247, #248, #249), (#250, #251, #252), (#253, #254, #255), (#256, #257, #258), (#259, #260, #261)), .UNSPECIFIED., .T., .F., .U.)
   B_SPLINE_SURFACE_WITH_KNOTS ((3, 2, 2, 2, 3), (3, 3), (0., 0.25, 0.5, 0.75, 1.), (0., 1.), .UNSPECIFIED.)
   GEOMETRIC_REPRESENTATION_ITEM ()
   RATIONAL_B_SPLINE_SURFACE (((1., 0.707106781186548, 1.), (0.707106781186548, 0.5, 0.707106781186548), (1., 0.707106781186548, 1.), (0.707106781186548, 0.5, 0.707106781186548), (1., 0.707106781186548, 1.), (0.707106781186548, 0.5, 0.707106781186548), (1., 0.707106781186548, 1.), (0.707106781186548, 0.5, 0.707106781186548), (1., 0.707106781186548, 1.)))
   REPRESENTATION_ITEM ('')
   SURFACE ()
);
#235 = CARTESIAN_POINT('', (-8., 5.93953697586466E-15, -89.));
#236 = CARTESIAN_POINT('', (-8., 6.12323399573677E-15, -92.));
#237 = CARTESIAN_POINT('', (-5., 5.93953697586466E-15, -92.));
#238 = CARTESIAN_POINT('', (-8., 8.00000000000001, -89.));
#239 = CARTESIAN_POINT('', (-8., 8.00000000000001, -92.));
#240 = CARTESIAN_POINT('', (-5., 5.00000000000001, -92.));
#241 = CARTESIAN_POINT('', (-3.78992623076353E-16, 8.00000000000001, -89.));
#242 = CARTESIAN_POINT('', (-1.95295603204243E-16, 8.00000000000001, -92.));
#243 = CARTESIAN_POINT('', (-1.9529560320425E-16, 5.00000000000001, -92.));
#244 = CARTESIAN_POINT('', (8., 8.00000000000001, -89.));
#245 = CARTESIAN_POINT('', (8., 8.00000000000001, -92.));
#246 = CARTESIAN_POINT('', (5., 5.00000000000001, -92.));
#247 = CARTESIAN_POINT('', (8., 7.47467833925498E-15, -89.));
#248 = CARTESIAN_POINT('', (8., 7.29098131938287E-15, -92.));
#249 = CARTESIAN_POINT('', (5., 7.10728429951077E-15, -92.));
#250 = CARTESIAN_POINT('', (8., -7.99999999999999, -89.));
#251 = CARTESIAN_POINT('', (8., -7.99999999999999, -92.));
#252 = CARTESIAN_POINT('', (5., -4.99999999999999, -92.));
#253 = CARTESIAN_POINT('', (2.13586617963184E-15, -7.99999999999999, -89.));
#254 = CARTESIAN_POINT('', (1.95216915975974E-15, -7.99999999999999, -92.));
#255 = CARTESIAN_POINT('', (1.58477512001554E-15, -4.99999999999999, -92.));
#256 = CARTESIAN_POINT('', (-8., -7.99999999999999, -89.));
#257 = CARTESIAN_POINT('', (-8., -7.99999999999999, -92.));
#258 = CARTESIAN_POINT('', (-5., -4.99999999999999, -92.));
#259 = CARTESIAN_POINT('', (-8., 5.93953697586466E-15, -89.));
#260 = CARTESIAN_POINT('', (-8., 6.12323399573677E-15, -92.));
#261 = CARTESIAN_POINT('', (-5., 5.93953697586466E-15, -92.));
#262 = ADVANCED_FACE('', (#263), #266, .T.);
#263 = FACE_OUTER_BOUND('', #264, .T.);
#264 = EDGE_LOOP('', (#265));
#265 = ORIENTED_EDGE('', *, *, #228, .T.);
#266 = B_SPLINE_SURFACE_WITH_KNOTS('', 1, 1, ((#267, #268), (#269, #270)), .UNSPECIFIED., .F., .F., .U., (2, 2), (2, 2), (0.0454545454545454, 0.954545454545455), (0.0454545454545454, 0.954545454545455), .UNSPECIFIED.);
#267 = CARTESIAN_POINT('', (5., -4.99999999999999, -92.));
#268 = CARTESIAN_POINT('', (5., 5., -92.));
#269 = CARTESIAN_POINT('', (-5., -4.99999999999999, -92.));
#270 = CARTESIAN_POINT('', (-5., 5., -92.));
#271 = PRESENTATION_STYLE_ASSIGNMENT((#272));
#272 = SURFACE_STYLE_USAGE(.POSITIVE., #273);
#273 = SURFACE_SIDE_STYLE('', (#274));
#274 = SURFACE_STYLE_FILL_AREA(#275);
#275 = FILL_AREA_STYLE('', (#276));
#276 = FILL_AREA_STYLE_COLOUR('', #277);
#277 = COLOUR_RGB('', 0.8, 0.8, 0.8);
#278 = STYLED_ITEM('', (#271), #155);
#279 = TRIMMED_CURVE('cutting part line', #280, (#284), (#285), .T., .CARTESIAN.);
#280 = LINE('', #281, #282);
#281 = CARTESIAN_POINT('', (8.32667268468867E-17, 0., -92.));
#282 = VECTOR('', #283, 5.);
#283 = DIRECTION('', (5., 0., 0.));
#284 = CARTESIAN_POINT('', (8.32667268468867E-17, 0., -92.));
#285 = CARTESIAN_POINT('', (5., 0., -92.));
#286 = TRIMMED_CURVE('cutting part line', #287, (#292), (#293), .T., .CARTESIAN.);
#287 = CIRCLE('', #288, 3.);
#288 = AXIS2_PLACEMENT_3D('', #289, #290, #291);
#289 = CARTESIAN_POINT('', (5., 6.0843057649072E-15, -89.));
#290 = DIRECTION('', (-1.94289029309403E-16, -1., 6.4763009769801E-17));
#291 = DIRECTION('', (1.48029736616688E-15, -6.47630097698013E-17, -1.));
#292 = CARTESIAN_POINT('', (5., 5.89001673559779E-15, -92.));
#293 = CARTESIAN_POINT('', (8., 5.50143867697899E-15, -89.));
#294 = TRIMMED_CURVE('cutting part line', #295, (#299), (#300), .T., .CARTESIAN.);
#295 = LINE('', #296, #297);
#296 = CARTESIAN_POINT('', (8., 3.10815101038686E-15, -89.));
#297 = VECTOR('', #298, 29.5);
#298 = DIRECTION('', (0., -3.10815101038686E-15, 29.5));
#299 = CARTESIAN_POINT('', (8., 3.10815101038686E-15, -89.));
#300 = CARTESIAN_POINT('', (8., 0., -59.5));
#301 = TRIMMED_CURVE('cutting part line', #302, (#306), (#307), .T., .CARTESIAN.);
#302 = LINE('', #303, #304);
#303 = CARTESIAN_POINT('', (8., 0., -59.5));
#304 = VECTOR('', #305, 8.);
#305 = DIRECTION('', (-8., 0., 0.));
#306 = CARTESIAN_POINT('', (8., 0., -59.5));
#307 = CARTESIAN_POINT('', (0., 0., -59.5));
#308 = TRIMMED_CURVE('cutting part line', #309, (#313), (#314), .T., .CARTESIAN.);
#309 = LINE('', #310, #311);
#310 = CARTESIAN_POINT('', (0., 0., -59.5));
#311 = VECTOR('', #312, 32.5);
#312 = DIRECTION('', (0., 0., -32.5));
#313 = CARTESIAN_POINT('', (0., 0., -59.5));
#314 = CARTESIAN_POINT('', (0., 0., -92.));
#315 = COMPOSITE_CURVE('cutting part line', (#316, #317, #318, #319, #320), .U.);
#316 = COMPOSITE_CURVE_SEGMENT(.CONTINUOUS., .T., #279);
#317 = COMPOSITE_CURVE_SEGMENT(.CONTINUOUS., .T., #286);
#318 = COMPOSITE_CURVE_SEGMENT(.CONTINUOUS., .T., #294);
#319 = COMPOSITE_CURVE_SEGMENT(.CONTINUOUS., .T., #301);
#320 = COMPOSITE_CURVE_SEGMENT(.CONTINUOUS., .T., #308);
#321 = GEOMETRIC_SET('', (#315, #364));
#322 = PRESENTATION_STYLE_ASSIGNMENT((#323));
#323 = CURVE_STYLE('', #325, POSITIVE_LENGTH_MEASURE(1.E-6), #324);
#324 = COLOUR_RGB('', 0., 0., 1.);
#325 = DRAUGHTING_PRE_DEFINED_CURVE_FONT('continuous');
#326 = STYLED_ITEM('', (#322), #315);
#327 = PRESENTATION_STYLE_ASSIGNMENT((#328));
#328 = CURVE_STYLE('', #330, POSITIVE_LENGTH_MEASURE(1.E-6), #329);
#329 = COLOUR_RGB('', 0., 0., 1.);
#330 = DRAUGHTING_PRE_DEFINED_CURVE_FONT('continuous');
#331 = OVER_RIDING_STYLED_ITEM('', (#327), #279, #326);
#332 = PRESENTATION_STYLE_ASSIGNMENT((#333));
#333 = CURVE_STYLE('', #335, POSITIVE_LENGTH_MEASURE(1.E-6), #334);
#334 = COLOUR_RGB('', 0., 0., 1.);
#335 = DRAUGHTING_PRE_DEFINED_CURVE_FONT('continuous');
#336 = OVER_RIDING_STYLED_ITEM('', (#332), #286, #326);
#337 = PRESENTATION_STYLE_ASSIGNMENT((#338));
#338 = CURVE_STYLE('', #340, POSITIVE_LENGTH_MEASURE(1.E-6), #339);
#339 = COLOUR_RGB('', 0., 0., 1.);
#340 = DRAUGHTING_PRE_DEFINED_CURVE_FONT('continuous');
#341 = OVER_RIDING_STYLED_ITEM('', (#337), #294, #326);
#342 = PRESENTATION_STYLE_ASSIGNMENT((#343));
#343 = CURVE_STYLE('', #345, POSITIVE_LENGTH_MEASURE(1.E-6), #344);
#344 = COLOUR_RGB('', 0., 0., 1.);
#345 = DRAUGHTING_PRE_DEFINED_CURVE_FONT('continuous');
#346 = OVER_RIDING_STYLED_ITEM('', (#342), #301, #326);
#347 = PRESENTATION_STYLE_ASSIGNMENT((#348));
#348 = CURVE_STYLE('', #350, POSITIVE_LENGTH_MEASURE(1.E-6), #349);
#349 = COLOUR_RGB('', 0., 0., 1.);
#350 = DRAUGHTING_PRE_DEFINED_CURVE_FONT('continuous');
#351 = OVER_RIDING_STYLED_ITEM('', (#347), #308, #326);
#352 = AXIS2_PLACEMENT_3D('MCS', #353, #354, #355);
#353 = CARTESIAN_POINT('', (0., 0., -48.));
#354 = DIRECTION('', (0., 0., 1.));
#355 = DIRECTION('', (1., 0., 0.));
#356 = AXIS2_PLACEMENT_3D('PCS', #357, #358, #359);
#357 = CARTESIAN_POINT('', (0., 0., 0.));
#358 = DIRECTION('', (0., 0., 1.));
#359 = DIRECTION('', (1., 0., 0.));
#360 = AXIS2_PLACEMENT_3D('CIP', #361, #362, #363);
#361 = CARTESIAN_POINT('', (0., 0., -92.));
#362 = DIRECTION('', (0., 0., 1.));
#363 = DIRECTION('', (1., 0., 0.));
#364 = CARTESIAN_POINT('CRP', (8., 0., -92.));
#365 = (
   GEOMETRIC_REPRESENTATION_CONTEXT (3)
   GLOBAL_UNCERTAINTY_ASSIGNED_CONTEXT ((#367))
   GLOBAL_UNIT_ASSIGNED_CONTEXT ((#366, #368, #369))
   REPRESENTATION_CONTEXT ('', '3D')
);
#366 = (
   LENGTH_UNIT ()
   NAMED_UNIT (*)
   SI_UNIT (.MILLI., .METRE.)
);
#367 = UNCERTAINTY_MEASURE_WITH_UNIT(LENGTH_MEASURE(1.E-6), #366, 'DISTANCE_ACCURACY_VALUE', '');
#368 = (
   NAMED_UNIT (*)
   SI_UNIT ($, .STERADIAN.)
   SOLID_ANGLE_UNIT ()
);
#369 = (
   NAMED_UNIT (*)
   PLANE_ANGLE_UNIT ()
   SI_UNIT ($, .RADIAN.)
);
#370 = SHAPE_REPRESENTATION('', (), #365);
#371 = PRODUCT_DEFINITION_SHAPE('', '', #372);
#372 = PRODUCT_DEFINITION('', '', #375, #379);
#373 = APPLICATION_CONTEXT('configuration controlled 3D designs of mechanical parts and assemblies');
#374 = APPLICATION_PROTOCOL_DEFINITION('International Standard', 'automotive_design', 2002, #373);
#375 = PRODUCT_DEFINITION_FORMATION_WITH_SPECIFIED_SOURCE('', '', #376, .NOT_KNOWN.);
#376 = PRODUCT('product-name', '2S340-1600-300-MA   1640', '', (#377));
#377 = PRODUCT_CONTEXT('', #373, 'mechanical');
#378 = PRODUCT_RELATED_PRODUCT_CATEGORY('detail', '', (#376));
#379 = PRODUCT_DEFINITION_CONTEXT('part definition', #373, 'design');
#380 = SHAPE_DEFINITION_REPRESENTATION(#371, #370);
#381 = CONSTRUCTIVE_GEOMETRY_REPRESENTATION('supplemental geometry', (#352, #356, #360), #365);
#382 = CONSTRUCTIVE_GEOMETRY_REPRESENTATION_RELATIONSHIP('', '', #370, #381);
#383 = SHAPE_REPRESENTATION_RELATIONSHIP('', '', #370, #384);
#384 = SHAPE_REPRESENTATION('', (#321), #365);
#385 = SHAPE_REPRESENTATION_RELATIONSHIP('', '', #370, #386);
#386 = ADVANCED_BREP_SHAPE_REPRESENTATION('', (#1, #155), #365);
ENDSEC;
END-ISO-10303-21;
