ISO-10303-21;
HEADER;
FILE_DESCRIPTION(('STEP'), '1');
FILE_NAME('C:\\Users\\ds2002\\OneDrive - Sandvik\\HomeShare\\Documents\\Batchrepair\\CorSRT2\\NEW_MILSQ_SLD\\Output\\MOD000000000000000020082330100000.stp', '2019-01-02T12:08:39', (''), (''), 'Express v3.0.0.0', 'Express Tool', 'Unknown');
FILE_SCHEMA(('AUTOMOTIVE_DESIGN'));
ENDSEC;

DATA;
#1 = MANIFOLD_SOLID_BREP('NOCUT', #2);
#2 = CLOSED_SHELL('', (#3, #50, #89, #98, #137));
#3 = ADVANCED_FACE('', (#4), #31, .T.);
#4 = FACE_OUTER_BOUND('', #5, .T.);
#5 = EDGE_LOOP('', (#6, #16, #23, #24));
#6 = ORIENTED_EDGE('', *, *, #7, .T.);
#7 = EDGE_CURVE('', #8, #10, #12, .T.);
#8 = VERTEX_POINT('', #9);
#9 = CARTESIAN_POINT('', (-6., 3.12284933782575E-15, -45.));
#10 = VERTEX_POINT('', #11);
#11 = CARTESIAN_POINT('', (-6., 4.04133443718627E-16, -0.600000000000001));
#12 = LINE('', #13, #14);
#13 = CARTESIAN_POINT('', (-6., 3.12284933782575E-15, -45.));
#14 = VECTOR('', #15, 44.4);
#15 = DIRECTION('', (0., -2.71871589410712E-15, 44.4));
#16 = ORIENTED_EDGE('', *, *, #17, .T.);
#17 = EDGE_CURVE('', #10, #10, #18, .T.);
#18 = CIRCLE('', #19, 6.);
#19 = AXIS2_PLACEMENT_3D('', #20, #21, #22);
#20 = CARTESIAN_POINT('', (1.47104550762833E-15, -5.55111512312578E-16, -0.600000000000001));
#21 = DIRECTION('', (-1.85037170770859E-17, 1.23176547656001E-16, -1.));
#22 = DIRECTION('', (-1., 1.59874159338534E-16, 1.85037170770859E-17));
#23 = ORIENTED_EDGE('', *, *, #7, .F.);
#24 = ORIENTED_EDGE('', *, *, #25, .F.);
#25 = EDGE_CURVE('', #8, #8, #26, .T.);
#26 = CIRCLE('', #27, 6.);
#27 = AXIS2_PLACEMENT_3D('', #28, #29, #30);
#28 = CARTESIAN_POINT('', (5.55111512312578E-16, 2.33146835171283E-15, -45.));
#29 = DIRECTION('', (0., 0., -1.));
#30 = DIRECTION('', (-1., 1.3189683101882E-16, 0.));
#31 = (
   BOUNDED_SURFACE ()
   B_SPLINE_SURFACE (1, 2, ((#32, #33, #34, #35, #36, #37, #38, #39, #40), (#41, #42, #43, #44, #45, #46, #47, #48, #49)), .UNSPECIFIED., .F., .T., .U.)
   B_SPLINE_SURFACE_WITH_KNOTS ((2, 2), (3, 2, 2, 2, 3), (0., 1.), (0., 9.42477796076938, 18.8495559215388, 28.2743338823081, 37.6991118430775), .UNSPECIFIED.)
   GEOMETRIC_REPRESENTATION_ITEM ()
   RATIONAL_B_SPLINE_SURFACE (((1., 0.707106781186548, 1., 0.707106781186548, 1., 0.707106781186548, 1., 0.707106781186548, 1.), (1., 0.707106781186548, 1., 0.707106781186548, 1., 0.707106781186548, 1., 0.707106781186548, 1.)))
   REPRESENTATION_ITEM ('')
   SURFACE ()
);
#32 = CARTESIAN_POINT('', (-6., -3.99557661314357E-17, -45.));
#33 = CARTESIAN_POINT('', (-6., 6., -45.));
#34 = CARTESIAN_POINT('', (1.24133138569272E-15, 6., -45.));
#35 = CARTESIAN_POINT('', (6., 6., -45.));
#36 = CARTESIAN_POINT('', (6., -1.22365759870543E-15, -45.));
#37 = CARTESIAN_POINT('', (6., -6., -45.));
#38 = CARTESIAN_POINT('', (7.92417632607129E-16, -6., -45.));
#39 = CARTESIAN_POINT('', (-6., -6., -45.));
#40 = CARTESIAN_POINT('', (-6., -3.99557661314357E-17, -45.));
#41 = CARTESIAN_POINT('', (-6., 4.04133443718627E-16, -0.600000000000001));
#42 = CARTESIAN_POINT('', (-6., 6., -0.600000000000001));
#43 = CARTESIAN_POINT('', (2.06289642391533E-15, 6., -0.600000000000001));
#44 = CARTESIAN_POINT('', (6., 6., -0.600000000000001));
#45 = CARTESIAN_POINT('', (6., -7.79568388855371E-16, -0.600000000000001));
#46 = CARTESIAN_POINT('', (6., -6., -0.600000000000001));
#47 = CARTESIAN_POINT('', (1.61398267082975E-15, -6., -0.600000000000001));
#48 = CARTESIAN_POINT('', (-6., -6., -0.600000000000001));
#49 = CARTESIAN_POINT('', (-6., 4.04133443718627E-16, -0.600000000000001));
#50 = ADVANCED_FACE('', (#51), #70, .T.);
#51 = FACE_OUTER_BOUND('', #52, .T.);
#52 = EDGE_LOOP('', (#53, #61, #68, #69));
#53 = ORIENTED_EDGE('', *, *, #54, .T.);
#54 = EDGE_CURVE('', #10, #55, #57, .T.);
#55 = VERTEX_POINT('', #56);
#56 = CARTESIAN_POINT('', (-5.4, 3.30654635769785E-16, 0.));
#57 = LINE('', #58, #59);
#58 = CARTESIAN_POINT('', (-6., 4.04133443718627E-16, -0.600000000000001));
#59 = VECTOR('', #60, 0.848528137423857);
#60 = DIRECTION('', (0.6, -7.3478807948842E-17, 0.600000000000001));
#61 = ORIENTED_EDGE('', *, *, #62, .T.);
#62 = EDGE_CURVE('', #55, #55, #63, .T.);
#63 = CIRCLE('', #64, 5.4);
#64 = AXIS2_PLACEMENT_3D('', #65, #66, #67);
#65 = CARTESIAN_POINT('', (1.84574577843932E-15, -2.55351295663786E-15, -1.4791141972894E-31));
#66 = DIRECTION('', (5.31350199692362E-33, 6.12323399573676E-17, -1.));
#67 = DIRECTION('', (-1., 5.34105109705119E-16, 2.73910036535073E-32));
#68 = ORIENTED_EDGE('', *, *, #54, .F.);
#69 = ORIENTED_EDGE('', *, *, #17, .F.);
#70 = (
   BOUNDED_SURFACE ()
   B_SPLINE_SURFACE (1, 2, ((#71, #72, #73, #74, #75, #76, #77, #78, #79), (#80, #81, #82, #83, #84, #85, #86, #87, #88)), .UNSPECIFIED., .F., .T., .U.)
   B_SPLINE_SURFACE_WITH_KNOTS ((2, 2), (3, 2, 2, 2, 3), (0., 1.), (0., 0.25, 0.5, 0.75, 1.), .UNSPECIFIED.)
   GEOMETRIC_REPRESENTATION_ITEM ()
   RATIONAL_B_SPLINE_SURFACE (((1., 0.707106781186548, 1., 0.707106781186548, 1., 0.707106781186548, 1., 0.707106781186548, 1.), (1., 0.707106781186548, 1., 0.707106781186548, 1., 0.707106781186548, 1., 0.707106781186548, 1.)))
   REPRESENTATION_ITEM ('')
   SURFACE ()
);
#71 = CARTESIAN_POINT('', (-6., 2.98258605330568E-15, -0.600000000000001));
#72 = CARTESIAN_POINT('', (-6., 6., -0.599999999999978));
#73 = CARTESIAN_POINT('', (4.68298239692583E-15, 6., -0.599999999999978));
#74 = CARTESIAN_POINT('', (6., 6., -0.599999999999978));
#75 = CARTESIAN_POINT('', (6., -2.69188718366733E-15, -0.600000000000001));
#76 = CARTESIAN_POINT('', (6., -6., -0.600000000000024));
#77 = CARTESIAN_POINT('', (-2.56702760558774E-16, -6., -0.600000000000024));
#78 = CARTESIAN_POINT('', (-6., -6., -0.600000000000024));
#79 = CARTESIAN_POINT('', (-6., 2.98258605330568E-15, -0.600000000000001));
#80 = CARTESIAN_POINT('', (-5.4, 3.30654635769784E-16, -6.56858655152258E-47));
#81 = CARTESIAN_POINT('', (-5.4, 5.4, 2.09832151654154E-14));
#82 = CARTESIAN_POINT('', (4.39925873507718E-15, 5.4, 2.09832151654154E-14));
#83 = CARTESIAN_POINT('', (5.4, 5.4, 2.09832151654154E-14));
#84 = CARTESIAN_POINT('', (5.4, -4.77637127750593E-15, 2.27387988935674E-30));
#85 = CARTESIAN_POINT('', (5.4, -5.40000000000001, -2.09832151654154E-14));
#86 = CARTESIAN_POINT('', (-4.64579066589654E-17, -5.4, -2.09832151654154E-14));
#87 = CARTESIAN_POINT('', (-5.4, -5.4, -2.09832151654154E-14));
#88 = CARTESIAN_POINT('', (-5.4, 3.30654635769784E-16, -6.56858655152258E-47));
#89 = ADVANCED_FACE('', (#90), #93, .T.);
#90 = FACE_OUTER_BOUND('', #91, .T.);
#91 = EDGE_LOOP('', (#92));
#92 = ORIENTED_EDGE('', *, *, #62, .F.);
#93 = B_SPLINE_SURFACE_WITH_KNOTS('', 1, 1, ((#94, #95), (#96, #97)), .UNSPECIFIED., .F., .F., .U., (2, 2), (2, 2), (0.0454545454545454, 0.954545454545454), (0.0454545454545454, 0.954545454545454), .UNSPECIFIED.);
#94 = CARTESIAN_POINT('', (5.4, -5.4, -3.30654635769785E-16));
#95 = CARTESIAN_POINT('', (-5.4, -5.4, -3.30654635769785E-16));
#96 = CARTESIAN_POINT('', (5.4, 5.4, 3.30654635769785E-16));
#97 = CARTESIAN_POINT('', (-5.4, 5.4, 3.30654635769785E-16));
#98 = ADVANCED_FACE('', (#99), #118, .T.);
#99 = FACE_OUTER_BOUND('', #100, .T.);
#100 = EDGE_LOOP('', (#101, #110, #116, #117));
#101 = ORIENTED_EDGE('', *, *, #102, .F.);
#102 = EDGE_CURVE('', #103, #103, #105, .T.);
#103 = VERTEX_POINT('', #104);
#104 = CARTESIAN_POINT('', (-6., 3.82702124733548E-15, -56.5));
#105 = CIRCLE('', #106, 6.);
#106 = AXIS2_PLACEMENT_3D('', #107, #108, #109);
#107 = CARTESIAN_POINT('', (1.02695629777827E-15, 1.55431223447522E-15, -56.5));
#108 = DIRECTION('', (1.52672950913392E-30, 4.03059828731658E-15, -1.));
#109 = DIRECTION('', (-1., 3.7878483547671E-16, 0.));
#110 = ORIENTED_EDGE('', *, *, #111, .F.);
#111 = EDGE_CURVE('', #8, #103, #112, .T.);
#112 = LINE('', #113, #114);
#113 = CARTESIAN_POINT('', (-6., 3.12284933782575E-15, -45.));
#114 = VECTOR('', #115, 11.5);
#115 = DIRECTION('', (0., 7.0417190950973E-16, -11.5));
#116 = ORIENTED_EDGE('', *, *, #25, .T.);
#117 = ORIENTED_EDGE('', *, *, #111, .T.);
#118 = (
   BOUNDED_SURFACE ()
   B_SPLINE_SURFACE (2, 1, ((#119, #120), (#121, #122), (#123, #124), (#125, #126), (#127, #128), (#129, #130), (#131, #132), (#133, #134), (#135, #136)), .UNSPECIFIED., .T., .F., .U.)
   B_SPLINE_SURFACE_WITH_KNOTS ((3, 2, 2, 2, 3), (2, 2), (0., 9.42477796076938, 18.8495559215388, 28.2743338823081, 37.6991118430775), (0., 0.315068493150685), .UNSPECIFIED.)
   GEOMETRIC_REPRESENTATION_ITEM ()
   RATIONAL_B_SPLINE_SURFACE (((1., 1.), (0.707106781186548, 0.707106781186548), (1., 1.), (0.707106781186548, 0.707106781186548), (1., 1.), (0.707106781186548, 0.707106781186548), (1., 1.), (0.707106781186548, 0.707106781186548), (1., 1.)))
   REPRESENTATION_ITEM ('')
   SURFACE ()
);
#119 = CARTESIAN_POINT('', (-6., 3.12284933782575E-15, -45.));
#120 = CARTESIAN_POINT('', (-6., 3.90000545506336E-15, -56.5));
#121 = CARTESIAN_POINT('', (-6., 6., -45.));
#122 = CARTESIAN_POINT('', (-6., 6.00000000000001, -56.5));
#123 = CARTESIAN_POINT('', (4.61507886432868E-15, 6., -45.));
#124 = CARTESIAN_POINT('', (4.61507886432868E-15, 6., -56.5));
#125 = CARTESIAN_POINT('', (6.00000000000001, 6., -45.));
#126 = CARTESIAN_POINT('', (6.00000000000001, 6., -56.5));
#127 = CARTESIAN_POINT('', (6., -4.38646270266262E-15, -45.));
#128 = CARTESIAN_POINT('', (6., -3.60930658542501E-15, -56.5));
#129 = CARTESIAN_POINT('', (6., -6.00000000000001, -45.));
#130 = CARTESIAN_POINT('', (6., -6., -56.5));
#131 = CARTESIAN_POINT('', (-2.15944509667128E-15, -6., -45.));
#132 = CARTESIAN_POINT('', (-2.15944509667128E-15, -6., -56.5));
#133 = CARTESIAN_POINT('', (-6., -6., -45.));
#134 = CARTESIAN_POINT('', (-6., -6., -56.5));
#135 = CARTESIAN_POINT('', (-6., 3.12284933782575E-15, -45.));
#136 = CARTESIAN_POINT('', (-6., 3.90000545506336E-15, -56.5));
#137 = ADVANCED_FACE('', (#138), #141, .T.);
#138 = FACE_OUTER_BOUND('', #139, .T.);
#139 = EDGE_LOOP('', (#140));
#140 = ORIENTED_EDGE('', *, *, #102, .T.);
#141 = B_SPLINE_SURFACE_WITH_KNOTS('', 1, 1, ((#142, #143), (#144, #145)), .UNSPECIFIED., .F., .F., .U., (2, 2), (2, 2), (0.477387558160766, 0.548211444031627), (0.451788555968373, 0.522612441839234), .UNSPECIFIED.);
#142 = CARTESIAN_POINT('', (-6.00000000000001, 6.00000000000006, -56.5));
#143 = CARTESIAN_POINT('', (-6.00000000000001, -5.99999999999997, -56.5));
#144 = CARTESIAN_POINT('', (5.99999999999999, 6.00000000000006, -56.5));
#145 = CARTESIAN_POINT('', (5.99999999999999, -5.99999999999997, -56.5));
#146 = DRAUGHTING_MODEL('', (#154, #278, #326, #331, #336, #341, #346, #351), #365);
#147 = PRESENTATION_STYLE_ASSIGNMENT((#148));
#148 = SURFACE_STYLE_USAGE(.POSITIVE., #149);
#149 = SURFACE_SIDE_STYLE('', (#150));
#150 = SURFACE_STYLE_FILL_AREA(#151);
#151 = FILL_AREA_STYLE('', (#152));
#152 = FILL_AREA_STYLE_COLOUR('', #153);
#153 = COLOUR_RGB('', 0.50196078431373, 0.50196078431373, 0.50196078431373);
#154 = STYLED_ITEM('', (#147), #1);
#155 = MANIFOLD_SOLID_BREP('CUT', #156);
#156 = CLOSED_SHELL('', (#157, #174, #213, #262));
#157 = ADVANCED_FACE('', (#158), #169, .T.);
#158 = FACE_OUTER_BOUND('', #159, .T.);
#159 = EDGE_LOOP('', (#160));
#160 = ORIENTED_EDGE('', *, *, #161, .F.);
#161 = EDGE_CURVE('', #162, #162, #164, .T.);
#162 = VERTEX_POINT('', #163);
#163 = CARTESIAN_POINT('', (-6., 3.82702124733548E-15, -56.5));
#164 = CIRCLE('', #165, 6.);
#165 = AXIS2_PLACEMENT_3D('', #166, #167, #168);
#166 = CARTESIAN_POINT('', (1.02695629777827E-15, 1.55431223447522E-15, -56.5));
#167 = DIRECTION('', (1.52672950913392E-30, 4.03059828731658E-15, -1.));
#168 = DIRECTION('', (-1., 3.7878483547671E-16, 0.));
#169 = B_SPLINE_SURFACE_WITH_KNOTS('', 1, 1, ((#170, #171), (#172, #173)), .UNSPECIFIED., .F., .F., .U., (2, 2), (2, 2), (0.451788555968373, 0.522612441839234), (0.477387558160766, 0.548211444031627), .UNSPECIFIED.);
#170 = CARTESIAN_POINT('', (-6., 6.00000000000001, -56.5));
#171 = CARTESIAN_POINT('', (6., 6.00000000000001, -56.5));
#172 = CARTESIAN_POINT('', (-6., -6., -56.5));
#173 = CARTESIAN_POINT('', (6., -6., -56.5));
#174 = ADVANCED_FACE('', (#175), #194, .T.);
#175 = FACE_OUTER_BOUND('', #176, .T.);
#176 = EDGE_LOOP('', (#177, #178, #186, #193));
#177 = ORIENTED_EDGE('', *, *, #161, .T.);
#178 = ORIENTED_EDGE('', *, *, #179, .T.);
#179 = EDGE_CURVE('', #162, #180, #182, .T.);
#180 = VERTEX_POINT('', #181);
#181 = CARTESIAN_POINT('', (-6., 5.35782974626967E-15, -81.5));
#182 = LINE('', #183, #184);
#183 = CARTESIAN_POINT('', (-6., 3.82702124733548E-15, -56.5));
#184 = VECTOR('', #185, 25.);
#185 = DIRECTION('', (0., 1.53080849893419E-15, -25.));
#186 = ORIENTED_EDGE('', *, *, #187, .F.);
#187 = EDGE_CURVE('', #180, #180, #188, .T.);
#188 = CIRCLE('', #189, 6.);
#189 = AXIS2_PLACEMENT_3D('', #190, #191, #192);
#190 = CARTESIAN_POINT('', (1.52655665885959E-15, 5.21804821573824E-15, -81.5));
#191 = DIRECTION('', (2.368475785867E-15, -7.70540152533513E-15, -1.));
#192 = DIRECTION('', (-1., 2.3296921755239E-17, -2.368475785867E-15));
#193 = ORIENTED_EDGE('', *, *, #179, .F.);
#194 = (
   BOUNDED_SURFACE ()
   B_SPLINE_SURFACE (2, 1, ((#195, #196), (#197, #198), (#199, #200), (#201, #202), (#203, #204), (#205, #206), (#207, #208), (#209, #210), (#211, #212)), .UNSPECIFIED., .T., .F., .U.)
   B_SPLINE_SURFACE_WITH_KNOTS ((3, 2, 2, 2, 3), (2, 2), (0., 9.42477796076938, 18.8495559215388, 28.2743338823081, 37.6991118430775), (0.315068493150685, 1.), .UNSPECIFIED.)
   GEOMETRIC_REPRESENTATION_ITEM ()
   RATIONAL_B_SPLINE_SURFACE (((1., 1.), (0.707106781186548, 0.707106781186548), (1., 1.), (0.707106781186548, 0.707106781186548), (1., 1.), (0.707106781186548, 0.707106781186548), (1., 1.), (0.707106781186548, 0.707106781186548), (1., 1.)))
   REPRESENTATION_ITEM ('')
   SURFACE ()
);
#195 = CARTESIAN_POINT('', (-6., 3.82702124733548E-15, -56.5));
#196 = CARTESIAN_POINT('', (-6., 9.26711406799875E-15, -81.5));
#197 = CARTESIAN_POINT('', (-6., 6., -56.5));
#198 = CARTESIAN_POINT('', (-6., 6.00000000000001, -81.5));
#199 = CARTESIAN_POINT('', (3.62616066128505E-15, 6., -56.5));
#200 = CARTESIAN_POINT('', (3.62616066128505E-15, 6.00000000000001, -81.5));
#201 = CARTESIAN_POINT('', (6., 6., -56.5));
#202 = CARTESIAN_POINT('', (6., 6., -81.5));
#203 = CARTESIAN_POINT('', (6., -3.53632237769713E-15, -56.5));
#204 = CARTESIAN_POINT('', (6., 1.90377044296614E-15, -81.5));
#205 = CARTESIAN_POINT('', (6., -6., -56.5));
#206 = CARTESIAN_POINT('', (6., -6., -81.5));
#207 = CARTESIAN_POINT('', (-3.00239488425915E-15, -6., -56.5));
#208 = CARTESIAN_POINT('', (-3.00239488425915E-15, -5.99999999999999, -81.5));
#209 = CARTESIAN_POINT('', (-6., -6., -56.5));
#210 = CARTESIAN_POINT('', (-6., -5.99999999999999, -81.5));
#211 = CARTESIAN_POINT('', (-6., 3.82702124733548E-15, -56.5));
#212 = CARTESIAN_POINT('', (-6., 9.26711406799875E-15, -81.5));
#213 = ADVANCED_FACE('', (#214), #234, .T.);
#214 = FACE_OUTER_BOUND('', #215, .T.);
#215 = EDGE_LOOP('', (#216, #225, #226, #227));
#216 = ORIENTED_EDGE('', *, *, #217, .F.);
#217 = EDGE_CURVE('', #180, #218, #220, .T.);
#218 = VERTEX_POINT('', #219);
#219 = CARTESIAN_POINT('', (-4.5, 5.35782974626967E-15, -83.));
#220 = CIRCLE('', #221, 1.5);
#221 = AXIS2_PLACEMENT_3D('', #222, #223, #224);
#222 = CARTESIAN_POINT('', (-4.50000000000001, 5.26598123633362E-15, -81.5));
#223 = DIRECTION('', (-6.12323399573659E-17, -1., -6.12323399573657E-17));
#224 = DIRECTION('', (-1., 6.12323399573659E-17, 0.));
#225 = ORIENTED_EDGE('', *, *, #187, .T.);
#226 = ORIENTED_EDGE('', *, *, #217, .T.);
#227 = ORIENTED_EDGE('', *, *, #228, .F.);
#228 = EDGE_CURVE('', #218, #218, #229, .T.);
#229 = CIRCLE('', #230, 4.5);
#230 = AXIS2_PLACEMENT_3D('', #231, #232, #233);
#231 = CARTESIAN_POINT('', (5.96744875736022E-16, 5.44009282066327E-15, -83.));
#232 = DIRECTION('', (1.96485574376433E-31, -1.07482620995109E-14, -1.));
#233 = DIRECTION('', (-1., -1.82806831985772E-17, 0.));
#234 = (
   BOUNDED_SURFACE ()
   B_SPLINE_SURFACE (2, 2, ((#235, #236, #237), (#238, #239, #240), (#241, #242, #243), (#244, #245, #246), (#247, #248, #249), (#250, #251, #252), (#253, #254, #255), (#256, #257, #258), (#259, #260, #261)), .UNSPECIFIED., .T., .F., .U.)
   B_SPLINE_SURFACE_WITH_KNOTS ((3, 2, 2, 2, 3), (3, 3), (0., 0.25, 0.5, 0.75, 1.), (0., 1.), .UNSPECIFIED.)
   GEOMETRIC_REPRESENTATION_ITEM ()
   RATIONAL_B_SPLINE_SURFACE (((1., 0.707106781186548, 1.), (0.707106781186548, 0.5, 0.707106781186548), (1., 0.707106781186548, 1.), (0.707106781186548, 0.5, 0.707106781186548), (1., 0.707106781186548, 1.), (0.707106781186548, 0.5, 0.707106781186548), (1., 0.707106781186548, 1.), (0.707106781186548, 0.5, 0.707106781186548), (1., 0.707106781186548, 1.)))
   REPRESENTATION_ITEM ('')
   SURFACE ()
);
#235 = CARTESIAN_POINT('', (-6., 5.35782974626967E-15, -81.5));
#236 = CARTESIAN_POINT('', (-6., 5.44967825620572E-15, -83.));
#237 = CARTESIAN_POINT('', (-4.5, 5.35782974626967E-15, -83.));
#238 = CARTESIAN_POINT('', (-6., 6.00000000000001, -81.5));
#239 = CARTESIAN_POINT('', (-6., 6.00000000000001, -83.));
#240 = CARTESIAN_POINT('', (-4.49999999999999, 4.50000000000001, -83.));
#241 = CARTESIAN_POINT('', (6.15616988238188E-15, 6., -81.5));
#242 = CARTESIAN_POINT('', (6.24801839231793E-15, 6., -83.));
#243 = CARTESIAN_POINT('', (6.24801839231793E-15, 4.5, -83.));
#244 = CARTESIAN_POINT('', (6.00000000000001, 6., -81.5));
#245 = CARTESIAN_POINT('', (6.00000000000001, 6., -83.));
#246 = CARTESIAN_POINT('', (4.50000000000001, 4.5, -83.));
#247 = CARTESIAN_POINT('', (6., -3.95690785200616E-15, -81.5));
#248 = CARTESIAN_POINT('', (6., -4.04875636194221E-15, -83.));
#249 = CARTESIAN_POINT('', (4.5, -4.14060487187827E-15, -83.));
#250 = CARTESIAN_POINT('', (6., -6.00000000000001, -81.5));
#251 = CARTESIAN_POINT('', (6., -6.00000000000001, -83.));
#252 = CARTESIAN_POINT('', (4.5, -4.50000000000001, -83.));
#253 = CARTESIAN_POINT('', (-2.42377963640554E-15, -6., -81.5));
#254 = CARTESIAN_POINT('', (-2.51562814634159E-15, -6., -83.));
#255 = CARTESIAN_POINT('', (-2.6993251662137E-15, -4.5, -83.));
#256 = CARTESIAN_POINT('', (-6., -6., -81.5));
#257 = CARTESIAN_POINT('', (-6., -6., -83.));
#258 = CARTESIAN_POINT('', (-4.5, -4.5, -83.));
#259 = CARTESIAN_POINT('', (-6., 5.35782974626967E-15, -81.5));
#260 = CARTESIAN_POINT('', (-6., 5.44967825620572E-15, -83.));
#261 = CARTESIAN_POINT('', (-4.5, 5.35782974626967E-15, -83.));
#262 = ADVANCED_FACE('', (#263), #266, .T.);
#263 = FACE_OUTER_BOUND('', #264, .T.);
#264 = EDGE_LOOP('', (#265));
#265 = ORIENTED_EDGE('', *, *, #228, .T.);
#266 = B_SPLINE_SURFACE_WITH_KNOTS('', 1, 1, ((#267, #268), (#269, #270)), .UNSPECIFIED., .F., .F., .U., (2, 2), (2, 2), (0.0454545454545454, 0.954545454545454), (0.0454545454545454, 0.954545454545454), .UNSPECIFIED.);
#267 = CARTESIAN_POINT('', (4.5, -4.5, -83.));
#268 = CARTESIAN_POINT('', (4.5, 4.5, -83.));
#269 = CARTESIAN_POINT('', (-4.5, -4.5, -83.));
#270 = CARTESIAN_POINT('', (-4.5, 4.5, -83.));
#271 = PRESENTATION_STYLE_ASSIGNMENT((#272));
#272 = SURFACE_STYLE_USAGE(.POSITIVE., #273);
#273 = SURFACE_SIDE_STYLE('', (#274));
#274 = SURFACE_STYLE_FILL_AREA(#275);
#275 = FILL_AREA_STYLE('', (#276));
#276 = FILL_AREA_STYLE_COLOUR('', #277);
#277 = COLOUR_RGB('', 0.8, 0.8, 0.8);
#278 = STYLED_ITEM('', (#271), #155);
#279 = TRIMMED_CURVE('cutting part line', #280, (#284), (#285), .T., .CARTESIAN.);
#280 = LINE('', #281, #282);
#281 = CARTESIAN_POINT('', (1.80411241501588E-16, 0., -83.));
#282 = VECTOR('', #283, 4.5);
#283 = DIRECTION('', (4.5, 0., 0.));
#284 = CARTESIAN_POINT('', (1.80411241501588E-16, 0., -83.));
#285 = CARTESIAN_POINT('', (4.5, 0., -83.));
#286 = TRIMMED_CURVE('cutting part line', #287, (#292), (#293), .T., .CARTESIAN.);
#287 = CIRCLE('', #288, 1.5);
#288 = AXIS2_PLACEMENT_3D('', #289, #290, #291);
#289 = CARTESIAN_POINT('', (4.5, -1.13962721788624E-15, -81.5));
#290 = DIRECTION('', (7.03141248929266E-16, -1., 6.47630097698008E-17));
#291 = DIRECTION('', (1.18423789293351E-15, -6.47630097698E-17, -1.));
#292 = CARTESIAN_POINT('', (4.5, -1.23677173254094E-15, -83.));
#293 = CARTESIAN_POINT('', (6., -8.49153444923448E-17, -81.5));
#294 = TRIMMED_CURVE('cutting part line', #295, (#299), (#300), .T., .CARTESIAN.);
#295 = LINE('', #296, #297);
#296 = CARTESIAN_POINT('', (6., 5.439264268177E-15, -81.5));
#297 = VECTOR('', #298, 25.);
#298 = DIRECTION('', (0., -5.439264268177E-15, 25.));
#299 = CARTESIAN_POINT('', (6., 5.439264268177E-15, -81.5));
#300 = CARTESIAN_POINT('', (6., 0., -56.5));
#301 = TRIMMED_CURVE('cutting part line', #302, (#306), (#307), .T., .CARTESIAN.);
#302 = LINE('', #303, #304);
#303 = CARTESIAN_POINT('', (6., 0., -56.5));
#304 = VECTOR('', #305, 6.);
#305 = DIRECTION('', (-6., 0., 0.));
#306 = CARTESIAN_POINT('', (6., 0., -56.5));
#307 = CARTESIAN_POINT('', (1.38777878078145E-17, 0., -56.5));
#308 = TRIMMED_CURVE('cutting part line', #309, (#313), (#314), .T., .CARTESIAN.);
#309 = LINE('', #310, #311);
#310 = CARTESIAN_POINT('', (0., 0., -56.5));
#311 = VECTOR('', #312, 26.5);
#312 = DIRECTION('', (0., 0., -26.5));
#313 = CARTESIAN_POINT('', (0., 0., -56.5));
#314 = CARTESIAN_POINT('', (0., 0., -83.));
#315 = COMPOSITE_CURVE('cutting part line', (#316, #317, #318, #319, #320), .U.);
#316 = COMPOSITE_CURVE_SEGMENT(.CONTINUOUS., .T., #279);
#317 = COMPOSITE_CURVE_SEGMENT(.CONTINUOUS., .T., #286);
#318 = COMPOSITE_CURVE_SEGMENT(.CONTINUOUS., .T., #294);
#319 = COMPOSITE_CURVE_SEGMENT(.CONTINUOUS., .T., #301);
#320 = COMPOSITE_CURVE_SEGMENT(.CONTINUOUS., .T., #308);
#321 = GEOMETRIC_SET('', (#315, #364));
#322 = PRESENTATION_STYLE_ASSIGNMENT((#323));
#323 = CURVE_STYLE('', #325, POSITIVE_LENGTH_MEASURE(1.E-6), #324);
#324 = COLOUR_RGB('', 0., 0., 1.);
#325 = DRAUGHTING_PRE_DEFINED_CURVE_FONT('continuous');
#326 = STYLED_ITEM('', (#322), #315);
#327 = PRESENTATION_STYLE_ASSIGNMENT((#328));
#328 = CURVE_STYLE('', #330, POSITIVE_LENGTH_MEASURE(1.E-6), #329);
#329 = COLOUR_RGB('', 0., 0., 1.);
#330 = DRAUGHTING_PRE_DEFINED_CURVE_FONT('continuous');
#331 = OVER_RIDING_STYLED_ITEM('', (#327), #279, #326);
#332 = PRESENTATION_STYLE_ASSIGNMENT((#333));
#333 = CURVE_STYLE('', #335, POSITIVE_LENGTH_MEASURE(1.E-6), #334);
#334 = COLOUR_RGB('', 0., 0., 1.);
#335 = DRAUGHTING_PRE_DEFINED_CURVE_FONT('continuous');
#336 = OVER_RIDING_STYLED_ITEM('', (#332), #286, #326);
#337 = PRESENTATION_STYLE_ASSIGNMENT((#338));
#338 = CURVE_STYLE('', #340, POSITIVE_LENGTH_MEASURE(1.E-6), #339);
#339 = COLOUR_RGB('', 0., 0., 1.);
#340 = DRAUGHTING_PRE_DEFINED_CURVE_FONT('continuous');
#341 = OVER_RIDING_STYLED_ITEM('', (#337), #294, #326);
#342 = PRESENTATION_STYLE_ASSIGNMENT((#343));
#343 = CURVE_STYLE('', #345, POSITIVE_LENGTH_MEASURE(1.E-6), #344);
#344 = COLOUR_RGB('', 0., 0., 1.);
#345 = DRAUGHTING_PRE_DEFINED_CURVE_FONT('continuous');
#346 = OVER_RIDING_STYLED_ITEM('', (#342), #301, #326);
#347 = PRESENTATION_STYLE_ASSIGNMENT((#348));
#348 = CURVE_STYLE('', #350, POSITIVE_LENGTH_MEASURE(1.E-6), #349);
#349 = COLOUR_RGB('', 0., 0., 1.);
#350 = DRAUGHTING_PRE_DEFINED_CURVE_FONT('continuous');
#351 = OVER_RIDING_STYLED_ITEM('', (#347), #308, #326);
#352 = AXIS2_PLACEMENT_3D('MCS', #353, #354, #355);
#353 = CARTESIAN_POINT('', (0., 0., -45.));
#354 = DIRECTION('', (0., 0., 1.));
#355 = DIRECTION('', (1., 0., 0.));
#356 = AXIS2_PLACEMENT_3D('PCS', #357, #358, #359);
#357 = CARTESIAN_POINT('', (0., 0., 0.));
#358 = DIRECTION('', (0., 0., 1.));
#359 = DIRECTION('', (1., 0., 0.));
#360 = AXIS2_PLACEMENT_3D('CIP', #361, #362, #363);
#361 = CARTESIAN_POINT('', (0., 0., -83.));
#362 = DIRECTION('', (0., 0., 1.));
#363 = DIRECTION('', (1., 0., 0.));
#364 = CARTESIAN_POINT('CRP', (6., 0., -83.));
#365 = (
   GEOMETRIC_REPRESENTATION_CONTEXT (3)
   GLOBAL_UNCERTAINTY_ASSIGNED_CONTEXT ((#367))
   GLOBAL_UNIT_ASSIGNED_CONTEXT ((#366, #368, #369))
   REPRESENTATION_CONTEXT ('', '3D')
);
#366 = (
   LENGTH_UNIT ()
   NAMED_UNIT (*)
   SI_UNIT (.MILLI., .METRE.)
);
#367 = UNCERTAINTY_MEASURE_WITH_UNIT(LENGTH_MEASURE(1.E-6), #366, 'DISTANCE_ACCURACY_VALUE', '');
#368 = (
   NAMED_UNIT (*)
   SI_UNIT ($, .STERADIAN.)
   SOLID_ANGLE_UNIT ()
);
#369 = (
   NAMED_UNIT (*)
   PLANE_ANGLE_UNIT ()
   SI_UNIT ($, .RADIAN.)
);
#370 = SHAPE_REPRESENTATION('', (), #365);
#371 = PRODUCT_DEFINITION_SHAPE('', '', #372);
#372 = PRODUCT_DEFINITION('', '', #375, #379);
#373 = APPLICATION_CONTEXT('configuration controlled 3D designs of mechanical parts and assemblies');
#374 = APPLICATION_PROTOCOL_DEFINITION('International Standard', 'automotive_design', 2002, #373);
#375 = PRODUCT_DEFINITION_FORMATION_WITH_SPECIFIED_SOURCE('', '', #376, .NOT_KNOWN.);
#376 = PRODUCT('product-name', '2S340-1200-150-MA   1640', '', (#377));
#377 = PRODUCT_CONTEXT('', #373, 'mechanical');
#378 = PRODUCT_RELATED_PRODUCT_CATEGORY('detail', '', (#376));
#379 = PRODUCT_DEFINITION_CONTEXT('part definition', #373, 'design');
#380 = SHAPE_DEFINITION_REPRESENTATION(#371, #370);
#381 = CONSTRUCTIVE_GEOMETRY_REPRESENTATION('supplemental geometry', (#352, #356, #360), #365);
#382 = CONSTRUCTIVE_GEOMETRY_REPRESENTATION_RELATIONSHIP('', '', #370, #381);
#383 = SHAPE_REPRESENTATION_RELATIONSHIP('', '', #370, #384);
#384 = SHAPE_REPRESENTATION('', (#321), #365);
#385 = SHAPE_REPRESENTATION_RELATIONSHIP('', '', #370, #386);
#386 = ADVANCED_BREP_SHAPE_REPRESENTATION('', (#1, #155), #365);
ENDSEC;
END-ISO-10303-21;
