ISO-10303-21;
HEADER;
FILE_DESCRIPTION(('STEP'), '1');
FILE_NAME('C:\\Users\\ds2002\\OneDrive - Sandvik\\HomeShare\\Documents\\Batchrepair\\CorSRT2\\NEW_MILSQ_SLD\\Output\\MOD000000000000000020082329900000.stp', '2019-01-02T12:08:35', (''), (''), 'Express v3.0.0.0', 'Express Tool', 'Unknown');
FILE_SCHEMA(('AUTOMOTIVE_DESIGN'));
ENDSEC;

DATA;
#1 = MANIFOLD_SOLID_BREP('NOCUT', #2);
#2 = CLOSED_SHELL('', (#3, #50, #89, #98, #137));
#3 = ADVANCED_FACE('', (#4), #31, .T.);
#4 = FACE_OUTER_BOUND('', #5, .T.);
#5 = EDGE_LOOP('', (#6, #16, #23, #24));
#6 = ORIENTED_EDGE('', *, *, #7, .T.);
#7 = EDGE_CURVE('', #8, #10, #12, .T.);
#8 = VERTEX_POINT('', #9);
#9 = CARTESIAN_POINT('', (-5., 2.75545529808154E-15, -40.));
#10 = VERTEX_POINT('', #11);
#11 = CARTESIAN_POINT('', (-5., 3.36777869765522E-16, -0.5));
#12 = LINE('', #13, #14);
#13 = CARTESIAN_POINT('', (-5., 2.75545529808154E-15, -40.));
#14 = VECTOR('', #15, 39.5);
#15 = DIRECTION('', (0., -2.41867742831602E-15, 39.5));
#16 = ORIENTED_EDGE('', *, *, #17, .T.);
#17 = EDGE_CURVE('', #10, #10, #18, .T.);
#18 = CIRCLE('', #19, 5.);
#19 = AXIS2_PLACEMENT_3D('', #20, #21, #22);
#20 = CARTESIAN_POINT('', (8.88178419700125E-16, -1.99840144432528E-15, -0.5));
#21 = DIRECTION('', (0., 0., -1.));
#22 = DIRECTION('', (-1., 4.67035862818161E-16, 0.));
#23 = ORIENTED_EDGE('', *, *, #7, .F.);
#24 = ORIENTED_EDGE('', *, *, #25, .F.);
#25 = EDGE_CURVE('', #8, #8, #26, .T.);
#26 = CIRCLE('', #27, 5.);
#27 = AXIS2_PLACEMENT_3D('', #28, #29, #30);
#28 = CARTESIAN_POINT('', (8.04911692853238E-16, -4.21884749357559E-15, -40.));
#29 = DIRECTION('', (-6.7465470929473E-30, -4.83671794477989E-15, -1.));
#30 = DIRECTION('', (-1., 1.39486055833143E-15, 0.));
#31 = (
   BOUNDED_SURFACE ()
   B_SPLINE_SURFACE (1, 2, ((#32, #33, #34, #35, #36, #37, #38, #39, #40), (#41, #42, #43, #44, #45, #46, #47, #48, #49)), .UNSPECIFIED., .F., .T., .U.)
   B_SPLINE_SURFACE_WITH_KNOTS ((2, 2), (3, 2, 2, 2, 3), (0., 1.), (0., 7.85398163397447, 15.707963267949, 23.5619449019234, 31.4159265358979), .UNSPECIFIED.)
   GEOMETRIC_REPRESENTATION_ITEM ()
   RATIONAL_B_SPLINE_SURFACE (((1., 0.707106781186548, 1., 0.707106781186548, 1., 0.707106781186548, 1., 0.707106781186548, 1.), (1., 0.707106781186548, 1., 0.707106781186548, 1., 0.707106781186548, 1., 0.707106781186548, 1.)))
   REPRESENTATION_ITEM ('')
   SURFACE ()
);
#32 = CARTESIAN_POINT('', (-5., 2.55722391901583E-15, -40.));
#33 = CARTESIAN_POINT('', (-5., 5., -40.));
#34 = CARTESIAN_POINT('', (2.91719603400409E-15, 5., -40.));
#35 = CARTESIAN_POINT('', (5., 5., -40.));
#36 = CARTESIAN_POINT('', (5., -1.5008113095921E-15, -40.));
#37 = CARTESIAN_POINT('', (5., -5., -40.));
#38 = CARTESIAN_POINT('', (-5.28515795030162E-16, -5., -40.));
#39 = CARTESIAN_POINT('', (-5., -5., -40.));
#40 = CARTESIAN_POINT('', (-5., 2.55722391901583E-15, -40.));
#41 = CARTESIAN_POINT('', (-5., 3.36777869765522E-16, -0.5));
#42 = CARTESIAN_POINT('', (-5., 5., -0.5));
#43 = CARTESIAN_POINT('', (2.91719603400409E-15, 5., -0.5));
#44 = CARTESIAN_POINT('', (5., 5., -0.5));
#45 = CARTESIAN_POINT('', (5., -3.72125735884241E-15, -0.5));
#46 = CARTESIAN_POINT('', (5., -5., -0.5));
#47 = CARTESIAN_POINT('', (-5.28515795030163E-16, -5., -0.5));
#48 = CARTESIAN_POINT('', (-5., -5., -0.5));
#49 = CARTESIAN_POINT('', (-5., 3.36777869765522E-16, -0.5));
#50 = ADVANCED_FACE('', (#51), #70, .T.);
#51 = FACE_OUTER_BOUND('', #52, .T.);
#52 = EDGE_LOOP('', (#53, #61, #68, #69));
#53 = ORIENTED_EDGE('', *, *, #54, .T.);
#54 = EDGE_CURVE('', #10, #55, #57, .T.);
#55 = VERTEX_POINT('', #56);
#56 = CARTESIAN_POINT('', (-4.5, 2.75545529808154E-16, 0.));
#57 = LINE('', #58, #59);
#58 = CARTESIAN_POINT('', (-5., 3.36777869765522E-16, -0.5));
#59 = VECTOR('', #60, 0.707106781186548);
#60 = DIRECTION('', (0.5, -6.1232339957368E-17, 0.5));
#61 = ORIENTED_EDGE('', *, *, #62, .T.);
#62 = EDGE_CURVE('', #55, #55, #63, .T.);
#63 = CIRCLE('', #64, 4.5);
#64 = AXIS2_PLACEMENT_3D('', #65, #66, #67);
#65 = CARTESIAN_POINT('', (2.28983498828939E-15, 0., -1.84889274661175E-32));
#66 = DIRECTION('', (-3.59251091371472E-34, 6.12323399573676E-17, -1.));
#67 = DIRECTION('', (-1., 6.12323399573675E-17, 4.1086505480261E-33));
#68 = ORIENTED_EDGE('', *, *, #54, .F.);
#69 = ORIENTED_EDGE('', *, *, #17, .F.);
#70 = (
   BOUNDED_SURFACE ()
   B_SPLINE_SURFACE (1, 2, ((#71, #72, #73, #74, #75, #76, #77, #78, #79), (#80, #81, #82, #83, #84, #85, #86, #87, #88)), .UNSPECIFIED., .F., .T., .U.)
   B_SPLINE_SURFACE_WITH_KNOTS ((2, 2), (3, 2, 2, 2, 3), (0., 1.), (0., 0.25, 0.5, 0.75, 1.), .UNSPECIFIED.)
   GEOMETRIC_REPRESENTATION_ITEM ()
   RATIONAL_B_SPLINE_SURFACE (((1., 0.707106781186548, 1., 0.707106781186548, 1., 0.707106781186548, 1., 0.707106781186548, 1.), (1., 0.707106781186548, 1., 0.707106781186548, 1., 0.707106781186548, 1., 0.707106781186548, 1.)))
   REPRESENTATION_ITEM ('')
   SURFACE ()
);
#71 = CARTESIAN_POINT('', (-5., -2.69144046670109E-15, -0.5));
#72 = CARTESIAN_POINT('', (-5., 5., -0.50000000000003));
#73 = CARTESIAN_POINT('', (2.28983498828938E-15, 5., -0.50000000000003));
#74 = CARTESIAN_POINT('', (5., 5., -0.50000000000003));
#75 = CARTESIAN_POINT('', (5., -2.69144046670108E-15, -0.5));
#76 = CARTESIAN_POINT('', (5., -5., -0.49999999999997));
#77 = CARTESIAN_POINT('', (2.90215838786306E-15, -5., -0.49999999999997));
#78 = CARTESIAN_POINT('', (-5., -5., -0.49999999999997));
#79 = CARTESIAN_POINT('', (-5., -2.69144046670109E-15, -0.5));
#80 = CARTESIAN_POINT('', (-4.5, 2.75545529808154E-16, -5.47382212626882E-48));
#81 = CARTESIAN_POINT('', (-4.5, 4.5, -2.69784194983913E-14));
#82 = CARTESIAN_POINT('', (2.28983498828938E-15, 4.5, -2.69784194983913E-14));
#83 = CARTESIAN_POINT('', (4.5, 4.5, -2.69784194983913E-14));
#84 = CARTESIAN_POINT('', (4.5, 2.75545529808155E-16, -3.34088136340818E-30));
#85 = CARTESIAN_POINT('', (4.5, -4.5, 2.69784194983913E-14));
#86 = CARTESIAN_POINT('', (2.8409260479057E-15, -4.5, 2.69784194983913E-14));
#87 = CARTESIAN_POINT('', (-4.5, -4.5, 2.69784194983913E-14));
#88 = CARTESIAN_POINT('', (-4.5, 2.75545529808154E-16, -5.47382212626882E-48));
#89 = ADVANCED_FACE('', (#90), #93, .T.);
#90 = FACE_OUTER_BOUND('', #91, .T.);
#91 = EDGE_LOOP('', (#92));
#92 = ORIENTED_EDGE('', *, *, #62, .F.);
#93 = B_SPLINE_SURFACE_WITH_KNOTS('', 1, 1, ((#94, #95), (#96, #97)), .UNSPECIFIED., .F., .F., .U., (2, 2), (2, 2), (0.0454545454545454, 0.954545454545454), (0.0454545454545454, 0.954545454545454), .UNSPECIFIED.);
#94 = CARTESIAN_POINT('', (4.5, -4.5, -2.75545529808155E-16));
#95 = CARTESIAN_POINT('', (-4.5, -4.5, -2.75545529808154E-16));
#96 = CARTESIAN_POINT('', (4.5, 4.5, 2.75545529808154E-16));
#97 = CARTESIAN_POINT('', (-4.5, 4.5, 2.75545529808155E-16));
#98 = ADVANCED_FACE('', (#99), #118, .T.);
#99 = FACE_OUTER_BOUND('', #100, .T.);
#100 = EDGE_LOOP('', (#101, #110, #116, #117));
#101 = ORIENTED_EDGE('', *, *, #102, .F.);
#102 = EDGE_CURVE('', #103, #103, #105, .T.);
#103 = VERTEX_POINT('', #104);
#104 = CARTESIAN_POINT('', (-5., 3.33716252767654E-15, -49.5));
#105 = CIRCLE('', #106, 5.);
#106 = AXIS2_PLACEMENT_3D('', #107, #108, #109);
#107 = CARTESIAN_POINT('', (-7.63278329429795E-16, -5.55111512312578E-16, -49.5));
#108 = DIRECTION('', (0., 0., -1.));
#109 = DIRECTION('', (-1., 7.78454807997824E-16, 0.));
#110 = ORIENTED_EDGE('', *, *, #111, .F.);
#111 = EDGE_CURVE('', #8, #103, #112, .T.);
#112 = LINE('', #113, #114);
#113 = CARTESIAN_POINT('', (-5., 2.75545529808154E-15, -40.));
#114 = VECTOR('', #115, 9.5);
#115 = DIRECTION('', (0., 5.81707229595E-16, -9.5));
#116 = ORIENTED_EDGE('', *, *, #25, .T.);
#117 = ORIENTED_EDGE('', *, *, #111, .T.);
#118 = (
   BOUNDED_SURFACE ()
   B_SPLINE_SURFACE (2, 1, ((#119, #120), (#121, #122), (#123, #124), (#125, #126), (#127, #128), (#129, #130), (#131, #132), (#133, #134), (#135, #136)), .UNSPECIFIED., .T., .F., .U.)
   B_SPLINE_SURFACE_WITH_KNOTS ((3, 2, 2, 2, 3), (2, 2), (0., 7.85398163397448, 15.707963267949, 23.5619449019234, 31.4159265358979), (0., 0.316666666666667), .UNSPECIFIED.)
   GEOMETRIC_REPRESENTATION_ITEM ()
   RATIONAL_B_SPLINE_SURFACE (((1., 1.), (0.707106781186548, 0.707106781186548), (1., 1.), (0.707106781186548, 0.707106781186548), (1., 1.), (0.707106781186548, 0.707106781186548), (1., 1.), (0.707106781186548, 0.707106781186548), (1., 1.)))
   REPRESENTATION_ITEM ('')
   SURFACE ()
);
#119 = CARTESIAN_POINT('', (-5., 2.75545529808154E-15, -40.));
#120 = CARTESIAN_POINT('', (-5., -2.42146868406383E-16, -49.5));
#121 = CARTESIAN_POINT('', (-5., 5., -40.));
#122 = CARTESIAN_POINT('', (-5., 5., -49.5));
#123 = CARTESIAN_POINT('', (3.05991626183854E-15, 5., -40.));
#124 = CARTESIAN_POINT('', (3.05991626183854E-15, 5., -49.5));
#125 = CARTESIAN_POINT('', (5., 5., -40.));
#126 = CARTESIAN_POINT('', (5., 4.99999999999999, -49.5));
#127 = CARTESIAN_POINT('', (5., -1.6990426886578E-15, -40.));
#128 = CARTESIAN_POINT('', (5., -4.69664485514572E-15, -49.5));
#129 = CARTESIAN_POINT('', (5., -5., -40.));
#130 = CARTESIAN_POINT('', (5., -5., -49.5));
#131 = CARTESIAN_POINT('', (-7.82258325327126E-16, -5., -40.));
#132 = CARTESIAN_POINT('', (-7.82258325327128E-16, -5., -49.5));
#133 = CARTESIAN_POINT('', (-5., -5., -40.));
#134 = CARTESIAN_POINT('', (-5., -5., -49.5));
#135 = CARTESIAN_POINT('', (-5., 2.75545529808154E-15, -40.));
#136 = CARTESIAN_POINT('', (-5., -2.42146868406383E-16, -49.5));
#137 = ADVANCED_FACE('', (#138), #141, .T.);
#138 = FACE_OUTER_BOUND('', #139, .T.);
#139 = EDGE_LOOP('', (#140));
#140 = ORIENTED_EDGE('', *, *, #102, .T.);
#141 = B_SPLINE_SURFACE_WITH_KNOTS('', 1, 1, ((#142, #143), (#144, #145)), .UNSPECIFIED., .F., .F., .U., (2, 2), (2, 2), (0.478705503246954, 0.546847906939464), (0.453152093060536, 0.521294496753046), .UNSPECIFIED.);
#142 = CARTESIAN_POINT('', (-5.00000000000003, 5.00000000000001, -49.5));
#143 = CARTESIAN_POINT('', (-5.00000000000003, -4.99999999999999, -49.5));
#144 = CARTESIAN_POINT('', (4.99999999999999, 5.00000000000001, -49.5));
#145 = CARTESIAN_POINT('', (4.99999999999999, -4.99999999999999, -49.5));
#146 = DRAUGHTING_MODEL('', (#154, #278, #326, #331, #336, #341, #346, #351), #365);
#147 = PRESENTATION_STYLE_ASSIGNMENT((#148));
#148 = SURFACE_STYLE_USAGE(.POSITIVE., #149);
#149 = SURFACE_SIDE_STYLE('', (#150));
#150 = SURFACE_STYLE_FILL_AREA(#151);
#151 = FILL_AREA_STYLE('', (#152));
#152 = FILL_AREA_STYLE_COLOUR('', #153);
#153 = COLOUR_RGB('', 0.50196078431373, 0.50196078431373, 0.50196078431373);
#154 = STYLED_ITEM('', (#147), #1);
#155 = MANIFOLD_SOLID_BREP('CUT', #156);
#156 = CLOSED_SHELL('', (#157, #174, #213, #262));
#157 = ADVANCED_FACE('', (#158), #169, .T.);
#158 = FACE_OUTER_BOUND('', #159, .T.);
#159 = EDGE_LOOP('', (#160));
#160 = ORIENTED_EDGE('', *, *, #161, .F.);
#161 = EDGE_CURVE('', #162, #162, #164, .T.);
#162 = VERTEX_POINT('', #163);
#163 = CARTESIAN_POINT('', (-5., 3.33716252767654E-15, -49.5));
#164 = CIRCLE('', #165, 5.);
#165 = AXIS2_PLACEMENT_3D('', #166, #167, #168);
#166 = CARTESIAN_POINT('', (-7.63278329429795E-16, -5.55111512312578E-16, -49.5));
#167 = DIRECTION('', (0., 0., -1.));
#168 = DIRECTION('', (-1., 7.78454807997824E-16, 0.));
#169 = B_SPLINE_SURFACE_WITH_KNOTS('', 1, 1, ((#170, #171), (#172, #173)), .UNSPECIFIED., .F., .F., .U., (2, 2), (2, 2), (0.453152093060536, 0.521294496753046), (0.478705503246954, 0.546847906939464), .UNSPECIFIED.);
#170 = CARTESIAN_POINT('', (-5., 5., -49.5));
#171 = CARTESIAN_POINT('', (5., 5., -49.5));
#172 = CARTESIAN_POINT('', (-5., -5., -49.5));
#173 = CARTESIAN_POINT('', (5., -5., -49.5));
#174 = ADVANCED_FACE('', (#175), #194, .T.);
#175 = FACE_OUTER_BOUND('', #176, .T.);
#176 = EDGE_LOOP('', (#177, #178, #186, #193));
#177 = ORIENTED_EDGE('', *, *, #161, .T.);
#178 = ORIENTED_EDGE('', *, *, #179, .T.);
#179 = EDGE_CURVE('', #162, #180, #182, .T.);
#180 = VERTEX_POINT('', #181);
#181 = CARTESIAN_POINT('', (-5., 4.59242549680258E-15, -70.));
#182 = LINE('', #183, #184);
#183 = CARTESIAN_POINT('', (-5., 3.33716252767654E-15, -49.5));
#184 = VECTOR('', #185, 20.5);
#185 = DIRECTION('', (0., 1.25526296912604E-15, -20.5));
#186 = ORIENTED_EDGE('', *, *, #187, .F.);
#187 = EDGE_CURVE('', #180, #180, #188, .T.);
#188 = CIRCLE('', #189, 5.);
#189 = AXIS2_PLACEMENT_3D('', #190, #191, #192);
#190 = CARTESIAN_POINT('', (-4.57966997657877E-16, -2.22044604925031E-15, -70.));
#191 = DIRECTION('', (0., 0., -1.));
#192 = DIRECTION('', (-1., 1.36257430921058E-15, 0.));
#193 = ORIENTED_EDGE('', *, *, #179, .F.);
#194 = (
   BOUNDED_SURFACE ()
   B_SPLINE_SURFACE (2, 1, ((#195, #196), (#197, #198), (#199, #200), (#201, #202), (#203, #204), (#205, #206), (#207, #208), (#209, #210), (#211, #212)), .UNSPECIFIED., .T., .F., .U.)
   B_SPLINE_SURFACE_WITH_KNOTS ((3, 2, 2, 2, 3), (2, 2), (0., 7.85398163397448, 15.707963267949, 23.5619449019234, 31.4159265358979), (0.316666666666667, 1.), .UNSPECIFIED.)
   GEOMETRIC_REPRESENTATION_ITEM ()
   RATIONAL_B_SPLINE_SURFACE (((1., 1.), (0.707106781186548, 0.707106781186548), (1., 1.), (0.707106781186548, 0.707106781186548), (1., 1.), (0.707106781186548, 0.707106781186548), (1., 1.), (0.707106781186548, 0.707106781186548), (1., 1.)))
   REPRESENTATION_ITEM ('')
   SURFACE ()
);
#195 = CARTESIAN_POINT('', (-5., 3.33716252767654E-15, -49.5));
#196 = CARTESIAN_POINT('', (-5., 3.89227403998911E-15, -70.));
#197 = CARTESIAN_POINT('', (-4.99999999999999, 5., -49.5));
#198 = CARTESIAN_POINT('', (-4.99999999999999, 5., -70.));
#199 = CARTESIAN_POINT('', (7.18045938242622E-15, 5., -49.5));
#200 = CARTESIAN_POINT('', (7.18045938242622E-15, 5., -70.));
#201 = CARTESIAN_POINT('', (5.00000000000001, 4.99999999999999, -49.5));
#202 = CARTESIAN_POINT('', (5.00000000000001, 4.99999999999999, -70.));
#203 = CARTESIAN_POINT('', (5., -8.27595425122864E-15, -49.5));
#204 = CARTESIAN_POINT('', (5., -7.72084273891607E-15, -70.));
#205 = CARTESIAN_POINT('', (5., -5.00000000000001, -49.5));
#206 = CARTESIAN_POINT('', (5., -5.00000000000001, -70.));
#207 = CARTESIAN_POINT('', (-3.82033399690528E-15, -5., -49.5));
#208 = CARTESIAN_POINT('', (-3.82033399690528E-15, -5., -70.));
#209 = CARTESIAN_POINT('', (-5., -5., -49.5));
#210 = CARTESIAN_POINT('', (-5., -5., -70.));
#211 = CARTESIAN_POINT('', (-5., 3.33716252767654E-15, -49.5));
#212 = CARTESIAN_POINT('', (-5., 3.89227403998911E-15, -70.));
#213 = ADVANCED_FACE('', (#214), #234, .T.);
#214 = FACE_OUTER_BOUND('', #215, .T.);
#215 = EDGE_LOOP('', (#216, #225, #226, #227));
#216 = ORIENTED_EDGE('', *, *, #217, .F.);
#217 = EDGE_CURVE('', #180, #218, #220, .T.);
#218 = VERTEX_POINT('', #219);
#219 = CARTESIAN_POINT('', (-3., 4.59242549680257E-15, -72.));
#220 = CIRCLE('', #221, 1.99999999999996);
#221 = AXIS2_PLACEMENT_3D('', #222, #223, #224);
#222 = CARTESIAN_POINT('', (-3.00000000000003, 4.46996081688784E-15, -70.));
#223 = DIRECTION('', (-6.12323399573706E-17, -1., -6.12323399573655E-17));
#224 = DIRECTION('', (-1., 6.12323399573698E-17, 1.42108547152022E-14));
#225 = ORIENTED_EDGE('', *, *, #187, .T.);
#226 = ORIENTED_EDGE('', *, *, #217, .T.);
#227 = ORIENTED_EDGE('', *, *, #228, .F.);
#228 = EDGE_CURVE('', #218, #218, #229, .T.);
#229 = CIRCLE('', #230, 3.);
#230 = AXIS2_PLACEMENT_3D('', #231, #232, #233);
#231 = CARTESIAN_POINT('', (5.27355936696949E-16, 1.49880108324396E-15, -72.));
#232 = DIRECTION('', (0., 0., -1.));
#233 = DIRECTION('', (-1., 1.03120813785287E-15, 0.));
#234 = (
   BOUNDED_SURFACE ()
   B_SPLINE_SURFACE (2, 2, ((#235, #236, #237), (#238, #239, #240), (#241, #242, #243), (#244, #245, #246), (#247, #248, #249), (#250, #251, #252), (#253, #254, #255), (#256, #257, #258), (#259, #260, #261)), .UNSPECIFIED., .T., .F., .U.)
   B_SPLINE_SURFACE_WITH_KNOTS ((3, 2, 2, 2, 3), (3, 3), (0., 0.25, 0.5, 0.75, 1.), (0., 1.), .UNSPECIFIED.)
   GEOMETRIC_REPRESENTATION_ITEM ()
   RATIONAL_B_SPLINE_SURFACE (((1., 0.707106781186548, 1.), (0.707106781186548, 0.5, 0.707106781186548), (1., 0.707106781186548, 1.), (0.707106781186548, 0.5, 0.707106781186548), (1., 0.707106781186548, 1.), (0.707106781186548, 0.5, 0.707106781186548), (1., 0.707106781186548, 1.), (0.707106781186548, 0.5, 0.707106781186548), (1., 0.707106781186548, 1.)))
   REPRESENTATION_ITEM ('')
   SURFACE ()
);
#235 = CARTESIAN_POINT('', (-5., 4.59242549680258E-15, -70.));
#236 = CARTESIAN_POINT('', (-5., 4.71489017671731E-15, -72.));
#237 = CARTESIAN_POINT('', (-3., 4.59242549680257E-15, -72.));
#238 = CARTESIAN_POINT('', (-4.99999999999999, 5., -70.));
#239 = CARTESIAN_POINT('', (-4.99999999999999, 5., -72.));
#240 = CARTESIAN_POINT('', (-2.99999999999999, 3., -72.));
#241 = CARTESIAN_POINT('', (6.90916569269268E-15, 5., -70.));
#242 = CARTESIAN_POINT('', (7.0316303726074E-15, 5., -72.));
#243 = CARTESIAN_POINT('', (7.0316303726074E-15, 3., -72.));
#244 = CARTESIAN_POINT('', (5.00000000000001, 4.99999999999999, -70.));
#245 = CARTESIAN_POINT('', (5.00000000000001, 4.99999999999999, -72.));
#246 = CARTESIAN_POINT('', (3.00000000000001, 2.99999999999999, -72.));
#247 = CARTESIAN_POINT('', (5., -9.53121722035469E-15, -70.));
#248 = CARTESIAN_POINT('', (5., -9.65368190026941E-15, -72.));
#249 = CARTESIAN_POINT('', (3., -9.77614658018415E-15, -72.));
#250 = CARTESIAN_POINT('', (4.99999999999999, -5.00000000000001, -70.));
#251 = CARTESIAN_POINT('', (4.99999999999999, -5.00000000000001, -72.));
#252 = CARTESIAN_POINT('', (2.99999999999999, -3.00000000000001, -72.));
#253 = CARTESIAN_POINT('', (-6.60215362489092E-15, -5., -70.));
#254 = CARTESIAN_POINT('', (-6.72461830480564E-15, -5., -72.));
#255 = CARTESIAN_POINT('', (-6.96954766463511E-15, -3., -72.));
#256 = CARTESIAN_POINT('', (-5.00000000000001, -5., -70.));
#257 = CARTESIAN_POINT('', (-5.00000000000001, -5., -72.));
#258 = CARTESIAN_POINT('', (-3.00000000000001, -3., -72.));
#259 = CARTESIAN_POINT('', (-5., 4.59242549680258E-15, -70.));
#260 = CARTESIAN_POINT('', (-5., 4.71489017671731E-15, -72.));
#261 = CARTESIAN_POINT('', (-3., 4.59242549680257E-15, -72.));
#262 = ADVANCED_FACE('', (#263), #266, .T.);
#263 = FACE_OUTER_BOUND('', #264, .T.);
#264 = EDGE_LOOP('', (#265));
#265 = ORIENTED_EDGE('', *, *, #228, .T.);
#266 = B_SPLINE_SURFACE_WITH_KNOTS('', 1, 1, ((#267, #268), (#269, #270)), .UNSPECIFIED., .F., .F., .U., (2, 2), (2, 2), (0.0454545454545454, 0.954545454545454), (0.0454545454545454, 0.954545454545455), .UNSPECIFIED.);
#267 = CARTESIAN_POINT('', (3., -3., -72.));
#268 = CARTESIAN_POINT('', (3., 3., -72.));
#269 = CARTESIAN_POINT('', (-3., -3., -72.));
#270 = CARTESIAN_POINT('', (-3., 3., -72.));
#271 = PRESENTATION_STYLE_ASSIGNMENT((#272));
#272 = SURFACE_STYLE_USAGE(.POSITIVE., #273);
#273 = SURFACE_SIDE_STYLE('', (#274));
#274 = SURFACE_STYLE_FILL_AREA(#275);
#275 = FILL_AREA_STYLE('', (#276));
#276 = FILL_AREA_STYLE_COLOUR('', #277);
#277 = COLOUR_RGB('', 0.8, 0.8, 0.8);
#278 = STYLED_ITEM('', (#271), #155);
#279 = TRIMMED_CURVE('cutting part line', #280, (#284), (#285), .T., .CARTESIAN.);
#280 = LINE('', #281, #282);
#281 = CARTESIAN_POINT('', (2.84494650060196E-16, 0., -72.));
#282 = VECTOR('', #283, 3.);
#283 = DIRECTION('', (3., 0., 0.));
#284 = CARTESIAN_POINT('', (2.84494650060196E-16, 0., -72.));
#285 = CARTESIAN_POINT('', (3., 0., -72.));
#286 = TRIMMED_CURVE('cutting part line', #287, (#292), (#293), .T., .CARTESIAN.);
#287 = CIRCLE('', #288, 1.99999999999997);
#288 = AXIS2_PLACEMENT_3D('', #289, #290, #291);
#289 = CARTESIAN_POINT('', (3.00000000000003, -5.06763402771789E-15, -70.));
#290 = DIRECTION('', (1.59594559789866E-15, -1., 6.2450045135164E-17));
#291 = DIRECTION('', (-1.3100631690577E-14, -6.24500451351849E-17, -1.));
#292 = CARTESIAN_POINT('', (3., -5.19253411798826E-15, -72.));
#293 = CARTESIAN_POINT('', (4.99999999999999, -1.87574283192062E-15, -70.));
#294 = TRIMMED_CURVE('cutting part line', #295, (#299), (#300), .T., .CARTESIAN.);
#295 = LINE('', #296, #297);
#296 = CARTESIAN_POINT('', (5., 5.55026966140508E-16, -70.));
#297 = VECTOR('', #298, 20.5);
#298 = DIRECTION('', (0., -5.55026966140508E-16, 20.5));
#299 = CARTESIAN_POINT('', (5., 5.55026966140508E-16, -70.));
#300 = CARTESIAN_POINT('', (5., 0., -49.5));
#301 = TRIMMED_CURVE('cutting part line', #302, (#306), (#307), .T., .CARTESIAN.);
#302 = LINE('', #303, #304);
#303 = CARTESIAN_POINT('', (5., 0., -49.5));
#304 = VECTOR('', #305, 5.);
#305 = DIRECTION('', (-5., 0., 0.));
#306 = CARTESIAN_POINT('', (5., 0., -49.5));
#307 = CARTESIAN_POINT('', (1.38777878078145E-17, 0., -49.5));
#308 = TRIMMED_CURVE('cutting part line', #309, (#313), (#314), .T., .CARTESIAN.);
#309 = LINE('', #310, #311);
#310 = CARTESIAN_POINT('', (0., 0., -49.5));
#311 = VECTOR('', #312, 22.5);
#312 = DIRECTION('', (0., 0., -22.5));
#313 = CARTESIAN_POINT('', (0., 0., -49.5));
#314 = CARTESIAN_POINT('', (0., 0., -72.));
#315 = COMPOSITE_CURVE('cutting part line', (#316, #317, #318, #319, #320), .U.);
#316 = COMPOSITE_CURVE_SEGMENT(.CONTINUOUS., .T., #279);
#317 = COMPOSITE_CURVE_SEGMENT(.CONTINUOUS., .T., #286);
#318 = COMPOSITE_CURVE_SEGMENT(.CONTINUOUS., .T., #294);
#319 = COMPOSITE_CURVE_SEGMENT(.CONTINUOUS., .T., #301);
#320 = COMPOSITE_CURVE_SEGMENT(.CONTINUOUS., .T., #308);
#321 = GEOMETRIC_SET('', (#315, #364));
#322 = PRESENTATION_STYLE_ASSIGNMENT((#323));
#323 = CURVE_STYLE('', #325, POSITIVE_LENGTH_MEASURE(1.E-6), #324);
#324 = COLOUR_RGB('', 0., 0., 1.);
#325 = DRAUGHTING_PRE_DEFINED_CURVE_FONT('continuous');
#326 = STYLED_ITEM('', (#322), #315);
#327 = PRESENTATION_STYLE_ASSIGNMENT((#328));
#328 = CURVE_STYLE('', #330, POSITIVE_LENGTH_MEASURE(1.E-6), #329);
#329 = COLOUR_RGB('', 0., 0., 1.);
#330 = DRAUGHTING_PRE_DEFINED_CURVE_FONT('continuous');
#331 = OVER_RIDING_STYLED_ITEM('', (#327), #279, #326);
#332 = PRESENTATION_STYLE_ASSIGNMENT((#333));
#333 = CURVE_STYLE('', #335, POSITIVE_LENGTH_MEASURE(1.E-6), #334);
#334 = COLOUR_RGB('', 0., 0., 1.);
#335 = DRAUGHTING_PRE_DEFINED_CURVE_FONT('continuous');
#336 = OVER_RIDING_STYLED_ITEM('', (#332), #286, #326);
#337 = PRESENTATION_STYLE_ASSIGNMENT((#338));
#338 = CURVE_STYLE('', #340, POSITIVE_LENGTH_MEASURE(1.E-6), #339);
#339 = COLOUR_RGB('', 0., 0., 1.);
#340 = DRAUGHTING_PRE_DEFINED_CURVE_FONT('continuous');
#341 = OVER_RIDING_STYLED_ITEM('', (#337), #294, #326);
#342 = PRESENTATION_STYLE_ASSIGNMENT((#343));
#343 = CURVE_STYLE('', #345, POSITIVE_LENGTH_MEASURE(1.E-6), #344);
#344 = COLOUR_RGB('', 0., 0., 1.);
#345 = DRAUGHTING_PRE_DEFINED_CURVE_FONT('continuous');
#346 = OVER_RIDING_STYLED_ITEM('', (#342), #301, #326);
#347 = PRESENTATION_STYLE_ASSIGNMENT((#348));
#348 = CURVE_STYLE('', #350, POSITIVE_LENGTH_MEASURE(1.E-6), #349);
#349 = COLOUR_RGB('', 0., 0., 1.);
#350 = DRAUGHTING_PRE_DEFINED_CURVE_FONT('continuous');
#351 = OVER_RIDING_STYLED_ITEM('', (#347), #308, #326);
#352 = AXIS2_PLACEMENT_3D('MCS', #353, #354, #355);
#353 = CARTESIAN_POINT('', (0., 0., -40.));
#354 = DIRECTION('', (0., 0., 1.));
#355 = DIRECTION('', (1., 0., 0.));
#356 = AXIS2_PLACEMENT_3D('PCS', #357, #358, #359);
#357 = CARTESIAN_POINT('', (0., 0., 0.));
#358 = DIRECTION('', (0., 0., 1.));
#359 = DIRECTION('', (1., 0., 0.));
#360 = AXIS2_PLACEMENT_3D('CIP', #361, #362, #363);
#361 = CARTESIAN_POINT('', (0., 0., -72.));
#362 = DIRECTION('', (0., 0., 1.));
#363 = DIRECTION('', (1., 0., 0.));
#364 = CARTESIAN_POINT('CRP', (5., 0., -72.));
#365 = (
   GEOMETRIC_REPRESENTATION_CONTEXT (3)
   GLOBAL_UNCERTAINTY_ASSIGNED_CONTEXT ((#367))
   GLOBAL_UNIT_ASSIGNED_CONTEXT ((#366, #368, #369))
   REPRESENTATION_CONTEXT ('', '3D')
);
#366 = (
   LENGTH_UNIT ()
   NAMED_UNIT (*)
   SI_UNIT (.MILLI., .METRE.)
);
#367 = UNCERTAINTY_MEASURE_WITH_UNIT(LENGTH_MEASURE(1.E-6), #366, 'DISTANCE_ACCURACY_VALUE', '');
#368 = (
   NAMED_UNIT (*)
   SI_UNIT ($, .STERADIAN.)
   SOLID_ANGLE_UNIT ()
);
#369 = (
   NAMED_UNIT (*)
   PLANE_ANGLE_UNIT ()
   SI_UNIT ($, .RADIAN.)
);
#370 = SHAPE_REPRESENTATION('', (), #365);
#371 = PRODUCT_DEFINITION_SHAPE('', '', #372);
#372 = PRODUCT_DEFINITION('', '', #375, #379);
#373 = APPLICATION_CONTEXT('configuration controlled 3D designs of mechanical parts and assemblies');
#374 = APPLICATION_PROTOCOL_DEFINITION('International Standard', 'automotive_design', 2002, #373);
#375 = PRODUCT_DEFINITION_FORMATION_WITH_SPECIFIED_SOURCE('', '', #376, .NOT_KNOWN.);
#376 = PRODUCT('product-name', '2S340-1000-200-MA   1640', '', (#377));
#377 = PRODUCT_CONTEXT('', #373, 'mechanical');
#378 = PRODUCT_RELATED_PRODUCT_CATEGORY('detail', '', (#376));
#379 = PRODUCT_DEFINITION_CONTEXT('part definition', #373, 'design');
#380 = SHAPE_DEFINITION_REPRESENTATION(#371, #370);
#381 = CONSTRUCTIVE_GEOMETRY_REPRESENTATION('supplemental geometry', (#352, #356, #360), #365);
#382 = CONSTRUCTIVE_GEOMETRY_REPRESENTATION_RELATIONSHIP('', '', #370, #381);
#383 = SHAPE_REPRESENTATION_RELATIONSHIP('', '', #370, #384);
#384 = SHAPE_REPRESENTATION('', (#321), #365);
#385 = SHAPE_REPRESENTATION_RELATIONSHIP('', '', #370, #386);
#386 = ADVANCED_BREP_SHAPE_REPRESENTATION('', (#1, #155), #365);
ENDSEC;
END-ISO-10303-21;
