ISO-10303-21;
HEADER;
FILE_DESCRIPTION(('STEP'), '1');
FILE_NAME('C:\\Users\\ds2002\\OneDrive - Sandvik\\HomeShare\\Documents\\Batchrepair\\CorSRT2\\NEW_MILSQ_SLD\\Output\\MOD000000000000000020082328700000.stp', '2019-01-02T12:08:23', (''), (''), 'Express v3.0.0.0', 'Express Tool', 'Unknown');
FILE_SCHEMA(('AUTOMOTIVE_DESIGN'));
ENDSEC;

DATA;
#1 = MANIFOLD_SOLID_BREP('NOCUT', #2);
#2 = CLOSED_SHELL('', (#3, #50, #89, #128, #137, #176));
#3 = ADVANCED_FACE('', (#4), #31, .T.);
#4 = FACE_OUTER_BOUND('', #5, .T.);
#5 = EDGE_LOOP('', (#6, #16, #23, #24));
#6 = ORIENTED_EDGE('', *, *, #7, .F.);
#7 = EDGE_CURVE('', #8, #10, #12, .T.);
#8 = VERTEX_POINT('', #9);
#9 = CARTESIAN_POINT('', (-3., 2.63299061816681E-15, -40.));
#10 = VERTEX_POINT('', #11);
#11 = CARTESIAN_POINT('', (-2., 2.67585325613697E-15, -41.7));
#12 = LINE('', #13, #14);
#13 = CARTESIAN_POINT('', (-3., 2.63299061816681E-15, -40.));
#14 = VECTOR('', #15, 1.9723082923316);
#15 = DIRECTION('', (1., 4.28626379701599E-17, -1.7));
#16 = ORIENTED_EDGE('', *, *, #17, .T.);
#17 = EDGE_CURVE('', #8, #8, #18, .T.);
#18 = CIRCLE('', #19, 3.);
#19 = AXIS2_PLACEMENT_3D('', #20, #21, #22);
#20 = CARTESIAN_POINT('', (2.08166817117217E-16, 2.22044604925031E-15, -40.));
#21 = DIRECTION('', (-1.10853428861107E-30, -8.06119657463322E-15, -1.));
#22 = DIRECTION('', (-1., 1.37514856305499E-16, 0.));
#23 = ORIENTED_EDGE('', *, *, #7, .T.);
#24 = ORIENTED_EDGE('', *, *, #25, .F.);
#25 = EDGE_CURVE('', #10, #10, #26, .T.);
#26 = CIRCLE('', #27, 2.);
#27 = AXIS2_PLACEMENT_3D('', #28, #29, #30);
#28 = CARTESIAN_POINT('', (4.85722573273506E-17, 1.83186799063151E-15, -41.7));
#29 = DIRECTION('', (0., 0., -1.));
#30 = DIRECTION('', (-1., 4.21992632752731E-16, 0.));
#31 = (
   BOUNDED_SURFACE ()
   B_SPLINE_SURFACE (2, 1, ((#32, #33), (#34, #35), (#36, #37), (#38, #39), (#40, #41), (#42, #43), (#44, #45), (#46, #47), (#48, #49)), .UNSPECIFIED., .T., .F., .U.)
   B_SPLINE_SURFACE_WITH_KNOTS ((3, 2, 2, 2, 3), (2, 2), (0., 0.25, 0.5, 0.75, 1.), (0., 1.), .UNSPECIFIED.)
   GEOMETRIC_REPRESENTATION_ITEM ()
   RATIONAL_B_SPLINE_SURFACE (((1., 1.), (0.707106781186548, 0.707106781186548), (1., 1.), (0.707106781186548, 0.707106781186548), (1., 1.), (0.707106781186548, 0.707106781186548), (1., 1.), (0.707106781186548, 0.707106781186548), (1., 1.)))
   REPRESENTATION_ITEM ('')
   SURFACE ()
);
#32 = CARTESIAN_POINT('', (-3., 2.63299061816681E-15, -40.));
#33 = CARTESIAN_POINT('', (-2., 2.10689770324251E-15, -41.7));
#34 = CARTESIAN_POINT('', (-3., 3., -40.));
#35 = CARTESIAN_POINT('', (-2., 2., -41.7));
#36 = CARTESIAN_POINT('', (4.37014366161611E-16, 3., -40.));
#37 = CARTESIAN_POINT('', (3.60731849813479E-16, 2., -41.7));
#38 = CARTESIAN_POINT('', (3., 3., -40.));
#39 = CARTESIAN_POINT('', (2., 2., -41.7));
#40 = CARTESIAN_POINT('', (3., 2.17529552007802E-15, -40.));
#41 = CARTESIAN_POINT('', (2., 1.80176763784998E-15, -41.7));
#42 = CARTESIAN_POINT('', (3., -3., -40.));
#43 = CARTESIAN_POINT('', (2., -2., -41.7));
#44 = CARTESIAN_POINT('', (3.46713307817029E-16, -3., -40.));
#45 = CARTESIAN_POINT('', (3.00531144250425E-16, -2., -41.7));
#46 = CARTESIAN_POINT('', (-3., -3., -40.));
#47 = CARTESIAN_POINT('', (-2., -2., -41.7));
#48 = CARTESIAN_POINT('', (-3., 2.63299061816681E-15, -40.));
#49 = CARTESIAN_POINT('', (-2., 2.10689770324251E-15, -41.7));
#50 = ADVANCED_FACE('', (#51), #70, .T.);
#51 = FACE_OUTER_BOUND('', #52, .T.);
#52 = EDGE_LOOP('', (#53, #61, #68, #69));
#53 = ORIENTED_EDGE('', *, *, #54, .T.);
#54 = EDGE_CURVE('', #8, #55, #57, .T.);
#55 = VERTEX_POINT('', #56);
#56 = CARTESIAN_POINT('', (-3., 2.02066721859313E-16, -0.299999999999997));
#57 = LINE('', #58, #59);
#58 = CARTESIAN_POINT('', (-3., 2.63299061816681E-15, -40.));
#59 = VECTOR('', #60, 39.7);
#60 = DIRECTION('', (0., -2.4309238963075E-15, 39.7));
#61 = ORIENTED_EDGE('', *, *, #62, .T.);
#62 = EDGE_CURVE('', #55, #55, #63, .T.);
#63 = CIRCLE('', #64, 3.);
#64 = AXIS2_PLACEMENT_3D('', #65, #66, #67);
#65 = CARTESIAN_POINT('', (1.346145417358E-15, -1.88737914186277E-15, -0.299999999999997));
#66 = DIRECTION('', (-1.85037170770859E-17, 6.01984494166833E-17, -1.));
#67 = DIRECTION('', (-1., 6.96481954574026E-16, 1.85037170770859E-17));
#68 = ORIENTED_EDGE('', *, *, #54, .F.);
#69 = ORIENTED_EDGE('', *, *, #17, .F.);
#70 = (
   BOUNDED_SURFACE ()
   B_SPLINE_SURFACE (1, 2, ((#71, #72, #73, #74, #75, #76, #77, #78, #79), (#80, #81, #82, #83, #84, #85, #86, #87, #88)), .UNSPECIFIED., .F., .T., .U.)
   B_SPLINE_SURFACE_WITH_KNOTS ((2, 2), (3, 2, 2, 2, 3), (0., 1.), (0., 4.7123889803847, 9.4247779607694, 14.1371669411541, 18.8495559215388), .UNSPECIFIED.)
   GEOMETRIC_REPRESENTATION_ITEM ()
   RATIONAL_B_SPLINE_SURFACE (((1., 0.707106781186548, 1., 0.707106781186548, 1., 0.707106781186548, 1., 0.707106781186548, 1.), (1., 0.707106781186548, 1., 0.707106781186548, 1., 0.707106781186548, 1., 0.707106781186548, 1.)))
   REPRESENTATION_ITEM ('')
   SURFACE ()
);
#71 = CARTESIAN_POINT('', (-3., 1.09024514155944E-15, -40.));
#72 = CARTESIAN_POINT('', (-3., 3., -40.));
#73 = CARTESIAN_POINT('', (2.51729669324767E-15, 3., -40.));
#74 = CARTESIAN_POINT('', (3., 3., -40.));
#75 = CARTESIAN_POINT('', (3., -2.72125254614051E-15, -40.));
#76 = CARTESIAN_POINT('', (3., -3., -40.));
#77 = CARTESIAN_POINT('', (-9.26806954708078E-16, -3., -40.));
#78 = CARTESIAN_POINT('', (-3., -3., -40.));
#79 = CARTESIAN_POINT('', (-3., 1.09024514155944E-15, -40.));
#80 = CARTESIAN_POINT('', (-3., 2.02066721859312E-16, -0.299999999999997));
#81 = CARTESIAN_POINT('', (-3., 3., -0.299999999999997));
#82 = CARTESIAN_POINT('', (3.25189426120798E-15, 3., -0.299999999999997));
#83 = CARTESIAN_POINT('', (3., 3., -0.299999999999997));
#84 = CARTESIAN_POINT('', (3., -3.60943096584064E-15, -0.299999999999997));
#85 = CARTESIAN_POINT('', (3., -3., -0.299999999999997));
#86 = CARTESIAN_POINT('', (-1.92209386747767E-16, -3., -0.299999999999997));
#87 = CARTESIAN_POINT('', (-3., -3., -0.299999999999997));
#88 = CARTESIAN_POINT('', (-3., 2.02066721859312E-16, -0.299999999999997));
#89 = ADVANCED_FACE('', (#90), #109, .T.);
#90 = FACE_OUTER_BOUND('', #91, .T.);
#91 = EDGE_LOOP('', (#92, #100, #107, #108));
#92 = ORIENTED_EDGE('', *, *, #93, .T.);
#93 = EDGE_CURVE('', #55, #94, #96, .T.);
#94 = VERTEX_POINT('', #95);
#95 = CARTESIAN_POINT('', (-2.7, 1.65327317884893E-16, 0.));
#96 = LINE('', #97, #98);
#97 = CARTESIAN_POINT('', (-3., 2.02066721859313E-16, -0.299999999999997));
#98 = VECTOR('', #99, 0.424264068711926);
#99 = DIRECTION('', (0.3, -3.673940397442E-17, 0.299999999999997));
#100 = ORIENTED_EDGE('', *, *, #101, .T.);
#101 = EDGE_CURVE('', #94, #94, #102, .T.);
#102 = CIRCLE('', #103, 2.7);
#103 = AXIS2_PLACEMENT_3D('', #104, #105, #106);
#104 = CARTESIAN_POINT('', (9.22872889219661E-16, -1.27675647831893E-15, -8.0118685686509E-32));
#105 = DIRECTION('', (3.03091835913145E-33, 6.12323399573678E-17, -1.));
#106 = DIRECTION('', (-1., 5.34105109705119E-16, 2.96735872912996E-32));
#107 = ORIENTED_EDGE('', *, *, #93, .F.);
#108 = ORIENTED_EDGE('', *, *, #62, .F.);
#109 = (
   BOUNDED_SURFACE ()
   B_SPLINE_SURFACE (1, 2, ((#110, #111, #112, #113, #114, #115, #116, #117, #118), (#119, #120, #121, #122, #123, #124, #125, #126, #127)), .UNSPECIFIED., .F., .T., .U.)
   B_SPLINE_SURFACE_WITH_KNOTS ((2, 2), (3, 2, 2, 2, 3), (0., 1.), (0., 0.25, 0.5, 0.75, 1.), .UNSPECIFIED.)
   GEOMETRIC_REPRESENTATION_ITEM ()
   RATIONAL_B_SPLINE_SURFACE (((1., 0.707106781186548, 1., 0.707106781186548, 1., 0.707106781186548, 1., 0.707106781186548, 1.), (1., 0.707106781186548, 1., 0.707106781186548, 1., 0.707106781186548, 1., 0.707106781186548, 1.)))
   REPRESENTATION_ITEM ('')
   SURFACE ()
);
#110 = CARTESIAN_POINT('', (-3., 1.49129302665284E-15, -0.299999999999997));
#111 = CARTESIAN_POINT('', (-3., 3., -0.299999999999985));
#112 = CARTESIAN_POINT('', (2.34149119846292E-15, 3., -0.299999999999985));
#113 = CARTESIAN_POINT('', (3., 3., -0.299999999999985));
#114 = CARTESIAN_POINT('', (3., -1.34594359183367E-15, -0.299999999999997));
#115 = CARTESIAN_POINT('', (3., -3., -0.300000000000009));
#116 = CARTESIAN_POINT('', (-1.28351380279387E-16, -3., -0.300000000000009));
#117 = CARTESIAN_POINT('', (-3., -3., -0.300000000000009));
#118 = CARTESIAN_POINT('', (-3., 1.49129302665284E-15, -0.299999999999997));
#119 = CARTESIAN_POINT('', (-2.7, 1.65327317884893E-16, -2.18952885050753E-47));
#120 = CARTESIAN_POINT('', (-2.7, 2.7, 1.04916075827078E-14));
#121 = CARTESIAN_POINT('', (2.19962936753859E-15, 2.7, 1.04916075827078E-14));
#122 = CARTESIAN_POINT('', (2.7, 2.7, 1.04916075827078E-14));
#123 = CARTESIAN_POINT('', (2.7, -2.38818563875297E-15, 1.12461399303431E-30));
#124 = CARTESIAN_POINT('', (2.7, -2.7, -1.04916075827078E-14));
#125 = CARTESIAN_POINT('', (-2.32289533294833E-17, -2.7, -1.04916075827078E-14));
#126 = CARTESIAN_POINT('', (-2.7, -2.7, -1.04916075827078E-14));
#127 = CARTESIAN_POINT('', (-2.7, 1.65327317884893E-16, -2.18952885050753E-47));
#128 = ADVANCED_FACE('', (#129), #132, .T.);
#129 = FACE_OUTER_BOUND('', #130, .T.);
#130 = EDGE_LOOP('', (#131));
#131 = ORIENTED_EDGE('', *, *, #101, .F.);
#132 = B_SPLINE_SURFACE_WITH_KNOTS('', 1, 1, ((#133, #134), (#135, #136)), .UNSPECIFIED., .F., .F., .U., (2, 2), (2, 2), (0.0454545454545454, 0.954545454545454), (0.0454545454545454, 0.954545454545454), .UNSPECIFIED.);
#133 = CARTESIAN_POINT('', (2.7, -2.7, -1.65327317884893E-16));
#134 = CARTESIAN_POINT('', (-2.7, -2.7, -1.65327317884893E-16));
#135 = CARTESIAN_POINT('', (2.7, 2.7, 1.65327317884893E-16));
#136 = CARTESIAN_POINT('', (-2.7, 2.7, 1.65327317884893E-16));
#137 = ADVANCED_FACE('', (#138), #157, .T.);
#138 = FACE_OUTER_BOUND('', #139, .T.);
#139 = EDGE_LOOP('', (#140, #149, #155, #156));
#140 = ORIENTED_EDGE('', *, *, #141, .F.);
#141 = EDGE_CURVE('', #142, #142, #144, .T.);
#142 = VERTEX_POINT('', #143);
#143 = CARTESIAN_POINT('', (-2., 2.90853614797496E-15, -45.5));
#144 = CIRCLE('', #145, 2.);
#145 = AXIS2_PLACEMENT_3D('', #146, #147, #148);
#146 = CARTESIAN_POINT('', (3.19189119579733E-16, 1.11022302462516E-15, -45.5));
#147 = DIRECTION('', (0., 0., -1.));
#148 = DIRECTION('', (-1., 8.99156561674902E-16, 0.));
#149 = ORIENTED_EDGE('', *, *, #150, .F.);
#150 = EDGE_CURVE('', #10, #142, #151, .T.);
#151 = LINE('', #152, #153);
#152 = CARTESIAN_POINT('', (-2., 2.67585325613697E-15, -41.7));
#153 = VECTOR('', #154, 3.8);
#154 = DIRECTION('', (0., 2.3268289183799E-16, -3.8));
#155 = ORIENTED_EDGE('', *, *, #25, .T.);
#156 = ORIENTED_EDGE('', *, *, #150, .T.);
#157 = (
   BOUNDED_SURFACE ()
   B_SPLINE_SURFACE (2, 1, ((#158, #159), (#160, #161), (#162, #163), (#164, #165), (#166, #167), (#168, #169), (#170, #171), (#172, #173), (#174, #175)), .UNSPECIFIED., .T., .F., .U.)
   B_SPLINE_SURFACE_WITH_KNOTS ((3, 2, 2, 2, 3), (2, 2), (0., 3.1415926535898, 6.2831853071796, 9.4247779607694, 12.5663706143592), (0., 0.265734265734266), .UNSPECIFIED.)
   GEOMETRIC_REPRESENTATION_ITEM ()
   RATIONAL_B_SPLINE_SURFACE (((1., 1.), (0.707106781186548, 0.707106781186548), (1., 1.), (0.707106781186548, 0.707106781186548), (1., 1.), (0.707106781186548, 0.707106781186548), (1., 1.), (0.707106781186548, 0.707106781186548), (1., 1.)))
   REPRESENTATION_ITEM ('')
   SURFACE ()
);
#158 = CARTESIAN_POINT('', (-2., 2.67585325613697E-15, -41.7));
#159 = CARTESIAN_POINT('', (-2., 3.00892016352452E-15, -45.5));
#160 = CARTESIAN_POINT('', (-2., 2., -41.7));
#161 = CARTESIAN_POINT('', (-2., 2., -45.5));
#162 = CARTESIAN_POINT('', (2.18562719931515E-15, 2., -41.7));
#163 = CARTESIAN_POINT('', (2.18562719931515E-15, 2., -45.5));
#164 = CARTESIAN_POINT('', (2., 2., -41.7));
#165 = CARTESIAN_POINT('', (2., 2., -45.5));
#166 = CARTESIAN_POINT('', (2., -2.09785698891995E-15, -41.7));
#167 = CARTESIAN_POINT('', (2., -1.76479008153241E-15, -45.5));
#168 = CARTESIAN_POINT('', (2., -2., -41.7));
#169 = CARTESIAN_POINT('', (2., -2., -45.5));
#170 = CARTESIAN_POINT('', (-2.3431536859123E-15, -2., -41.7));
#171 = CARTESIAN_POINT('', (-2.3431536859123E-15, -2., -45.5));
#172 = CARTESIAN_POINT('', (-2., -2., -41.7));
#173 = CARTESIAN_POINT('', (-2., -2., -45.5));
#174 = CARTESIAN_POINT('', (-2., 2.67585325613697E-15, -41.7));
#175 = CARTESIAN_POINT('', (-2., 3.00892016352452E-15, -45.5));
#176 = ADVANCED_FACE('', (#177), #180, .T.);
#177 = FACE_OUTER_BOUND('', #178, .T.);
#178 = EDGE_LOOP('', (#179));
#179 = ORIENTED_EDGE('', *, *, #141, .T.);
#180 = B_SPLINE_SURFACE_WITH_KNOTS('', 1, 1, ((#181, #182), (#183, #184)), .UNSPECIFIED., .F., .F., .U., (2, 2), (2, 2), (0.498173415706653, 0.532878693242074), (0.467121306757925, 0.501826584293347), .UNSPECIFIED.);
#181 = CARTESIAN_POINT('', (-2.00000000000001, 2.00000000000002, -45.5));
#182 = CARTESIAN_POINT('', (-2.00000000000001, -1.99999999999998, -45.5));
#183 = CARTESIAN_POINT('', (1.99999999999999, 2.00000000000002, -45.5));
#184 = CARTESIAN_POINT('', (1.99999999999999, -1.99999999999998, -45.5));
#185 = DRAUGHTING_MODEL('', (#193, #317, #365, #370, #375, #380, #385, #390), #404);
#186 = PRESENTATION_STYLE_ASSIGNMENT((#187));
#187 = SURFACE_STYLE_USAGE(.POSITIVE., #188);
#188 = SURFACE_SIDE_STYLE('', (#189));
#189 = SURFACE_STYLE_FILL_AREA(#190);
#190 = FILL_AREA_STYLE('', (#191));
#191 = FILL_AREA_STYLE_COLOUR('', #192);
#192 = COLOUR_RGB('', 0.50196078431373, 0.50196078431373, 0.50196078431373);
#193 = STYLED_ITEM('', (#186), #1);
#194 = MANIFOLD_SOLID_BREP('CUT', #195);
#195 = CLOSED_SHELL('', (#196, #213, #252, #301));
#196 = ADVANCED_FACE('', (#197), #208, .T.);
#197 = FACE_OUTER_BOUND('', #198, .T.);
#198 = EDGE_LOOP('', (#199));
#199 = ORIENTED_EDGE('', *, *, #200, .F.);
#200 = EDGE_CURVE('', #201, #201, #203, .T.);
#201 = VERTEX_POINT('', #202);
#202 = CARTESIAN_POINT('', (-2., 2.90853614797496E-15, -45.5));
#203 = CIRCLE('', #204, 2.);
#204 = AXIS2_PLACEMENT_3D('', #205, #206, #207);
#205 = CARTESIAN_POINT('', (3.19189119579733E-16, 1.11022302462516E-15, -45.5));
#206 = DIRECTION('', (0., 0., -1.));
#207 = DIRECTION('', (-1., 8.99156561674902E-16, 0.));
#208 = B_SPLINE_SURFACE_WITH_KNOTS('', 1, 1, ((#209, #210), (#211, #212)), .UNSPECIFIED., .F., .F., .U., (2, 2), (2, 2), (0.467121306757925, 0.501826584293347), (0.498173415706653, 0.532878693242075), .UNSPECIFIED.);
#209 = CARTESIAN_POINT('', (-2., 2., -45.5));
#210 = CARTESIAN_POINT('', (2., 2., -45.5));
#211 = CARTESIAN_POINT('', (-2., -1.99999999999999, -45.5));
#212 = CARTESIAN_POINT('', (2., -1.99999999999999, -45.5));
#213 = ADVANCED_FACE('', (#214), #233, .T.);
#214 = FACE_OUTER_BOUND('', #215, .T.);
#215 = EDGE_LOOP('', (#216, #217, #225, #232));
#216 = ORIENTED_EDGE('', *, *, #200, .T.);
#217 = ORIENTED_EDGE('', *, *, #218, .T.);
#218 = EDGE_CURVE('', #201, #219, #221, .T.);
#219 = VERTEX_POINT('', #220);
#220 = CARTESIAN_POINT('', (-2., 3.55147571752732E-15, -56.));
#221 = LINE('', #222, #223);
#222 = CARTESIAN_POINT('', (-2., 2.90853614797496E-15, -45.5));
#223 = VECTOR('', #224, 10.5);
#224 = DIRECTION('', (0., 6.4293956955236E-16, -10.5));
#225 = ORIENTED_EDGE('', *, *, #226, .F.);
#226 = EDGE_CURVE('', #219, #219, #227, .T.);
#227 = CIRCLE('', #228, 2.);
#228 = AXIS2_PLACEMENT_3D('', #229, #230, #231);
#229 = CARTESIAN_POINT('', (-2.42861286636753E-16, 9.99200722162641E-16, -56.));
#230 = DIRECTION('', (1.5430792837617E-29, 1.209179486195E-14, -1.));
#231 = DIRECTION('', (-1., 1.27613749768234E-15, 0.));
#232 = ORIENTED_EDGE('', *, *, #218, .F.);
#233 = (
   BOUNDED_SURFACE ()
   B_SPLINE_SURFACE (2, 1, ((#234, #235), (#236, #237), (#238, #239), (#240, #241), (#242, #243), (#244, #245), (#246, #247), (#248, #249), (#250, #251)), .UNSPECIFIED., .T., .F., .U.)
   B_SPLINE_SURFACE_WITH_KNOTS ((3, 2, 2, 2, 3), (2, 2), (0., 3.1415926535898, 6.2831853071796, 9.4247779607694, 12.5663706143592), (0.265734265734266, 1.), .UNSPECIFIED.)
   GEOMETRIC_REPRESENTATION_ITEM ()
   RATIONAL_B_SPLINE_SURFACE (((1., 1.), (0.707106781186548, 0.707106781186548), (1., 1.), (0.707106781186548, 0.707106781186548), (1., 1.), (0.707106781186548, 0.707106781186548), (1., 1.), (0.707106781186548, 0.707106781186548), (1., 1.)))
   REPRESENTATION_ITEM ('')
   SURFACE ()
);
#234 = CARTESIAN_POINT('', (-2., 2.90853614797496E-15, -45.5));
#235 = CARTESIAN_POINT('', (-2., 3.40813650905628E-15, -56.));
#236 = CARTESIAN_POINT('', (-2., 2., -45.5));
#237 = CARTESIAN_POINT('', (-2., 2., -56.));
#238 = CARTESIAN_POINT('', (2.06442650205387E-15, 2., -45.5));
#239 = CARTESIAN_POINT('', (2.06442650205387E-15, 2., -56.));
#240 = CARTESIAN_POINT('', (2., 2., -45.5));
#241 = CARTESIAN_POINT('', (2., 2., -56.));
#242 = CARTESIAN_POINT('', (2., -1.66440606598285E-15, -45.5));
#243 = CARTESIAN_POINT('', (2., -1.16480570490153E-15, -56.));
#244 = CARTESIAN_POINT('', (2., -2., -45.5));
#245 = CARTESIAN_POINT('', (2., -2., -56.));
#246 = CARTESIAN_POINT('', (-2.26358635207447E-15, -2., -45.5));
#247 = CARTESIAN_POINT('', (-2.26358635207446E-15, -2., -56.));
#248 = CARTESIAN_POINT('', (-2., -2., -45.5));
#249 = CARTESIAN_POINT('', (-2., -2., -56.));
#250 = CARTESIAN_POINT('', (-2., 2.90853614797496E-15, -45.5));
#251 = CARTESIAN_POINT('', (-2., 3.40813650905628E-15, -56.));
#252 = ADVANCED_FACE('', (#253), #273, .T.);
#253 = FACE_OUTER_BOUND('', #254, .T.);
#254 = EDGE_LOOP('', (#255, #264, #265, #266));
#255 = ORIENTED_EDGE('', *, *, #256, .F.);
#256 = EDGE_CURVE('', #219, #257, #259, .T.);
#257 = VERTEX_POINT('', #258);
#258 = CARTESIAN_POINT('', (-1., 3.55147571752732E-15, -57.));
#259 = CIRCLE('', #260, 0.999999999999967);
#260 = AXIS2_PLACEMENT_3D('', #261, #262, #263);
#261 = CARTESIAN_POINT('', (-1.00000000000003, 3.49024337756996E-15, -56.));
#262 = DIRECTION('', (-6.12323399573664E-17, -1., -6.1232339957367E-17));
#263 = DIRECTION('', (-1., 6.12323399573651E-17, 2.13162820728037E-14));
#264 = ORIENTED_EDGE('', *, *, #226, .T.);
#265 = ORIENTED_EDGE('', *, *, #256, .T.);
#266 = ORIENTED_EDGE('', *, *, #267, .F.);
#267 = EDGE_CURVE('', #257, #257, #268, .T.);
#268 = CIRCLE('', #269, 0.999999999999999);
#269 = AXIS2_PLACEMENT_3D('', #270, #271, #272);
#270 = CARTESIAN_POINT('', (-1.6306400674182E-16, 4.44089209850063E-15, -57.));
#271 = DIRECTION('', (0., 0., -1.));
#272 = DIRECTION('', (-1., -8.89416380973306E-16, 0.));
#273 = (
   BOUNDED_SURFACE ()
   B_SPLINE_SURFACE (2, 2, ((#274, #275, #276), (#277, #278, #279), (#280, #281, #282), (#283, #284, #285), (#286, #287, #288), (#289, #290, #291), (#292, #293, #294), (#295, #296, #297), (#298, #299, #300)), .UNSPECIFIED., .T., .F., .U.)
   B_SPLINE_SURFACE_WITH_KNOTS ((3, 2, 2, 2, 3), (3, 3), (0., 0.25, 0.5, 0.75, 1.), (0., 1.), .UNSPECIFIED.)
   GEOMETRIC_REPRESENTATION_ITEM ()
   RATIONAL_B_SPLINE_SURFACE (((1., 0.707106781186548, 1.), (0.707106781186548, 0.5, 0.707106781186548), (1., 0.707106781186548, 1.), (0.707106781186548, 0.5, 0.707106781186548), (1., 0.707106781186548, 1.), (0.707106781186548, 0.5, 0.707106781186548), (1., 0.707106781186548, 1.), (0.707106781186548, 0.5, 0.707106781186548), (1., 0.707106781186548, 1.)))
   REPRESENTATION_ITEM ('')
   SURFACE ()
);
#274 = CARTESIAN_POINT('', (-2., 3.55147571752732E-15, -56.));
#275 = CARTESIAN_POINT('', (-2., 3.61270805748469E-15, -57.));
#276 = CARTESIAN_POINT('', (-1., 3.55147571752732E-15, -57.));
#277 = CARTESIAN_POINT('', (-2., 2., -56.));
#278 = CARTESIAN_POINT('', (-1.99999999999999, 2.00000000000001, -57.));
#279 = CARTESIAN_POINT('', (-0.999999999999987, 1.00000000000001, -57.));
#280 = CARTESIAN_POINT('', (1.74979871286712E-15, 2., -56.));
#281 = CARTESIAN_POINT('', (1.69218470196279E-14, 1.99999999999999, -57.));
#282 = CARTESIAN_POINT('', (1.69218470196279E-14, 0.999999999999994, -57.));
#283 = CARTESIAN_POINT('', (2., 2., -56.));
#284 = CARTESIAN_POINT('', (2.00000000000002, 1.99999999999998, -57.));
#285 = CARTESIAN_POINT('', (1.00000000000002, 0.999999999999981, -57.));
#286 = CARTESIAN_POINT('', (2., 6.90256530952714E-16, -56.));
#287 = CARTESIAN_POINT('', (2.00000000000001, -2.24871803850106E-14, -57.));
#288 = CARTESIAN_POINT('', (1.00000000000001, -2.2548412724968E-14, -57.));
#289 = CARTESIAN_POINT('', (2., -2., -56.));
#290 = CARTESIAN_POINT('', (1.99999999999999, -2.00000000000003, -57.));
#291 = CARTESIAN_POINT('', (0.999999999999995, -1.00000000000003, -57.));
#292 = CARTESIAN_POINT('', (-8.66491113878182E-16, -2., -56.));
#293 = CARTESIAN_POINT('', (-8.93311206303801E-15, -2.00000000000001, -57.));
#294 = CARTESIAN_POINT('', (-9.05557674295269E-15, -1.00000000000001, -57.));
#295 = CARTESIAN_POINT('', (-2., -2., -56.));
#296 = CARTESIAN_POINT('', (-2.00000000000001, -2., -57.));
#297 = CARTESIAN_POINT('', (-1.00000000000001, -1., -57.));
#298 = CARTESIAN_POINT('', (-2., 3.55147571752732E-15, -56.));
#299 = CARTESIAN_POINT('', (-2., 3.61270805748469E-15, -57.));
#300 = CARTESIAN_POINT('', (-1., 3.55147571752732E-15, -57.));
#301 = ADVANCED_FACE('', (#302), #305, .T.);
#302 = FACE_OUTER_BOUND('', #303, .T.);
#303 = EDGE_LOOP('', (#304));
#304 = ORIENTED_EDGE('', *, *, #267, .T.);
#305 = B_SPLINE_SURFACE_WITH_KNOTS('', 1, 1, ((#306, #307), (#308, #309)), .UNSPECIFIED., .F., .F., .U., (2, 2), (2, 2), (0.0454545454545454, 0.954545454545454), (0.0454545454545454, 0.954545454545455), .UNSPECIFIED.);
#306 = CARTESIAN_POINT('', (1., -0.999999999999997, -57.));
#307 = CARTESIAN_POINT('', (1., 1., -57.));
#308 = CARTESIAN_POINT('', (-1., -0.999999999999996, -57.));
#309 = CARTESIAN_POINT('', (-1., 1., -57.));
#310 = PRESENTATION_STYLE_ASSIGNMENT((#311));
#311 = SURFACE_STYLE_USAGE(.POSITIVE., #312);
#312 = SURFACE_SIDE_STYLE('', (#313));
#313 = SURFACE_STYLE_FILL_AREA(#314);
#314 = FILL_AREA_STYLE('', (#315));
#315 = FILL_AREA_STYLE_COLOUR('', #316);
#316 = COLOUR_RGB('', 0.8, 0.8, 0.8);
#317 = STYLED_ITEM('', (#310), #194);
#318 = TRIMMED_CURVE('cutting part line', #319, (#323), (#324), .T., .CARTESIAN.);
#319 = LINE('', #320, #321);
#320 = CARTESIAN_POINT('', (-3.46944695195361E-17, 0., -57.));
#321 = VECTOR('', #322, 1.);
#322 = DIRECTION('', (1., 0., 0.));
#323 = CARTESIAN_POINT('', (-3.46944695195361E-17, 0., -57.));
#324 = CARTESIAN_POINT('', (1., 0., -57.));
#325 = TRIMMED_CURVE('cutting part line', #326, (#331), (#332), .T., .CARTESIAN.);
#326 = CIRCLE('', #327, 0.99999999999999);
#327 = AXIS2_PLACEMENT_3D('', #328, #329, #330);
#328 = CARTESIAN_POINT('', (1.00000000000001, 1.27508383644012E-15, -56.));
#329 = DIRECTION('', (7.00828284294723E-16, -1., 2.31148908631016E-14));
#330 = DIRECTION('', (-4.44089209850066E-16, -2.31148908631016E-14, -1.));
#331 = CARTESIAN_POINT('', (1.00000000000001, -2.18398070266613E-14, -57.));
#332 = CARTESIAN_POINT('', (2., 1.97591212073515E-15, -56.));
#333 = TRIMMED_CURVE('cutting part line', #334, (#338), (#339), .T., .CARTESIAN.);
#334 = LINE('', #335, #336);
#335 = CARTESIAN_POINT('', (2., 4.99524269526459E-16, -56.));
#336 = VECTOR('', #337, 10.5);
#337 = DIRECTION('', (0., -4.99524269526459E-16, 10.5));
#338 = CARTESIAN_POINT('', (2., 4.99524269526459E-16, -56.));
#339 = CARTESIAN_POINT('', (2., 0., -45.5));
#340 = TRIMMED_CURVE('cutting part line', #341, (#345), (#346), .T., .CARTESIAN.);
#341 = LINE('', #342, #343);
#342 = CARTESIAN_POINT('', (2., 0., -45.5));
#343 = VECTOR('', #344, 2.);
#344 = DIRECTION('', (-2., 0., 0.));
#345 = CARTESIAN_POINT('', (2., 0., -45.5));
#346 = CARTESIAN_POINT('', (0., 0., -45.5));
#347 = TRIMMED_CURVE('cutting part line', #348, (#352), (#353), .T., .CARTESIAN.);
#348 = LINE('', #349, #350);
#349 = CARTESIAN_POINT('', (0., 0., -45.5));
#350 = VECTOR('', #351, 11.5);
#351 = DIRECTION('', (0., 0., -11.5));
#352 = CARTESIAN_POINT('', (0., 0., -45.5));
#353 = CARTESIAN_POINT('', (0., 0., -57.));
#354 = COMPOSITE_CURVE('cutting part line', (#355, #356, #357, #358, #359), .U.);
#355 = COMPOSITE_CURVE_SEGMENT(.CONTINUOUS., .T., #318);
#356 = COMPOSITE_CURVE_SEGMENT(.CONTINUOUS., .T., #325);
#357 = COMPOSITE_CURVE_SEGMENT(.CONTINUOUS., .T., #333);
#358 = COMPOSITE_CURVE_SEGMENT(.CONTINUOUS., .T., #340);
#359 = COMPOSITE_CURVE_SEGMENT(.CONTINUOUS., .T., #347);
#360 = GEOMETRIC_SET('', (#354, #403));
#361 = PRESENTATION_STYLE_ASSIGNMENT((#362));
#362 = CURVE_STYLE('', #364, POSITIVE_LENGTH_MEASURE(1.E-6), #363);
#363 = COLOUR_RGB('', 0., 0., 1.);
#364 = DRAUGHTING_PRE_DEFINED_CURVE_FONT('continuous');
#365 = STYLED_ITEM('', (#361), #354);
#366 = PRESENTATION_STYLE_ASSIGNMENT((#367));
#367 = CURVE_STYLE('', #369, POSITIVE_LENGTH_MEASURE(1.E-6), #368);
#368 = COLOUR_RGB('', 0., 0., 1.);
#369 = DRAUGHTING_PRE_DEFINED_CURVE_FONT('continuous');
#370 = OVER_RIDING_STYLED_ITEM('', (#366), #318, #365);
#371 = PRESENTATION_STYLE_ASSIGNMENT((#372));
#372 = CURVE_STYLE('', #374, POSITIVE_LENGTH_MEASURE(1.E-6), #373);
#373 = COLOUR_RGB('', 0., 0., 1.);
#374 = DRAUGHTING_PRE_DEFINED_CURVE_FONT('continuous');
#375 = OVER_RIDING_STYLED_ITEM('', (#371), #325, #365);
#376 = PRESENTATION_STYLE_ASSIGNMENT((#377));
#377 = CURVE_STYLE('', #379, POSITIVE_LENGTH_MEASURE(1.E-6), #378);
#378 = COLOUR_RGB('', 0., 0., 1.);
#379 = DRAUGHTING_PRE_DEFINED_CURVE_FONT('continuous');
#380 = OVER_RIDING_STYLED_ITEM('', (#376), #333, #365);
#381 = PRESENTATION_STYLE_ASSIGNMENT((#382));
#382 = CURVE_STYLE('', #384, POSITIVE_LENGTH_MEASURE(1.E-6), #383);
#383 = COLOUR_RGB('', 0., 0., 1.);
#384 = DRAUGHTING_PRE_DEFINED_CURVE_FONT('continuous');
#385 = OVER_RIDING_STYLED_ITEM('', (#381), #340, #365);
#386 = PRESENTATION_STYLE_ASSIGNMENT((#387));
#387 = CURVE_STYLE('', #389, POSITIVE_LENGTH_MEASURE(1.E-6), #388);
#388 = COLOUR_RGB('', 0., 0., 1.);
#389 = DRAUGHTING_PRE_DEFINED_CURVE_FONT('continuous');
#390 = OVER_RIDING_STYLED_ITEM('', (#386), #347, #365);
#391 = AXIS2_PLACEMENT_3D('MCS', #392, #393, #394);
#392 = CARTESIAN_POINT('', (0., 0., -34.));
#393 = DIRECTION('', (0., 0., 1.));
#394 = DIRECTION('', (1., 0., 0.));
#395 = AXIS2_PLACEMENT_3D('PCS', #396, #397, #398);
#396 = CARTESIAN_POINT('', (0., 0., 0.));
#397 = DIRECTION('', (0., 0., 1.));
#398 = DIRECTION('', (1., 0., 0.));
#399 = AXIS2_PLACEMENT_3D('CIP', #400, #401, #402);
#400 = CARTESIAN_POINT('', (0., 0., -57.));
#401 = DIRECTION('', (0., 0., 1.));
#402 = DIRECTION('', (1., 0., 0.));
#403 = CARTESIAN_POINT('CRP', (2., 0., -57.));
#404 = (
   GEOMETRIC_REPRESENTATION_CONTEXT (3)
   GLOBAL_UNCERTAINTY_ASSIGNED_CONTEXT ((#406))
   GLOBAL_UNIT_ASSIGNED_CONTEXT ((#405, #407, #408))
   REPRESENTATION_CONTEXT ('', '3D')
);
#405 = (
   LENGTH_UNIT ()
   NAMED_UNIT (*)
   SI_UNIT (.MILLI., .METRE.)
);
#406 = UNCERTAINTY_MEASURE_WITH_UNIT(LENGTH_MEASURE(1.E-6), #405, 'DISTANCE_ACCURACY_VALUE', '');
#407 = (
   NAMED_UNIT (*)
   SI_UNIT ($, .STERADIAN.)
   SOLID_ANGLE_UNIT ()
);
#408 = (
   NAMED_UNIT (*)
   PLANE_ANGLE_UNIT ()
   SI_UNIT ($, .RADIAN.)
);
#409 = SHAPE_REPRESENTATION('', (), #404);
#410 = PRODUCT_DEFINITION_SHAPE('', '', #411);
#411 = PRODUCT_DEFINITION('', '', #414, #418);
#412 = APPLICATION_CONTEXT('configuration controlled 3D designs of mechanical parts and assemblies');
#413 = APPLICATION_PROTOCOL_DEFINITION('International Standard', 'automotive_design', 2002, #412);
#414 = PRODUCT_DEFINITION_FORMATION_WITH_SPECIFIED_SOURCE('', '', #415, .NOT_KNOWN.);
#415 = PRODUCT('product-name', '2S340-0400-100-MA   1640', '', (#416));
#416 = PRODUCT_CONTEXT('', #412, 'mechanical');
#417 = PRODUCT_RELATED_PRODUCT_CATEGORY('detail', '', (#415));
#418 = PRODUCT_DEFINITION_CONTEXT('part definition', #412, 'design');
#419 = SHAPE_DEFINITION_REPRESENTATION(#410, #409);
#420 = CONSTRUCTIVE_GEOMETRY_REPRESENTATION('supplemental geometry', (#391, #395, #399), #404);
#421 = CONSTRUCTIVE_GEOMETRY_REPRESENTATION_RELATIONSHIP('', '', #409, #420);
#422 = SHAPE_REPRESENTATION_RELATIONSHIP('', '', #409, #423);
#423 = SHAPE_REPRESENTATION('', (#360), #404);
#424 = SHAPE_REPRESENTATION_RELATIONSHIP('', '', #409, #425);
#425 = ADVANCED_BREP_SHAPE_REPRESENTATION('', (#1, #194), #404);
ENDSEC;
END-ISO-10303-21;
