ISO-10303-21;
HEADER;
FILE_DESCRIPTION(('STEP'), '1');
FILE_NAME('C:\\Users\\ds2002\\OneDrive - Sandvik\\HomeShare\\Documents\\Batchrepair\\CorSRT2\\NEW_MILSQ_SLD\\Output\\MOD000000000000000020082328300000.stp', '2019-01-02T12:09:05', (''), (''), 'Express v3.0.0.0', 'Express Tool', 'Unknown');
FILE_SCHEMA(('AUTOMOTIVE_DESIGN'));
ENDSEC;

DATA;
#1 = MANIFOLD_SOLID_BREP('NOCUT', #2);
#2 = CLOSED_SHELL('', (#3, #31, #70, #109, #148, #157, #196));
#3 = ADVANCED_FACE('', (#4, #15), #26, .T.);
#4 = FACE_OUTER_BOUND('', #5, .T.);
#5 = EDGE_LOOP('', (#6));
#6 = ORIENTED_EDGE('', *, *, #7, .F.);
#7 = EDGE_CURVE('', #8, #8, #10, .T.);
#8 = VERTEX_POINT('', #9);
#9 = CARTESIAN_POINT('', (-6., 6.91925441518255E-15, -107.));
#10 = CIRCLE('', #11, 6.);
#11 = AXIS2_PLACEMENT_3D('', #12, #13, #14);
#12 = CARTESIAN_POINT('', (1.47104550762833E-15, 1.66533453693773E-15, -107.));
#13 = DIRECTION('', (0., 0., -1.));
#14 = DIRECTION('', (-1., 8.75653313040802E-16, 0.));
#15 = FACE_BOUND('', #16, .T.);
#16 = EDGE_LOOP('', (#17));
#17 = ORIENTED_EDGE('', *, *, #18, .T.);
#18 = EDGE_CURVE('', #19, #19, #21, .T.);
#19 = VERTEX_POINT('', #20);
#20 = CARTESIAN_POINT('', (-5.85, 6.91006956418894E-15, -107.));
#21 = CIRCLE('', #22, 5.85);
#22 = AXIS2_PLACEMENT_3D('', #23, #24, #25);
#23 = CARTESIAN_POINT('', (-4.9960036108132E-16, 3.21964677141295E-15, -107.));
#24 = DIRECTION('', (-5.21573062916046E-30, -8.26789392270069E-15, -1.));
#25 = DIRECTION('', (-1., 6.3084150303863E-16, 0.));
#26 = B_SPLINE_SURFACE_WITH_KNOTS('', 1, 1, ((#27, #28), (#29, #30)), .UNSPECIFIED., .F., .F., .U., (2, 2), (2, 2), (0.0454545454545454, 0.954545454545455), (0.0454545454545455, 0.954545454545455), .UNSPECIFIED.);
#27 = CARTESIAN_POINT('', (6., -6., -107.));
#28 = CARTESIAN_POINT('', (-6., -5.99999999999999, -107.));
#29 = CARTESIAN_POINT('', (6., 6.00000000000001, -107.));
#30 = CARTESIAN_POINT('', (-6., 6.00000000000002, -107.));
#31 = ADVANCED_FACE('', (#32), #51, .T.);
#32 = FACE_OUTER_BOUND('', #33, .T.);
#33 = EDGE_LOOP('', (#34, #42, #49, #50));
#34 = ORIENTED_EDGE('', *, *, #35, .F.);
#35 = EDGE_CURVE('', #36, #19, #38, .T.);
#36 = VERTEX_POINT('', #37);
#37 = CARTESIAN_POINT('', (-5.85, 3.11366448683215E-15, -45.));
#38 = LINE('', #39, #40);
#39 = CARTESIAN_POINT('', (-5.85, 3.11366448683215E-15, -45.));
#40 = VECTOR('', #41, 62.);
#41 = DIRECTION('', (0., 3.79640507735679E-15, -62.));
#42 = ORIENTED_EDGE('', *, *, #43, .T.);
#43 = EDGE_CURVE('', #36, #36, #44, .T.);
#44 = CIRCLE('', #45, 5.85);
#45 = AXIS2_PLACEMENT_3D('', #46, #47, #48);
#46 = CARTESIAN_POINT('', (-1.38777878078145E-15, 3.10862446895044E-15, -45.));
#47 = DIRECTION('', (0., 0., -1.));
#48 = DIRECTION('', (-1., 8.61541518241337E-19, 0.));
#49 = ORIENTED_EDGE('', *, *, #35, .T.);
#50 = ORIENTED_EDGE('', *, *, #18, .F.);
#51 = (
   BOUNDED_SURFACE ()
   B_SPLINE_SURFACE (2, 1, ((#52, #53), (#54, #55), (#56, #57), (#58, #59), (#60, #61), (#62, #63), (#64, #65), (#66, #67), (#68, #69)), .UNSPECIFIED., .T., .F., .U.)
   B_SPLINE_SURFACE_WITH_KNOTS ((3, 2, 2, 2, 3), (2, 2), (0., 9.18915851175015, 18.3783170235003, 27.5674755352505, 36.7566340470006), (0., 1.), .UNSPECIFIED.)
   GEOMETRIC_REPRESENTATION_ITEM ()
   RATIONAL_B_SPLINE_SURFACE (((1., 1.), (0.707106781186548, 0.707106781186548), (1., 1.), (0.707106781186548, 0.707106781186548), (1., 1.), (0.707106781186548, 0.707106781186548), (1., 1.), (0.707106781186548, 0.707106781186548), (1., 1.)))
   REPRESENTATION_ITEM ('')
   SURFACE ()
);
#52 = CARTESIAN_POINT('', (-5.85, 3.11366448683215E-15, -45.));
#53 = CARTESIAN_POINT('', (-5.85, 7.88762349272032E-15, -107.));
#54 = CARTESIAN_POINT('', (-5.85, 5.85, -45.));
#55 = CARTESIAN_POINT('', (-5.85, 5.85000000000001, -107.));
#56 = CARTESIAN_POINT('', (3.6713892933973E-15, 5.85, -45.));
#57 = CARTESIAN_POINT('', (3.67138929339731E-15, 5.85, -107.));
#58 = CARTESIAN_POINT('', (5.85, 5.84999999999999, -45.));
#59 = CARTESIAN_POINT('', (5.85, 5.85, -107.));
#60 = CARTESIAN_POINT('', (5.85, -5.50587057828139E-15, -45.));
#61 = CARTESIAN_POINT('', (5.85, -7.31911572393215E-16, -107.));
#62 = CARTESIAN_POINT('', (5.85, -5.85, -45.));
#63 = CARTESIAN_POINT('', (5.85, -5.85, -107.));
#64 = CARTESIAN_POINT('', (-4.23172739421503E-15, -5.85, -45.));
#65 = CARTESIAN_POINT('', (-4.23172739421503E-15, -5.85, -107.));
#66 = CARTESIAN_POINT('', (-5.85, -5.85, -45.));
#67 = CARTESIAN_POINT('', (-5.85, -5.84999999999999, -107.));
#68 = CARTESIAN_POINT('', (-5.85, 3.11366448683215E-15, -45.));
#69 = CARTESIAN_POINT('', (-5.85, 7.88762349272032E-15, -107.));
#70 = ADVANCED_FACE('', (#71), #90, .T.);
#71 = FACE_OUTER_BOUND('', #72, .T.);
#72 = EDGE_LOOP('', (#73, #81, #88, #89));
#73 = ORIENTED_EDGE('', *, *, #74, .T.);
#74 = EDGE_CURVE('', #36, #75, #77, .T.);
#75 = VERTEX_POINT('', #76);
#76 = CARTESIAN_POINT('', (-5.85, 3.94030107625661E-16, -0.585000000000001));
#77 = LINE('', #78, #79);
#78 = CARTESIAN_POINT('', (-5.85, 3.11366448683215E-15, -45.));
#79 = VECTOR('', #80, 44.415);
#80 = DIRECTION('', (0., -2.71963437920649E-15, 44.415));
#81 = ORIENTED_EDGE('', *, *, #82, .T.);
#82 = EDGE_CURVE('', #75, #75, #83, .T.);
#83 = CIRCLE('', #84, 5.85);
#84 = AXIS2_PLACEMENT_3D('', #85, #86, #87);
#85 = CARTESIAN_POINT('', (-5.27355936696949E-16, -4.32986979603811E-15, -0.585000000000001));
#86 = DIRECTION('', (5.21590589008388E-32, 6.45929212710991E-17, -1.));
#87 = DIRECTION('', (-1., 8.07504257036542E-16, 0.));
#88 = ORIENTED_EDGE('', *, *, #74, .F.);
#89 = ORIENTED_EDGE('', *, *, #43, .F.);
#90 = (
   BOUNDED_SURFACE ()
   B_SPLINE_SURFACE (1, 2, ((#91, #92, #93, #94, #95, #96, #97, #98, #99), (#100, #101, #102, #103, #104, #105, #106, #107, #108)), .UNSPECIFIED., .F., .T., .U.)
   B_SPLINE_SURFACE_WITH_KNOTS ((2, 2), (3, 2, 2, 2, 3), (0., 1.), (0., 9.18915851175015, 18.3783170235003, 27.5674755352505, 36.7566340470006), .UNSPECIFIED.)
   GEOMETRIC_REPRESENTATION_ITEM ()
   RATIONAL_B_SPLINE_SURFACE (((1., 0.707106781186548, 1., 0.707106781186548, 1., 0.707106781186548, 1., 0.707106781186548, 1.), (1., 0.707106781186548, 1., 0.707106781186548, 1., 0.707106781186548, 1., 0.707106781186548, 1.)))
   REPRESENTATION_ITEM ('')
   SURFACE ()
);
#91 = CARTESIAN_POINT('', (-5.85, 3.16958766918855E-15, -45.));
#92 = CARTESIAN_POINT('', (-5.85, 5.85, -45.));
#93 = CARTESIAN_POINT('', (3.83833477821622E-15, 5.85, -45.));
#94 = CARTESIAN_POINT('', (5.85, 5.84999999999999, -45.));
#95 = CARTESIAN_POINT('', (5.85, -5.56179376063779E-15, -45.));
#96 = CARTESIAN_POINT('', (5.84999999999999, -5.85, -45.));
#97 = CARTESIAN_POINT('', (-4.17662827410892E-15, -5.85, -45.));
#98 = CARTESIAN_POINT('', (-5.85, -5.85, -45.));
#99 = CARTESIAN_POINT('', (-5.85, 3.16958766918855E-15, -45.));
#100 = CARTESIAN_POINT('', (-5.85, 3.94030107625662E-16, -0.585000000000001));
#101 = CARTESIAN_POINT('', (-5.85, 5.85, -0.585000000000001));
#102 = CARTESIAN_POINT('', (3.83833477821622E-15, 5.85, -0.585000000000001));
#103 = CARTESIAN_POINT('', (5.85, 5.84999999999999, -0.585000000000001));
#104 = CARTESIAN_POINT('', (5.85, -8.33735132220068E-15, -0.585000000000001));
#105 = CARTESIAN_POINT('', (5.84999999999999, -5.85000000000001, -0.585000000000001));
#106 = CARTESIAN_POINT('', (-4.17662827410892E-15, -5.85, -0.585000000000001));
#107 = CARTESIAN_POINT('', (-5.85, -5.85, -0.585000000000001));
#108 = CARTESIAN_POINT('', (-5.85, 3.94030107625662E-16, -0.585000000000001));
#109 = ADVANCED_FACE('', (#110), #129, .T.);
#110 = FACE_OUTER_BOUND('', #111, .T.);
#111 = EDGE_LOOP('', (#112, #120, #127, #128));
#112 = ORIENTED_EDGE('', *, *, #113, .T.);
#113 = EDGE_CURVE('', #75, #114, #116, .T.);
#114 = VERTEX_POINT('', #115);
#115 = CARTESIAN_POINT('', (-5.265, 3.22388269875541E-16, 0.));
#116 = LINE('', #117, #118);
#117 = CARTESIAN_POINT('', (-5.85, 3.94030107625661E-16, -0.585000000000001));
#118 = VECTOR('', #119, 0.827314933988261);
#119 = DIRECTION('', (0.585, -7.164183775012E-17, 0.585000000000001));
#120 = ORIENTED_EDGE('', *, *, #121, .T.);
#121 = EDGE_CURVE('', #114, #114, #122, .T.);
#122 = CIRCLE('', #123, 5.265);
#123 = AXIS2_PLACEMENT_3D('', #124, #125, #126);
#124 = CARTESIAN_POINT('', (6.10622663543836E-16, -2.55351295663786E-15, -1.60237371373018E-31));
#125 = DIRECTION('', (3.01249576688724E-33, 6.12323399573677E-17, -1.));
#126 = DIRECTION('', (-1., 5.46230052519164E-16, 3.04344485038971E-32));
#127 = ORIENTED_EDGE('', *, *, #113, .F.);
#128 = ORIENTED_EDGE('', *, *, #82, .F.);
#129 = (
   BOUNDED_SURFACE ()
   B_SPLINE_SURFACE (1, 2, ((#130, #131, #132, #133, #134, #135, #136, #137, #138), (#139, #140, #141, #142, #143, #144, #145, #146, #147)), .UNSPECIFIED., .F., .T., .U.)
   B_SPLINE_SURFACE_WITH_KNOTS ((2, 2), (3, 2, 2, 2, 3), (0., 1.), (0., 0.25, 0.5, 0.75, 1.), .UNSPECIFIED.)
   GEOMETRIC_REPRESENTATION_ITEM ()
   RATIONAL_B_SPLINE_SURFACE (((1., 0.707106781186548, 1., 0.707106781186548, 1., 0.707106781186548, 1., 0.707106781186548, 1.), (1., 0.707106781186548, 1., 0.707106781186548, 1., 0.707106781186548, 1., 0.707106781186548, 1.)))
   REPRESENTATION_ITEM ('')
   SURFACE ()
);
#130 = CARTESIAN_POINT('', (-5.85, 3.75055731954969E-15, -0.585000000000001));
#131 = CARTESIAN_POINT('', (-5.85, 5.85, -0.58499999999997));
#132 = CARTESIAN_POINT('', (3.44785928203035E-15, 5.85, -0.58499999999997));
#133 = CARTESIAN_POINT('', (5.85, 5.85, -0.58499999999997));
#134 = CARTESIAN_POINT('', (5.85, -1.92391591742333E-15, -0.585000000000001));
#135 = CARTESIAN_POINT('', (5.85, -5.85, -0.585000000000032));
#136 = CARTESIAN_POINT('', (-1.51019557744147E-15, -5.85, -0.585000000000032));
#137 = CARTESIAN_POINT('', (-5.85, -5.85, -0.585000000000032));
#138 = CARTESIAN_POINT('', (-5.85, 3.75055731954969E-15, -0.585000000000001));
#139 = CARTESIAN_POINT('', (-5.265, 3.22388269875541E-16, -2.18952885050753E-47));
#140 = CARTESIAN_POINT('', (-5.265, 5.265, 2.79776202205539E-14));
#141 = CARTESIAN_POINT('', (3.1641356201817E-15, 5.265, 2.79776202205539E-14));
#142 = CARTESIAN_POINT('', (5.265, 5.26499999999999, 2.79776202205539E-14));
#143 = CARTESIAN_POINT('', (5.265, -4.78463764340018E-15, 3.10579556234012E-30));
#144 = CARTESIAN_POINT('', (5.265, -5.265, -2.79776202205539E-14));
#145 = CARTESIAN_POINT('', (-1.29811375334294E-15, -5.265, -2.79776202205539E-14));
#146 = CARTESIAN_POINT('', (-5.265, -5.265, -2.79776202205539E-14));
#147 = CARTESIAN_POINT('', (-5.265, 3.22388269875541E-16, -2.18952885050753E-47));
#148 = ADVANCED_FACE('', (#149), #152, .T.);
#149 = FACE_OUTER_BOUND('', #150, .T.);
#150 = EDGE_LOOP('', (#151));
#151 = ORIENTED_EDGE('', *, *, #121, .F.);
#152 = B_SPLINE_SURFACE_WITH_KNOTS('', 1, 1, ((#153, #154), (#155, #156)), .UNSPECIFIED., .F., .F., .U., (2, 2), (2, 2), (0.0454545454545454, 0.954545454545454), (0.0454545454545454, 0.954545454545454), .UNSPECIFIED.);
#153 = CARTESIAN_POINT('', (5.265, -5.265, -3.22388269875541E-16));
#154 = CARTESIAN_POINT('', (-5.265, -5.265, -3.22388269875541E-16));
#155 = CARTESIAN_POINT('', (5.265, 5.265, 3.22388269875541E-16));
#156 = CARTESIAN_POINT('', (-5.265, 5.265, 3.22388269875541E-16));
#157 = ADVANCED_FACE('', (#158), #177, .T.);
#158 = FACE_OUTER_BOUND('', #159, .T.);
#159 = EDGE_LOOP('', (#160, #169, #175, #176));
#160 = ORIENTED_EDGE('', *, *, #161, .F.);
#161 = EDGE_CURVE('', #162, #162, #164, .T.);
#162 = VERTEX_POINT('', #163);
#163 = CARTESIAN_POINT('', (-6., 6.98048675513991E-15, -108.));
#164 = CIRCLE('', #165, 6.);
#165 = AXIS2_PLACEMENT_3D('', #166, #167, #168);
#166 = CARTESIAN_POINT('', (4.9960036108132E-16, 7.21644966006352E-15, -108.));
#167 = DIRECTION('', (0., 0., -1.));
#168 = DIRECTION('', (-1., -3.93271508206013E-17, 0.));
#169 = ORIENTED_EDGE('', *, *, #170, .F.);
#170 = EDGE_CURVE('', #8, #162, #171, .T.);
#171 = LINE('', #172, #173);
#172 = CARTESIAN_POINT('', (-6., 6.91925441518255E-15, -107.));
#173 = VECTOR('', #174, 1.);
#174 = DIRECTION('', (0., 6.12323399573597E-17, -1.));
#175 = ORIENTED_EDGE('', *, *, #7, .T.);
#176 = ORIENTED_EDGE('', *, *, #170, .T.);
#177 = (
   BOUNDED_SURFACE ()
   B_SPLINE_SURFACE (2, 1, ((#178, #179), (#180, #181), (#182, #183), (#184, #185), (#186, #187), (#188, #189), (#190, #191), (#192, #193), (#194, #195)), .UNSPECIFIED., .T., .F., .U.)
   B_SPLINE_SURFACE_WITH_KNOTS ((3, 2, 2, 2, 3), (2, 2), (0., 9.42477796076938, 18.8495559215388, 28.2743338823081, 37.6991118430775), (0., 0.0606060606060606), .UNSPECIFIED.)
   GEOMETRIC_REPRESENTATION_ITEM ()
   RATIONAL_B_SPLINE_SURFACE (((1., 1.), (0.707106781186548, 0.707106781186548), (1., 1.), (0.707106781186548, 0.707106781186548), (1., 1.), (0.707106781186548, 0.707106781186548), (1., 1.), (0.707106781186548, 0.707106781186548), (1., 1.)))
   REPRESENTATION_ITEM ('')
   SURFACE ()
);
#178 = CARTESIAN_POINT('', (-6., 6.91925441518255E-15, -107.));
#179 = CARTESIAN_POINT('', (-6., 1.40246817727835E-14, -108.));
#180 = CARTESIAN_POINT('', (-5.99999999999999, 6.00000000000001, -107.));
#181 = CARTESIAN_POINT('', (-5.99999999999999, 6.00000000000001, -108.));
#182 = CARTESIAN_POINT('', (6.49634922420698E-15, 6., -107.));
#183 = CARTESIAN_POINT('', (8.86482501007399E-15, 6.00000000000001, -108.));
#184 = CARTESIAN_POINT('', (6.00000000000001, 6., -107.));
#185 = CARTESIAN_POINT('', (6.00000000000001, 6., -108.));
#186 = CARTESIAN_POINT('', (6., -3.29788647166873E-15, -107.));
#187 = CARTESIAN_POINT('', (6., 3.80754088593227E-15, -108.));
#188 = CARTESIAN_POINT('', (6., -6., -107.));
#189 = CARTESIAN_POINT('', (6., -6., -108.));
#190 = CARTESIAN_POINT('', (-2.98600358315568E-15, -6., -107.));
#191 = CARTESIAN_POINT('', (-6.17527797288674E-16, -5.99999999999999, -108.));
#192 = CARTESIAN_POINT('', (-6., -5.99999999999999, -107.));
#193 = CARTESIAN_POINT('', (-6., -5.99999999999998, -108.));
#194 = CARTESIAN_POINT('', (-6., 6.91925441518255E-15, -107.));
#195 = CARTESIAN_POINT('', (-6., 1.40246817727835E-14, -108.));
#196 = ADVANCED_FACE('', (#197), #200, .T.);
#197 = FACE_OUTER_BOUND('', #198, .T.);
#198 = EDGE_LOOP('', (#199));
#199 = ORIENTED_EDGE('', *, *, #161, .T.);
#200 = B_SPLINE_SURFACE_WITH_KNOTS('', 1, 1, ((#201, #202), (#203, #204)), .UNSPECIFIED., .F., .F., .U., (2, 2), (2, 2), (0.493531348399097, 0.541095001472167), (0.458904998527833, 0.506468651600902), .UNSPECIFIED.);
#201 = CARTESIAN_POINT('', (-6.00000000000003, 6.00000000000006, -108.));
#202 = CARTESIAN_POINT('', (-6.00000000000003, -5.99999999999994, -108.));
#203 = CARTESIAN_POINT('', (5.99999999999997, 6.00000000000006, -108.));
#204 = CARTESIAN_POINT('', (5.99999999999997, -5.99999999999994, -108.));
#205 = DRAUGHTING_MODEL('', (#213, #337, #385, #390, #395, #400, #405, #410), #424);
#206 = PRESENTATION_STYLE_ASSIGNMENT((#207));
#207 = SURFACE_STYLE_USAGE(.POSITIVE., #208);
#208 = SURFACE_SIDE_STYLE('', (#209));
#209 = SURFACE_STYLE_FILL_AREA(#210);
#210 = FILL_AREA_STYLE('', (#211));
#211 = FILL_AREA_STYLE_COLOUR('', #212);
#212 = COLOUR_RGB('', 0.50196078431373, 0.50196078431373, 0.50196078431373);
#213 = STYLED_ITEM('', (#206), #1);
#214 = MANIFOLD_SOLID_BREP('CUT', #215);
#215 = CLOSED_SHELL('', (#216, #233, #272, #321));
#216 = ADVANCED_FACE('', (#217), #228, .T.);
#217 = FACE_OUTER_BOUND('', #218, .T.);
#218 = EDGE_LOOP('', (#219));
#219 = ORIENTED_EDGE('', *, *, #220, .F.);
#220 = EDGE_CURVE('', #221, #221, #223, .T.);
#221 = VERTEX_POINT('', #222);
#222 = CARTESIAN_POINT('', (-6., 6.98048675513991E-15, -108.));
#223 = CIRCLE('', #224, 6.);
#224 = AXIS2_PLACEMENT_3D('', #225, #226, #227);
#225 = CARTESIAN_POINT('', (4.9960036108132E-16, 7.21644966006352E-15, -108.));
#226 = DIRECTION('', (0., 0., -1.));
#227 = DIRECTION('', (-1., -3.93271508206013E-17, 0.));
#228 = B_SPLINE_SURFACE_WITH_KNOTS('', 1, 1, ((#229, #230), (#231, #232)), .UNSPECIFIED., .F., .F., .U., (2, 2), (2, 2), (0.458904998527833, 0.506468651600902), (0.493531348399098, 0.541095001472167), .UNSPECIFIED.);
#229 = CARTESIAN_POINT('', (-6.00000000000001, 6.00000000000001, -108.));
#230 = CARTESIAN_POINT('', (5.99999999999997, 6.00000000000001, -108.));
#231 = CARTESIAN_POINT('', (-6.00000000000001, -6., -108.));
#232 = CARTESIAN_POINT('', (5.99999999999997, -6., -108.));
#233 = ADVANCED_FACE('', (#234), #253, .T.);
#234 = FACE_OUTER_BOUND('', #235, .T.);
#235 = EDGE_LOOP('', (#236, #237, #245, #252));
#236 = ORIENTED_EDGE('', *, *, #220, .T.);
#237 = ORIENTED_EDGE('', *, *, #238, .T.);
#238 = EDGE_CURVE('', #221, #239, #241, .T.);
#239 = VERTEX_POINT('', #240);
#240 = CARTESIAN_POINT('', (-6., 7.92958802447911E-15, -123.5));
#241 = LINE('', #242, #243);
#242 = CARTESIAN_POINT('', (-6., 6.98048675513991E-15, -108.));
#243 = VECTOR('', #244, 15.5);
#244 = DIRECTION('', (0., 9.49101269339201E-16, -15.5));
#245 = ORIENTED_EDGE('', *, *, #246, .F.);
#246 = EDGE_CURVE('', #239, #239, #247, .T.);
#247 = CIRCLE('', #248, 6.);
#248 = AXIS2_PLACEMENT_3D('', #249, #250, #251);
#249 = CARTESIAN_POINT('', (6.66133814775094E-16, 6.88338275267597E-15, -123.5));
#250 = DIRECTION('', (2.368475785867E-15, -7.70540152533512E-15, -1.));
#251 = DIRECTION('', (-1., 1.74367545300523E-16, -2.368475785867E-15));
#252 = ORIENTED_EDGE('', *, *, #238, .F.);
#253 = (
   BOUNDED_SURFACE ()
   B_SPLINE_SURFACE (2, 1, ((#254, #255), (#256, #257), (#258, #259), (#260, #261), (#262, #263), (#264, #265), (#266, #267), (#268, #269), (#270, #271)), .UNSPECIFIED., .T., .F., .U.)
   B_SPLINE_SURFACE_WITH_KNOTS ((3, 2, 2, 2, 3), (2, 2), (0., 9.42477796076938, 18.8495559215388, 28.2743338823081, 37.6991118430775), (0.0606060606060606, 1.), .UNSPECIFIED.)
   GEOMETRIC_REPRESENTATION_ITEM ()
   RATIONAL_B_SPLINE_SURFACE (((1., 1.), (0.707106781186548, 0.707106781186548), (1., 1.), (0.707106781186548, 0.707106781186548), (1., 1.), (0.707106781186548, 0.707106781186548), (1., 1.), (0.707106781186548, 0.707106781186548), (1., 1.)))
   REPRESENTATION_ITEM ('')
   SURFACE ()
);
#254 = CARTESIAN_POINT('', (-6., 6.98048675513991E-15, -108.));
#255 = CARTESIAN_POINT('', (-5.99999999999996, 5.31515221820218E-15, -123.5));
#256 = CARTESIAN_POINT('', (-6., 6.00000000000001, -108.));
#257 = CARTESIAN_POINT('', (-5.99999999999997, 6.00000000000001, -123.5));
#258 = CARTESIAN_POINT('', (-1.60255766683045E-15, 6.00000000000001, -108.));
#259 = CARTESIAN_POINT('', (3.51088170141081E-14, 6.00000000000001, -123.5));
#260 = CARTESIAN_POINT('', (6., 6.00000000000001, -108.));
#261 = CARTESIAN_POINT('', (6.00000000000004, 6.00000000000001, -123.5));
#262 = CARTESIAN_POINT('', (6., 1.08517359035759E-14, -108.));
#263 = CARTESIAN_POINT('', (6.00000000000004, 9.18640136663819E-15, -123.5));
#264 = CARTESIAN_POINT('', (6., -5.99999999999999, -108.));
#265 = CARTESIAN_POINT('', (6.00000000000004, -5.99999999999999, -123.5));
#266 = CARTESIAN_POINT('', (3.00347956109396E-15, -5.99999999999999, -108.));
#267 = CARTESIAN_POINT('', (3.97148542420325E-14, -5.99999999999999, -123.5));
#268 = CARTESIAN_POINT('', (-6., -5.99999999999999, -108.));
#269 = CARTESIAN_POINT('', (-5.99999999999996, -6., -123.5));
#270 = CARTESIAN_POINT('', (-6., 6.98048675513991E-15, -108.));
#271 = CARTESIAN_POINT('', (-5.99999999999996, 5.31515221820218E-15, -123.5));
#272 = ADVANCED_FACE('', (#273), #293, .T.);
#273 = FACE_OUTER_BOUND('', #274, .T.);
#274 = EDGE_LOOP('', (#275, #284, #285, #286));
#275 = ORIENTED_EDGE('', *, *, #276, .F.);
#276 = EDGE_CURVE('', #239, #277, #279, .T.);
#277 = VERTEX_POINT('', #278);
#278 = CARTESIAN_POINT('', (-4.5, 7.92958802447911E-15, -125.));
#279 = CIRCLE('', #280, 1.49999999999994);
#280 = AXIS2_PLACEMENT_3D('', #281, #282, #283);
#281 = CARTESIAN_POINT('', (-4.50000000000007, 7.83773951454307E-15, -123.5));
#282 = DIRECTION('', (-6.12323399573651E-17, -1., -6.12323399573662E-17));
#283 = DIRECTION('', (-1., 6.1232339957364E-17, 1.89478062869368E-14));
#284 = ORIENTED_EDGE('', *, *, #246, .T.);
#285 = ORIENTED_EDGE('', *, *, #276, .T.);
#286 = ORIENTED_EDGE('', *, *, #287, .F.);
#287 = EDGE_CURVE('', #277, #277, #288, .T.);
#288 = CIRCLE('', #289, 4.5);
#289 = AXIS2_PLACEMENT_3D('', #290, #291, #292);
#290 = CARTESIAN_POINT('', (2.4980018054066E-16, 9.32587340685131E-15, -125.));
#291 = DIRECTION('', (0., 0., -1.));
#292 = DIRECTION('', (-1., -3.10285640527157E-16, 0.));
#293 = (
   BOUNDED_SURFACE ()
   B_SPLINE_SURFACE (2, 2, ((#294, #295, #296), (#297, #298, #299), (#300, #301, #302), (#303, #304, #305), (#306, #307, #308), (#309, #310, #311), (#312, #313, #314), (#315, #316, #317), (#318, #319, #320)), .UNSPECIFIED., .T., .F., .U.)
   B_SPLINE_SURFACE_WITH_KNOTS ((3, 2, 2, 2, 3), (3, 3), (0., 0.25, 0.5, 0.75, 1.), (0., 1.), .UNSPECIFIED.)
   GEOMETRIC_REPRESENTATION_ITEM ()
   RATIONAL_B_SPLINE_SURFACE (((1., 0.707106781186548, 1.), (0.707106781186548, 0.5, 0.707106781186548), (1., 0.707106781186548, 1.), (0.707106781186548, 0.5, 0.707106781186548), (1., 0.707106781186548, 1.), (0.707106781186548, 0.5, 0.707106781186548), (1., 0.707106781186548, 1.), (0.707106781186548, 0.5, 0.707106781186548), (1., 0.707106781186548, 1.)))
   REPRESENTATION_ITEM ('')
   SURFACE ()
);
#294 = CARTESIAN_POINT('', (-6., 7.92958802447911E-15, -123.5));
#295 = CARTESIAN_POINT('', (-6., 8.02143653441516E-15, -125.));
#296 = CARTESIAN_POINT('', (-4.5, 7.92958802447911E-15, -125.));
#297 = CARTESIAN_POINT('', (-6., 6.00000000000001, -123.5));
#298 = CARTESIAN_POINT('', (-6.00000000000001, 6.00000000000001, -125.));
#299 = CARTESIAN_POINT('', (-4.50000000000001, 4.50000000000001, -125.));
#300 = CARTESIAN_POINT('', (-1.09754560734121E-15, 6.00000000000001, -123.5));
#301 = CARTESIAN_POINT('', (-1.61165130642087E-14, 6.00000000000002, -125.));
#302 = CARTESIAN_POINT('', (-1.61165130642086E-14, 4.50000000000002, -125.));
#303 = CARTESIAN_POINT('', (6., 6.00000000000001, -123.5));
#304 = CARTESIAN_POINT('', (5.99999999999998, 6.00000000000003, -125.));
#305 = CARTESIAN_POINT('', (4.49999999999998, 4.50000000000003, -125.));
#306 = CARTESIAN_POINT('', (6., 1.25671698933371E-14, -123.5));
#307 = CARTESIAN_POINT('', (6., 3.55915259594071E-14, -125.));
#308 = CARTESIAN_POINT('', (4.49999999999999, 3.54996774494709E-14, -125.));
#309 = CARTESIAN_POINT('', (6., -5.99999999999999, -123.5));
#310 = CARTESIAN_POINT('', (6.00000000000001, -5.99999999999996, -125.));
#311 = CARTESIAN_POINT('', (4.50000000000001, -4.49999999999996, -125.));
#312 = CARTESIAN_POINT('', (4.27482434100496E-15, -5.99999999999999, -123.5));
#313 = CARTESIAN_POINT('', (1.21883644402714E-14, -5.99999999999998, -125.));
#314 = CARTESIAN_POINT('', (1.20046674203993E-14, -4.49999999999998, -125.));
#315 = CARTESIAN_POINT('', (-6., -6., -123.5));
#316 = CARTESIAN_POINT('', (-5.99999999999998, -5.99999999999999, -125.));
#317 = CARTESIAN_POINT('', (-4.49999999999999, -4.49999999999999, -125.));
#318 = CARTESIAN_POINT('', (-6., 7.92958802447911E-15, -123.5));
#319 = CARTESIAN_POINT('', (-6., 8.02143653441516E-15, -125.));
#320 = CARTESIAN_POINT('', (-4.5, 7.92958802447911E-15, -125.));
#321 = ADVANCED_FACE('', (#322), #325, .T.);
#322 = FACE_OUTER_BOUND('', #323, .T.);
#323 = EDGE_LOOP('', (#324));
#324 = ORIENTED_EDGE('', *, *, #287, .T.);
#325 = B_SPLINE_SURFACE_WITH_KNOTS('', 1, 1, ((#326, #327), (#328, #329)), .UNSPECIFIED., .F., .F., .U., (2, 2), (2, 2), (0.0454545454545454, 0.954545454545454), (0.0454545454545454, 0.954545454545454), .UNSPECIFIED.);
#326 = CARTESIAN_POINT('', (4.5, -4.49999999999999, -125.));
#327 = CARTESIAN_POINT('', (4.5, 4.50000000000001, -125.));
#328 = CARTESIAN_POINT('', (-4.5, -4.49999999999999, -125.));
#329 = CARTESIAN_POINT('', (-4.5, 4.50000000000001, -125.));
#330 = PRESENTATION_STYLE_ASSIGNMENT((#331));
#331 = SURFACE_STYLE_USAGE(.POSITIVE., #332);
#332 = SURFACE_SIDE_STYLE('', (#333));
#333 = SURFACE_STYLE_FILL_AREA(#334);
#334 = FILL_AREA_STYLE('', (#335));
#335 = FILL_AREA_STYLE_COLOUR('', #336);
#336 = COLOUR_RGB('', 0.8, 0.8, 0.8);
#337 = STYLED_ITEM('', (#330), #214);
#338 = TRIMMED_CURVE('cutting part line', #339, (#343), (#344), .T., .CARTESIAN.);
#339 = LINE('', #340, #341);
#340 = CARTESIAN_POINT('', (-5.82867087928207E-16, 0., -125.));
#341 = VECTOR('', #342, 4.5);
#342 = DIRECTION('', (4.5, 0., 0.));
#343 = CARTESIAN_POINT('', (-5.82867087928207E-16, 0., -125.));
#344 = CARTESIAN_POINT('', (4.5, 0., -125.));
#345 = TRIMMED_CURVE('cutting part line', #346, (#351), (#352), .T., .CARTESIAN.);
#346 = CIRCLE('', #347, 1.5);
#347 = AXIS2_PLACEMENT_3D('', #348, #349, #350);
#348 = CARTESIAN_POINT('', (4.49999999999999, 1.13857169625455E-14, -123.5));
#349 = DIRECTION('', (-1.85037170770882E-16, -1., -1.53035308688747E-14));
#350 = DIRECTION('', (1.1842378929335E-15, 1.53035308688747E-14, -1.));
#351 = CARTESIAN_POINT('', (4.5, 3.43410132658576E-14, -125.));
#352 = CARTESIAN_POINT('', (6., 1.11081612063893E-14, -123.5));
#353 = TRIMMED_CURVE('cutting part line', #354, (#358), (#359), .T., .CARTESIAN.);
#354 = LINE('', #355, #356);
#355 = CARTESIAN_POINT('', (6.00000000000004, -1.02437906661838E-15, -123.5));
#356 = VECTOR('', #357, 15.5);
#357 = DIRECTION('', (-3.64153152077051E-14, 1.02437906661838E-15, 15.5));
#358 = CARTESIAN_POINT('', (6.00000000000004, -1.02437906661838E-15, -123.5));
#359 = CARTESIAN_POINT('', (6., 0., -108.));
#360 = TRIMMED_CURVE('cutting part line', #361, (#365), (#366), .T., .CARTESIAN.);
#361 = LINE('', #362, #363);
#362 = CARTESIAN_POINT('', (6., 0., -108.));
#363 = VECTOR('', #364, 6.);
#364 = DIRECTION('', (-6., 0., 0.));
#365 = CARTESIAN_POINT('', (6., 0., -108.));
#366 = CARTESIAN_POINT('', (0., 0., -108.));
#367 = TRIMMED_CURVE('cutting part line', #368, (#372), (#373), .T., .CARTESIAN.);
#368 = LINE('', #369, #370);
#369 = CARTESIAN_POINT('', (0., 0., -108.));
#370 = VECTOR('', #371, 17.0000000000001);
#371 = DIRECTION('', (0., 0., -17.0000000000001));
#372 = CARTESIAN_POINT('', (0., 0., -108.));
#373 = CARTESIAN_POINT('', (0., 0., -125.));
#374 = COMPOSITE_CURVE('cutting part line', (#375, #376, #377, #378, #379), .U.);
#375 = COMPOSITE_CURVE_SEGMENT(.CONTINUOUS., .T., #338);
#376 = COMPOSITE_CURVE_SEGMENT(.CONTINUOUS., .T., #345);
#377 = COMPOSITE_CURVE_SEGMENT(.CONTINUOUS., .T., #353);
#378 = COMPOSITE_CURVE_SEGMENT(.CONTINUOUS., .T., #360);
#379 = COMPOSITE_CURVE_SEGMENT(.CONTINUOUS., .T., #367);
#380 = GEOMETRIC_SET('', (#374, #423));
#381 = PRESENTATION_STYLE_ASSIGNMENT((#382));
#382 = CURVE_STYLE('', #384, POSITIVE_LENGTH_MEASURE(1.E-6), #383);
#383 = COLOUR_RGB('', 0., 0., 1.);
#384 = DRAUGHTING_PRE_DEFINED_CURVE_FONT('continuous');
#385 = STYLED_ITEM('', (#381), #374);
#386 = PRESENTATION_STYLE_ASSIGNMENT((#387));
#387 = CURVE_STYLE('', #389, POSITIVE_LENGTH_MEASURE(1.E-6), #388);
#388 = COLOUR_RGB('', 0., 0., 1.);
#389 = DRAUGHTING_PRE_DEFINED_CURVE_FONT('continuous');
#390 = OVER_RIDING_STYLED_ITEM('', (#386), #338, #385);
#391 = PRESENTATION_STYLE_ASSIGNMENT((#392));
#392 = CURVE_STYLE('', #394, POSITIVE_LENGTH_MEASURE(1.E-6), #393);
#393 = COLOUR_RGB('', 0., 0., 1.);
#394 = DRAUGHTING_PRE_DEFINED_CURVE_FONT('continuous');
#395 = OVER_RIDING_STYLED_ITEM('', (#391), #345, #385);
#396 = PRESENTATION_STYLE_ASSIGNMENT((#397));
#397 = CURVE_STYLE('', #399, POSITIVE_LENGTH_MEASURE(1.E-6), #398);
#398 = COLOUR_RGB('', 0., 0., 1.);
#399 = DRAUGHTING_PRE_DEFINED_CURVE_FONT('continuous');
#400 = OVER_RIDING_STYLED_ITEM('', (#396), #353, #385);
#401 = PRESENTATION_STYLE_ASSIGNMENT((#402));
#402 = CURVE_STYLE('', #404, POSITIVE_LENGTH_MEASURE(1.E-6), #403);
#403 = COLOUR_RGB('', 0., 0., 1.);
#404 = DRAUGHTING_PRE_DEFINED_CURVE_FONT('continuous');
#405 = OVER_RIDING_STYLED_ITEM('', (#401), #360, #385);
#406 = PRESENTATION_STYLE_ASSIGNMENT((#407));
#407 = CURVE_STYLE('', #409, POSITIVE_LENGTH_MEASURE(1.E-6), #408);
#408 = COLOUR_RGB('', 0., 0., 1.);
#409 = DRAUGHTING_PRE_DEFINED_CURVE_FONT('continuous');
#410 = OVER_RIDING_STYLED_ITEM('', (#406), #367, #385);
#411 = AXIS2_PLACEMENT_3D('MCS', #412, #413, #414);
#412 = CARTESIAN_POINT('', (0., 0., -45.));
#413 = DIRECTION('', (0., 0., 1.));
#414 = DIRECTION('', (1., 0., 0.));
#415 = AXIS2_PLACEMENT_3D('PCS', #416, #417, #418);
#416 = CARTESIAN_POINT('', (0., 0., 0.));
#417 = DIRECTION('', (0., 0., 1.));
#418 = DIRECTION('', (1., 0., 0.));
#419 = AXIS2_PLACEMENT_3D('CIP', #420, #421, #422);
#420 = CARTESIAN_POINT('', (0., 0., -125.));
#421 = DIRECTION('', (0., 0., 1.));
#422 = DIRECTION('', (1., 0., 0.));
#423 = CARTESIAN_POINT('CRP', (6.00000000000004, 0., -125.));
#424 = (
   GEOMETRIC_REPRESENTATION_CONTEXT (3)
   GLOBAL_UNCERTAINTY_ASSIGNED_CONTEXT ((#426))
   GLOBAL_UNIT_ASSIGNED_CONTEXT ((#425, #427, #428))
   REPRESENTATION_CONTEXT ('', '3D')
);
#425 = (
   LENGTH_UNIT ()
   NAMED_UNIT (*)
   SI_UNIT (.MILLI., .METRE.)
);
#426 = UNCERTAINTY_MEASURE_WITH_UNIT(LENGTH_MEASURE(1.E-6), #425, 'DISTANCE_ACCURACY_VALUE', '');
#427 = (
   NAMED_UNIT (*)
   SI_UNIT ($, .STERADIAN.)
   SOLID_ANGLE_UNIT ()
);
#428 = (
   NAMED_UNIT (*)
   PLANE_ANGLE_UNIT ()
   SI_UNIT ($, .RADIAN.)
);
#429 = SHAPE_REPRESENTATION('', (), #424);
#430 = PRODUCT_DEFINITION_SHAPE('', '', #431);
#431 = PRODUCT_DEFINITION('', '', #434, #438);
#432 = APPLICATION_CONTEXT('configuration controlled 3D designs of mechanical parts and assemblies');
#433 = APPLICATION_PROTOCOL_DEFINITION('International Standard', 'automotive_design', 2002, #432);
#434 = PRODUCT_DEFINITION_FORMATION_WITH_SPECIFIED_SOURCE('', '', #435, .NOT_KNOWN.);
#435 = PRODUCT('product-name', '2S221-1200-150-NG   H10F', '', (#436));
#436 = PRODUCT_CONTEXT('', #432, 'mechanical');
#437 = PRODUCT_RELATED_PRODUCT_CATEGORY('detail', '', (#435));
#438 = PRODUCT_DEFINITION_CONTEXT('part definition', #432, 'design');
#439 = SHAPE_DEFINITION_REPRESENTATION(#430, #429);
#440 = CONSTRUCTIVE_GEOMETRY_REPRESENTATION('supplemental geometry', (#411, #415, #419), #424);
#441 = CONSTRUCTIVE_GEOMETRY_REPRESENTATION_RELATIONSHIP('', '', #429, #440);
#442 = SHAPE_REPRESENTATION_RELATIONSHIP('', '', #429, #443);
#443 = SHAPE_REPRESENTATION('', (#380), #424);
#444 = SHAPE_REPRESENTATION_RELATIONSHIP('', '', #429, #445);
#445 = ADVANCED_BREP_SHAPE_REPRESENTATION('', (#1, #214), #424);
ENDSEC;
END-ISO-10303-21;
