ISO-10303-21;
HEADER;
FILE_DESCRIPTION(('STEP'), '1');
FILE_NAME('C:\\Users\\ds2002\\OneDrive - Sandvik\\HomeShare\\Documents\\Batchrepair\\CorSRT2\\NEW_MILSQ_SLD\\Output\\MOD000000000000000020082328200000.stp', '2019-01-02T12:09:04', (''), (''), 'Express v3.0.0.0', 'Express Tool', 'Unknown');
FILE_SCHEMA(('AUTOMOTIVE_DESIGN'));
ENDSEC;

DATA;
#1 = MANIFOLD_SOLID_BREP('NOCUT', #2);
#2 = CLOSED_SHELL('', (#3, #31, #70, #109, #148, #157, #196));
#3 = ADVANCED_FACE('', (#4, #15), #26, .T.);
#4 = FACE_OUTER_BOUND('', #5, .T.);
#5 = EDGE_LOOP('', (#6));
#6 = ORIENTED_EDGE('', *, *, #7, .F.);
#7 = EDGE_CURVE('', #8, #8, #10, .T.);
#8 = VERTEX_POINT('', #9);
#9 = CARTESIAN_POINT('', (-5., 5.44967825620572E-15, -84.));
#10 = CIRCLE('', #11, 5.);
#11 = AXIS2_PLACEMENT_3D('', #12, #13, #14);
#12 = CARTESIAN_POINT('', (-4.71844785465692E-16, 3.21964677141295E-15, -84.));
#13 = DIRECTION('', (-4.31441331996854E-30, -9.67343588955982E-15, -1.));
#14 = DIRECTION('', (-1., 4.46006296958553E-16, 0.));
#15 = FACE_BOUND('', #16, .T.);
#16 = EDGE_LOOP('', (#17));
#17 = ORIENTED_EDGE('', *, *, #18, .T.);
#18 = EDGE_CURVE('', #19, #19, #21, .T.);
#19 = VERTEX_POINT('', #20);
#20 = CARTESIAN_POINT('', (-4.85, 5.44049340521212E-15, -84.));
#21 = CIRCLE('', #22, 4.85);
#22 = AXIS2_PLACEMENT_3D('', #23, #24, #25);
#23 = CARTESIAN_POINT('', (7.7715611723761E-16, 5.77315972805081E-15, -84.));
#24 = DIRECTION('', (0., 0., -1.));
#25 = DIRECTION('', (-1., -6.85909943997307E-17, 0.));
#26 = B_SPLINE_SURFACE_WITH_KNOTS('', 1, 1, ((#27, #28), (#29, #30)), .UNSPECIFIED., .F., .F., .U., (2, 2), (2, 2), (0.0454545454545454, 0.954545454545455), (0.0454545454545454, 0.954545454545455), .UNSPECIFIED.);
#27 = CARTESIAN_POINT('', (5., -5., -84.));
#28 = CARTESIAN_POINT('', (-5., -5., -84.));
#29 = CARTESIAN_POINT('', (5., 5.00000000000001, -84.));
#30 = CARTESIAN_POINT('', (-5., 5.00000000000001, -84.));
#31 = ADVANCED_FACE('', (#32), #51, .T.);
#32 = FACE_OUTER_BOUND('', #33, .T.);
#33 = EDGE_LOOP('', (#34, #42, #49, #50));
#34 = ORIENTED_EDGE('', *, *, #35, .F.);
#35 = EDGE_CURVE('', #36, #19, #38, .T.);
#36 = VERTEX_POINT('', #37);
#37 = CARTESIAN_POINT('', (-4.85, 2.74627044708794E-15, -40.));
#38 = LINE('', #39, #40);
#39 = CARTESIAN_POINT('', (-4.85, 2.74627044708794E-15, -40.));
#40 = VECTOR('', #41, 44.);
#41 = DIRECTION('', (0., 2.69422295812418E-15, -44.));
#42 = ORIENTED_EDGE('', *, *, #43, .T.);
#43 = EDGE_CURVE('', #36, #36, #44, .T.);
#44 = CIRCLE('', #45, 4.85);
#45 = AXIS2_PLACEMENT_3D('', #46, #47, #48);
#46 = CARTESIAN_POINT('', (1.29063426612674E-15, -1.66533453693773E-15, -40.));
#47 = DIRECTION('', (-4.53559124062439E-30, -4.98630715956691E-15, -1.));
#48 = DIRECTION('', (-1., 9.0960927505684E-16, 0.));
#49 = ORIENTED_EDGE('', *, *, #35, .T.);
#50 = ORIENTED_EDGE('', *, *, #18, .F.);
#51 = (
   BOUNDED_SURFACE ()
   B_SPLINE_SURFACE (2, 1, ((#52, #53), (#54, #55), (#56, #57), (#58, #59), (#60, #61), (#62, #63), (#64, #65), (#66, #67), (#68, #69)), .UNSPECIFIED., .T., .F., .U.)
   B_SPLINE_SURFACE_WITH_KNOTS ((3, 2, 2, 2, 3), (2, 2), (0., 7.61836218495525, 15.2367243699105, 22.8550865548658, 30.473448739821), (0., 1.), .UNSPECIFIED.)
   GEOMETRIC_REPRESENTATION_ITEM ()
   RATIONAL_B_SPLINE_SURFACE (((1., 1.), (0.707106781186548, 0.707106781186548), (1., 1.), (0.707106781186548, 0.707106781186548), (1., 1.), (0.707106781186548, 0.707106781186548), (1., 1.), (0.707106781186548, 0.707106781186548), (1., 1.)))
   REPRESENTATION_ITEM ('')
   SURFACE ()
);
#52 = CARTESIAN_POINT('', (-4.85, 2.74627044708794E-15, -40.));
#53 = CARTESIAN_POINT('', (-4.85, 6.63205103327599E-15, -84.));
#54 = CARTESIAN_POINT('', (-4.85, 4.85, -40.));
#55 = CARTESIAN_POINT('', (-4.85, 4.85000000000001, -84.));
#56 = CARTESIAN_POINT('', (1.17253711997578E-15, 4.85, -40.));
#57 = CARTESIAN_POINT('', (1.17253711997578E-15, 4.85, -84.));
#58 = CARTESIAN_POINT('', (4.85, 4.85, -40.));
#59 = CARTESIAN_POINT('', (4.85, 4.85, -84.));
#60 = CARTESIAN_POINT('', (4.85, 1.62244153422406E-15, -40.));
#61 = CARTESIAN_POINT('', (4.85, 5.50822212041211E-15, -84.));
#62 = CARTESIAN_POINT('', (4.85, -4.85, -40.));
#63 = CARTESIAN_POINT('', (4.85, -4.84999999999999, -84.));
#64 = CARTESIAN_POINT('', (6.42661904698362E-16, -4.85, -40.));
#65 = CARTESIAN_POINT('', (6.42661904698362E-16, -4.84999999999999, -84.));
#66 = CARTESIAN_POINT('', (-4.85, -4.85, -40.));
#67 = CARTESIAN_POINT('', (-4.85, -4.84999999999999, -84.));
#68 = CARTESIAN_POINT('', (-4.85, 2.74627044708794E-15, -40.));
#69 = CARTESIAN_POINT('', (-4.85, 6.63205103327599E-15, -84.));
#70 = ADVANCED_FACE('', (#71), #90, .T.);
#71 = FACE_OUTER_BOUND('', #72, .T.);
#72 = EDGE_LOOP('', (#73, #81, #88, #89));
#73 = ORIENTED_EDGE('', *, *, #74, .T.);
#74 = EDGE_CURVE('', #36, #75, #77, .T.);
#75 = VERTEX_POINT('', #76);
#76 = CARTESIAN_POINT('', (-4.85, 3.26674533672556E-16, -0.484999999999999));
#77 = LINE('', #78, #79);
#78 = CARTESIAN_POINT('', (-4.85, 2.74627044708794E-15, -40.));
#79 = VECTOR('', #80, 39.515);
#80 = DIRECTION('', (0., -2.41959591341538E-15, 39.515));
#81 = ORIENTED_EDGE('', *, *, #82, .T.);
#82 = EDGE_CURVE('', #75, #75, #83, .T.);
#83 = CIRCLE('', #84, 4.85);
#84 = AXIS2_PLACEMENT_3D('', #85, #86, #87);
#85 = CARTESIAN_POINT('', (-1.80411241501588E-16, -3.33066907387547E-16, -0.484999999999999));
#86 = DIRECTION('', (-2.28911963840238E-17, 1.52383357924954E-16, -1.));
#87 = DIRECTION('', (-1., 1.36029163105176E-16, 2.28911963840238E-17));
#88 = ORIENTED_EDGE('', *, *, #74, .F.);
#89 = ORIENTED_EDGE('', *, *, #43, .F.);
#90 = (
   BOUNDED_SURFACE ()
   B_SPLINE_SURFACE (1, 2, ((#91, #92, #93, #94, #95, #96, #97, #98, #99), (#100, #101, #102, #103, #104, #105, #106, #107, #108)), .UNSPECIFIED., .F., .T., .U.)
   B_SPLINE_SURFACE_WITH_KNOTS ((2, 2), (3, 2, 2, 2, 3), (0., 1.), (0., 7.61836218495525, 15.2367243699105, 22.8550865548657, 30.473448739821), .UNSPECIFIED.)
   GEOMETRIC_REPRESENTATION_ITEM ()
   RATIONAL_B_SPLINE_SURFACE (((1., 0.707106781186548, 1., 0.707106781186548, 1., 0.707106781186548, 1., 0.707106781186548, 1.), (1., 0.707106781186548, 1., 0.707106781186548, 1., 0.707106781186548, 1., 0.707106781186548, 1.)))
   REPRESENTATION_ITEM ('')
   SURFACE ()
);
#91 = CARTESIAN_POINT('', (-4.85, 2.54712058292287E-15, -40.));
#92 = CARTESIAN_POINT('', (-4.85, 4.85, -40.));
#93 = CARTESIAN_POINT('', (-7.2219227434942E-16, 4.85, -40.));
#94 = CARTESIAN_POINT('', (4.85, 4.85, -40.));
#95 = CARTESIAN_POINT('', (4.85, 1.82159139838913E-15, -40.));
#96 = CARTESIAN_POINT('', (4.85, -4.85, -40.));
#97 = CARTESIAN_POINT('', (-8.53767761296694E-16, -4.85, -40.));
#98 = CARTESIAN_POINT('', (-4.85, -4.85, -40.));
#99 = CARTESIAN_POINT('', (-4.85, 2.54712058292287E-15, -40.));
#100 = CARTESIAN_POINT('', (-4.85, 3.26674533672556E-16, -0.484999999999999));
#101 = CARTESIAN_POINT('', (-4.85, 4.85, -0.484999999999999));
#102 = CARTESIAN_POINT('', (1.82353350765282E-16, 4.85, -0.484999999999999));
#103 = CARTESIAN_POINT('', (4.85, 4.85, -0.484999999999999));
#104 = CARTESIAN_POINT('', (4.85, -3.98854650861184E-16, -0.484999999999999));
#105 = CARTESIAN_POINT('', (4.85, -4.85, -0.484999999999999));
#106 = CARTESIAN_POINT('', (5.07778638180085E-17, -4.85, -0.484999999999999));
#107 = CARTESIAN_POINT('', (-4.85, -4.85, -0.484999999999999));
#108 = CARTESIAN_POINT('', (-4.85, 3.26674533672556E-16, -0.484999999999999));
#109 = ADVANCED_FACE('', (#110), #129, .T.);
#110 = FACE_OUTER_BOUND('', #111, .T.);
#111 = EDGE_LOOP('', (#112, #120, #127, #128));
#112 = ORIENTED_EDGE('', *, *, #113, .T.);
#113 = EDGE_CURVE('', #75, #114, #116, .T.);
#114 = VERTEX_POINT('', #115);
#115 = CARTESIAN_POINT('', (-4.365, 2.6727916391391E-16, 0.));
#116 = LINE('', #117, #118);
#117 = CARTESIAN_POINT('', (-4.85, 3.26674533672556E-16, -0.484999999999999));
#118 = VECTOR('', #119, 0.68589357775095);
#119 = DIRECTION('', (0.484999999999999, -5.9395369758646E-17, 0.484999999999999));
#120 = ORIENTED_EDGE('', *, *, #121, .T.);
#121 = EDGE_CURVE('', #114, #114, #122, .T.);
#122 = CIRCLE('', #123, 4.365);
#123 = AXIS2_PLACEMENT_3D('', #124, #125, #126);
#124 = CARTESIAN_POINT('', (1.23512311489549E-15, -9.99200722162641E-16, -6.16297582203915E-32));
#125 = DIRECTION('', (3.64714059862913E-33, 6.12323399573677E-17, -1.));
#126 = DIRECTION('', (-1., 2.90144303797606E-16, 1.41190740481997E-32));
#127 = ORIENTED_EDGE('', *, *, #113, .F.);
#128 = ORIENTED_EDGE('', *, *, #82, .F.);
#129 = (
   BOUNDED_SURFACE ()
   B_SPLINE_SURFACE (1, 2, ((#130, #131, #132, #133, #134, #135, #136, #137, #138), (#139, #140, #141, #142, #143, #144, #145, #146, #147)), .UNSPECIFIED., .F., .T., .U.)
   B_SPLINE_SURFACE_WITH_KNOTS ((2, 2), (3, 2, 2, 2, 3), (0., 1.), (0., 0.25, 0.5, 0.75, 1.), .UNSPECIFIED.)
   GEOMETRIC_REPRESENTATION_ITEM ()
   RATIONAL_B_SPLINE_SURFACE (((1., 0.707106781186548, 1., 0.707106781186548, 1., 0.707106781186548, 1., 0.707106781186548, 1.), (1., 0.707106781186548, 1., 0.707106781186548, 1., 0.707106781186548, 1., 0.707106781186548, 1.)))
   REPRESENTATION_ITEM ('')
   SURFACE ()
);
#130 = CARTESIAN_POINT('', (-4.85, 1.29617757095587E-15, -0.484999999999999));
#131 = CARTESIAN_POINT('', (-4.85, 4.85, -0.48499999999999));
#132 = CARTESIAN_POINT('', (2.34534613952064E-15, 4.85, -0.48499999999999));
#133 = CARTESIAN_POINT('', (4.85, 4.85, -0.48499999999999));
#134 = CARTESIAN_POINT('', (4.85, -9.24268478294438E-16, -0.484999999999999));
#135 = CARTESIAN_POINT('', (4.85, -4.85, -0.485000000000008));
#136 = CARTESIAN_POINT('', (7.18853787856797E-16, -4.85, -0.485000000000008));
#137 = CARTESIAN_POINT('', (-4.85, -4.85, -0.485000000000008));
#138 = CARTESIAN_POINT('', (-4.85, 1.29617757095587E-15, -0.484999999999999));
#139 = CARTESIAN_POINT('', (-4.365, 2.6727916391391E-16, -1.09476442525376E-47));
#140 = CARTESIAN_POINT('', (-4.365, 4.365, 7.99360577730114E-15));
#141 = CARTESIAN_POINT('', (2.23432383705813E-15, 4.365, 7.99360577730114E-15));
#142 = CARTESIAN_POINT('', (4.365, 4.365, 7.99360577730115E-15));
#143 = CARTESIAN_POINT('', (4.365, -1.73112228041137E-15, 8.5567485644098E-31));
#144 = CARTESIAN_POINT('', (4.365, -4.365, -7.99360577730114E-15));
#145 = CARTESIAN_POINT('', (7.70480720560666E-16, -4.365, -7.99360577730114E-15));
#146 = CARTESIAN_POINT('', (-4.365, -4.365, -7.99360577730115E-15));
#147 = CARTESIAN_POINT('', (-4.365, 2.6727916391391E-16, -1.09476442525376E-47));
#148 = ADVANCED_FACE('', (#149), #152, .T.);
#149 = FACE_OUTER_BOUND('', #150, .T.);
#150 = EDGE_LOOP('', (#151));
#151 = ORIENTED_EDGE('', *, *, #121, .F.);
#152 = B_SPLINE_SURFACE_WITH_KNOTS('', 1, 1, ((#153, #154), (#155, #156)), .UNSPECIFIED., .F., .F., .U., (2, 2), (2, 2), (0.0454545454545454, 0.954545454545454), (0.0454545454545454, 0.954545454545454), .UNSPECIFIED.);
#153 = CARTESIAN_POINT('', (4.365, -4.365, -2.6727916391391E-16));
#154 = CARTESIAN_POINT('', (-4.365, -4.365, -2.6727916391391E-16));
#155 = CARTESIAN_POINT('', (4.365, 4.365, 2.6727916391391E-16));
#156 = CARTESIAN_POINT('', (-4.365, 4.365, 2.6727916391391E-16));
#157 = ADVANCED_FACE('', (#158), #177, .T.);
#158 = FACE_OUTER_BOUND('', #159, .T.);
#159 = EDGE_LOOP('', (#160, #169, #175, #176));
#160 = ORIENTED_EDGE('', *, *, #161, .F.);
#161 = EDGE_CURVE('', #162, #162, #164, .T.);
#162 = VERTEX_POINT('', #163);
#163 = CARTESIAN_POINT('', (-5., 5.51091059616309E-15, -85.));
#164 = CIRCLE('', #165, 5.);
#165 = AXIS2_PLACEMENT_3D('', #166, #167, #168);
#166 = CARTESIAN_POINT('', (1.38777878078145E-17, 1.66533453693773E-15, -85.));
#167 = DIRECTION('', (-7.43998669346852E-30, -9.67343588955983E-15, -1.));
#168 = DIRECTION('', (-1., 7.69115211845071E-16, 0.));
#169 = ORIENTED_EDGE('', *, *, #170, .F.);
#170 = EDGE_CURVE('', #8, #162, #171, .T.);
#171 = LINE('', #172, #173);
#172 = CARTESIAN_POINT('', (-5., 5.44967825620572E-15, -84.));
#173 = VECTOR('', #174, 1.);
#174 = DIRECTION('', (0., 6.12323399573707E-17, -1.));
#175 = ORIENTED_EDGE('', *, *, #7, .T.);
#176 = ORIENTED_EDGE('', *, *, #170, .T.);
#177 = (
   BOUNDED_SURFACE ()
   B_SPLINE_SURFACE (2, 1, ((#178, #179), (#180, #181), (#182, #183), (#184, #185), (#186, #187), (#188, #189), (#190, #191), (#192, #193), (#194, #195)), .UNSPECIFIED., .T., .F., .U.)
   B_SPLINE_SURFACE_WITH_KNOTS ((3, 2, 2, 2, 3), (2, 2), (0., 7.85398163397448, 15.707963267949, 23.5619449019234, 31.4159265358979), (0., 0.0689655172413793), .UNSPECIFIED.)
   GEOMETRIC_REPRESENTATION_ITEM ()
   RATIONAL_B_SPLINE_SURFACE (((1., 1.), (0.707106781186548, 0.707106781186548), (1., 1.), (0.707106781186548, 0.707106781186548), (1., 1.), (0.707106781186548, 0.707106781186548), (1., 1.), (0.707106781186548, 0.707106781186548), (1., 1.)))
   REPRESENTATION_ITEM ('')
   SURFACE ()
);
#178 = CARTESIAN_POINT('', (-5., 5.44967825620572E-15, -84.));
#179 = CARTESIAN_POINT('', (-5., 5.56070055866823E-15, -85.));
#180 = CARTESIAN_POINT('', (-4.99999999999999, 5.00000000000001, -84.));
#181 = CARTESIAN_POINT('', (-4.99999999999999, 5.00000000000001, -85.));
#182 = CARTESIAN_POINT('', (6.42027303473781E-15, 5., -84.));
#183 = CARTESIAN_POINT('', (6.42027303473781E-15, 5., -85.));
#184 = CARTESIAN_POINT('', (5.00000000000001, 4.99999999999999, -84.));
#185 = CARTESIAN_POINT('', (5.00000000000001, 4.99999999999999, -85.));
#186 = CARTESIAN_POINT('', (5., -4.39326564678198E-15, -84.));
#187 = CARTESIAN_POINT('', (5., -4.28224334431946E-15, -85.));
#188 = CARTESIAN_POINT('', (5., -5., -84.));
#189 = CARTESIAN_POINT('', (5., -5., -85.));
#190 = CARTESIAN_POINT('', (-2.81034746867621E-15, -5., -84.));
#191 = CARTESIAN_POINT('', (-2.81034746867621E-15, -5., -85.));
#192 = CARTESIAN_POINT('', (-5., -5., -84.));
#193 = CARTESIAN_POINT('', (-5., -5., -85.));
#194 = CARTESIAN_POINT('', (-5., 5.44967825620572E-15, -84.));
#195 = CARTESIAN_POINT('', (-5., 5.56070055866823E-15, -85.));
#196 = ADVANCED_FACE('', (#197), #200, .T.);
#197 = FACE_OUTER_BOUND('', #198, .T.);
#198 = EDGE_LOOP('', (#199));
#199 = ORIENTED_EDGE('', *, *, #161, .T.);
#200 = B_SPLINE_SURFACE_WITH_KNOTS('', 1, 1, ((#201, #202), (#203, #204)), .UNSPECIFIED., .F., .F., .U., (2, 2), (2, 2), (0.492573900015068, 0.542081274834142), (0.457918725165857, 0.507426099984932), .UNSPECIFIED.);
#201 = CARTESIAN_POINT('', (-5.00000000000003, 5.00000000000003, -85.));
#202 = CARTESIAN_POINT('', (-5.00000000000003, -4.99999999999999, -85.));
#203 = CARTESIAN_POINT('', (4.99999999999997, 5.00000000000003, -85.));
#204 = CARTESIAN_POINT('', (4.99999999999997, -4.99999999999999, -85.));
#205 = DRAUGHTING_MODEL('', (#213, #337, #385, #390, #395, #400, #405, #410), #424);
#206 = PRESENTATION_STYLE_ASSIGNMENT((#207));
#207 = SURFACE_STYLE_USAGE(.POSITIVE., #208);
#208 = SURFACE_SIDE_STYLE('', (#209));
#209 = SURFACE_STYLE_FILL_AREA(#210);
#210 = FILL_AREA_STYLE('', (#211));
#211 = FILL_AREA_STYLE_COLOUR('', #212);
#212 = COLOUR_RGB('', 0.50196078431373, 0.50196078431373, 0.50196078431373);
#213 = STYLED_ITEM('', (#206), #1);
#214 = MANIFOLD_SOLID_BREP('CUT', #215);
#215 = CLOSED_SHELL('', (#216, #233, #272, #321));
#216 = ADVANCED_FACE('', (#217), #228, .T.);
#217 = FACE_OUTER_BOUND('', #218, .T.);
#218 = EDGE_LOOP('', (#219));
#219 = ORIENTED_EDGE('', *, *, #220, .F.);
#220 = EDGE_CURVE('', #221, #221, #223, .T.);
#221 = VERTEX_POINT('', #222);
#222 = CARTESIAN_POINT('', (-5., 5.51091059616309E-15, -85.));
#223 = CIRCLE('', #224, 5.);
#224 = AXIS2_PLACEMENT_3D('', #225, #226, #227);
#225 = CARTESIAN_POINT('', (1.38777878078145E-17, 1.66533453693773E-15, -85.));
#226 = DIRECTION('', (-7.43998669346852E-30, -9.67343588955983E-15, -1.));
#227 = DIRECTION('', (-1., 7.69115211845071E-16, 0.));
#228 = B_SPLINE_SURFACE_WITH_KNOTS('', 1, 1, ((#229, #230), (#231, #232)), .UNSPECIFIED., .F., .F., .U., (2, 2), (2, 2), (0.457918725165857, 0.507426099984932), (0.492573900015068, 0.542081274834143), .UNSPECIFIED.);
#229 = CARTESIAN_POINT('', (-5., 5.00000000000001, -85.));
#230 = CARTESIAN_POINT('', (5., 5.00000000000001, -85.));
#231 = CARTESIAN_POINT('', (-5., -4.99999999999999, -85.));
#232 = CARTESIAN_POINT('', (5., -4.99999999999999, -85.));
#233 = ADVANCED_FACE('', (#234), #253, .T.);
#234 = FACE_OUTER_BOUND('', #235, .T.);
#235 = EDGE_LOOP('', (#236, #237, #245, #252));
#236 = ORIENTED_EDGE('', *, *, #220, .T.);
#237 = ORIENTED_EDGE('', *, *, #238, .T.);
#238 = EDGE_CURVE('', #221, #239, #241, .T.);
#239 = VERTEX_POINT('', #240);
#240 = CARTESIAN_POINT('', (-5., 6.33754718558755E-15, -98.5));
#241 = LINE('', #242, #243);
#242 = CARTESIAN_POINT('', (-5., 5.51091059616309E-15, -85.));
#243 = VECTOR('', #244, 13.5);
#244 = DIRECTION('', (0., 8.2663658942446E-16, -13.5));
#245 = ORIENTED_EDGE('', *, *, #246, .F.);
#246 = EDGE_CURVE('', #239, #239, #247, .T.);
#247 = CIRCLE('', #248, 5.);
#248 = AXIS2_PLACEMENT_3D('', #249, #250, #251);
#249 = CARTESIAN_POINT('', (1.65145674912992E-15, 5.77315972805081E-15, -98.5));
#250 = DIRECTION('', (-2.8421709430404E-15, 9.24648183040211E-15, -1.));
#251 = DIRECTION('', (-1., 1.12877491507347E-16, 2.8421709430404E-15));
#252 = ORIENTED_EDGE('', *, *, #238, .F.);
#253 = (
   BOUNDED_SURFACE ()
   B_SPLINE_SURFACE (2, 1, ((#254, #255), (#256, #257), (#258, #259), (#260, #261), (#262, #263), (#264, #265), (#266, #267), (#268, #269), (#270, #271)), .UNSPECIFIED., .T., .F., .U.)
   B_SPLINE_SURFACE_WITH_KNOTS ((3, 2, 2, 2, 3), (2, 2), (0., 7.85398163397448, 15.707963267949, 23.5619449019234, 31.4159265358979), (0.0689655172413793, 1.), .UNSPECIFIED.)
   GEOMETRIC_REPRESENTATION_ITEM ()
   RATIONAL_B_SPLINE_SURFACE (((1., 1.), (0.707106781186548, 0.707106781186548), (1., 1.), (0.707106781186548, 0.707106781186548), (1., 1.), (0.707106781186548, 0.707106781186548), (1., 1.), (0.707106781186548, 0.707106781186548), (1., 1.)))
   REPRESENTATION_ITEM ('')
   SURFACE ()
);
#254 = CARTESIAN_POINT('', (-5., 5.51091059616309E-15, -85.));
#255 = CARTESIAN_POINT('', (-5., 1.09510034168264E-14, -98.5));
#256 = CARTESIAN_POINT('', (-4.99999999999999, 5.00000000000001, -85.));
#257 = CARTESIAN_POINT('', (-4.99999999999999, 5.00000000000001, -98.5));
#258 = CARTESIAN_POINT('', (6.37048307223266E-15, 5., -85.));
#259 = CARTESIAN_POINT('', (6.37048307223267E-15, 5.00000000000001, -98.5));
#260 = CARTESIAN_POINT('', (5.00000000000001, 5., -85.));
#261 = CARTESIAN_POINT('', (5.00000000000001, 5., -98.5));
#262 = CARTESIAN_POINT('', (5., -4.23245338181432E-15, -85.));
#263 = CARTESIAN_POINT('', (5., 1.20763943884895E-15, -98.5));
#264 = CARTESIAN_POINT('', (5., -5., -85.));
#265 = CARTESIAN_POINT('', (5., -5., -98.5));
#266 = CARTESIAN_POINT('', (-2.76055750617107E-15, -5., -85.));
#267 = CARTESIAN_POINT('', (-2.76055750617106E-15, -4.99999999999999, -98.5));
#268 = CARTESIAN_POINT('', (-5., -5., -85.));
#269 = CARTESIAN_POINT('', (-5., -4.99999999999999, -98.5));
#270 = CARTESIAN_POINT('', (-5., 5.51091059616309E-15, -85.));
#271 = CARTESIAN_POINT('', (-5., 1.09510034168264E-14, -98.5));
#272 = ADVANCED_FACE('', (#273), #293, .T.);
#273 = FACE_OUTER_BOUND('', #274, .T.);
#274 = EDGE_LOOP('', (#275, #284, #285, #286));
#275 = ORIENTED_EDGE('', *, *, #276, .F.);
#276 = EDGE_CURVE('', #239, #277, #279, .T.);
#277 = VERTEX_POINT('', #278);
#278 = CARTESIAN_POINT('', (-3.5, 6.33754718558755E-15, -100.));
#279 = CIRCLE('', #280, 1.49999999999997);
#280 = AXIS2_PLACEMENT_3D('', #281, #282, #283);
#281 = CARTESIAN_POINT('', (-3.50000000000004, 6.2456986756515E-15, -98.5));
#282 = DIRECTION('', (-6.12323399573671E-17, -1., -6.12323399573669E-17));
#283 = DIRECTION('', (-1., 6.12323399573665E-17, 9.47390314346824E-15));
#284 = ORIENTED_EDGE('', *, *, #246, .T.);
#285 = ORIENTED_EDGE('', *, *, #276, .T.);
#286 = ORIENTED_EDGE('', *, *, #287, .F.);
#287 = EDGE_CURVE('', #277, #277, #288, .T.);
#288 = CIRCLE('', #289, 3.5);
#289 = AXIS2_PLACEMENT_3D('', #290, #291, #292);
#290 = CARTESIAN_POINT('', (7.49400541621981E-16, 6.55031584528842E-15, -100.));
#291 = DIRECTION('', (0., 0., -1.));
#292 = DIRECTION('', (-1., -6.07910456288209E-17, 0.));
#293 = (
   BOUNDED_SURFACE ()
   B_SPLINE_SURFACE (2, 2, ((#294, #295, #296), (#297, #298, #299), (#300, #301, #302), (#303, #304, #305), (#306, #307, #308), (#309, #310, #311), (#312, #313, #314), (#315, #316, #317), (#318, #319, #320)), .UNSPECIFIED., .T., .F., .U.)
   B_SPLINE_SURFACE_WITH_KNOTS ((3, 2, 2, 2, 3), (3, 3), (0., 0.25, 0.5, 0.75, 1.), (0., 1.), .UNSPECIFIED.)
   GEOMETRIC_REPRESENTATION_ITEM ()
   RATIONAL_B_SPLINE_SURFACE (((1., 0.707106781186548, 1.), (0.707106781186548, 0.5, 0.707106781186548), (1., 0.707106781186548, 1.), (0.707106781186548, 0.5, 0.707106781186548), (1., 0.707106781186548, 1.), (0.707106781186548, 0.5, 0.707106781186548), (1., 0.707106781186548, 1.), (0.707106781186548, 0.5, 0.707106781186548), (1., 0.707106781186548, 1.)))
   REPRESENTATION_ITEM ('')
   SURFACE ()
);
#294 = CARTESIAN_POINT('', (-5., 6.33754718558755E-15, -98.5));
#295 = CARTESIAN_POINT('', (-5., 6.4293956955236E-15, -100.));
#296 = CARTESIAN_POINT('', (-3.5, 6.33754718558755E-15, -100.));
#297 = CARTESIAN_POINT('', (-5., 5.00000000000001, -98.5));
#298 = CARTESIAN_POINT('', (-5., 5.00000000000001, -100.));
#299 = CARTESIAN_POINT('', (-3.5, 3.50000000000001, -100.));
#300 = CARTESIAN_POINT('', (4.80270362674929E-16, 5., -98.5));
#301 = CARTESIAN_POINT('', (5.72118872610979E-16, 5., -100.));
#302 = CARTESIAN_POINT('', (5.72118872610981E-16, 3.5, -100.));
#303 = CARTESIAN_POINT('', (5., 5., -98.5));
#304 = CARTESIAN_POINT('', (5., 5., -100.));
#305 = CARTESIAN_POINT('', (3.5, 3.5, -100.));
#306 = CARTESIAN_POINT('', (5., 4.0447388306875E-15, -98.5));
#307 = CARTESIAN_POINT('', (5., 3.95289032075145E-15, -100.));
#308 = CARTESIAN_POINT('', (3.5, 3.8610418108154E-15, -100.));
#309 = CARTESIAN_POINT('', (5., -5., -98.5));
#310 = CARTESIAN_POINT('', (5., -5., -100.));
#311 = CARTESIAN_POINT('', (3.5, -3.5, -100.));
#312 = CARTESIAN_POINT('', (-1.20021459265144E-15, -4.99999999999999, -98.5));
#313 = CARTESIAN_POINT('', (-1.29206310258749E-15, -4.99999999999999, -100.));
#314 = CARTESIAN_POINT('', (-1.4757601224596E-15, -3.49999999999999, -100.));
#315 = CARTESIAN_POINT('', (-5., -4.99999999999999, -98.5));
#316 = CARTESIAN_POINT('', (-5., -4.99999999999999, -100.));
#317 = CARTESIAN_POINT('', (-3.5, -3.49999999999999, -100.));
#318 = CARTESIAN_POINT('', (-5., 6.33754718558755E-15, -98.5));
#319 = CARTESIAN_POINT('', (-5., 6.4293956955236E-15, -100.));
#320 = CARTESIAN_POINT('', (-3.5, 6.33754718558755E-15, -100.));
#321 = ADVANCED_FACE('', (#322), #325, .T.);
#322 = FACE_OUTER_BOUND('', #323, .T.);
#323 = EDGE_LOOP('', (#324));
#324 = ORIENTED_EDGE('', *, *, #287, .T.);
#325 = B_SPLINE_SURFACE_WITH_KNOTS('', 1, 1, ((#326, #327), (#328, #329)), .UNSPECIFIED., .F., .F., .U., (2, 2), (2, 2), (0.0454545454545455, 0.954545454545455), (0.0454545454545455, 0.954545454545455), .UNSPECIFIED.);
#326 = CARTESIAN_POINT('', (3.5, -3.49999999999999, -100.));
#327 = CARTESIAN_POINT('', (3.5, 3.50000000000001, -100.));
#328 = CARTESIAN_POINT('', (-3.5, -3.49999999999999, -100.));
#329 = CARTESIAN_POINT('', (-3.5, 3.50000000000001, -100.));
#330 = PRESENTATION_STYLE_ASSIGNMENT((#331));
#331 = SURFACE_STYLE_USAGE(.POSITIVE., #332);
#332 = SURFACE_SIDE_STYLE('', (#333));
#333 = SURFACE_STYLE_FILL_AREA(#334);
#334 = FILL_AREA_STYLE('', (#335));
#335 = FILL_AREA_STYLE_COLOUR('', #336);
#336 = COLOUR_RGB('', 0.8, 0.8, 0.8);
#337 = STYLED_ITEM('', (#330), #214);
#338 = TRIMMED_CURVE('cutting part line', #339, (#343), (#344), .T., .CARTESIAN.);
#339 = LINE('', #340, #341);
#340 = CARTESIAN_POINT('', (6.24500451351651E-17, 0., -99.9999999999999));
#341 = VECTOR('', #342, 3.5);
#342 = DIRECTION('', (3.5, 0., 0.));
#343 = CARTESIAN_POINT('', (6.24500451351651E-17, 0., -99.9999999999999));
#344 = CARTESIAN_POINT('', (3.5, 0., -99.9999999999999));
#345 = TRIMMED_CURVE('cutting part line', #346, (#351), (#352), .T., .CARTESIAN.);
#346 = CIRCLE('', #347, 1.5);
#347 = AXIS2_PLACEMENT_3D('', #348, #349, #350);
#348 = CARTESIAN_POINT('', (3.5, 4.61587258951485E-15, -98.5));
#349 = DIRECTION('', (2.72929826887018E-16, -1., 5.55111512312576E-17));
#350 = DIRECTION('', (1.1842378929335E-15, -5.55111512312573E-17, -1.));
#351 = CARTESIAN_POINT('', (3.5, 4.53260586266796E-15, -100.));
#352 = CARTESIAN_POINT('', (5., 5.02526732984537E-15, -98.5));
#353 = TRIMMED_CURVE('cutting part line', #354, (#358), (#359), .T., .CARTESIAN.);
#354 = LINE('', #355, #356);
#355 = CARTESIAN_POINT('', (5., 5.439264268177E-15, -98.5));
#356 = VECTOR('', #357, 13.5);
#357 = DIRECTION('', (0., -5.439264268177E-15, 13.5));
#358 = CARTESIAN_POINT('', (5., 5.439264268177E-15, -98.5));
#359 = CARTESIAN_POINT('', (5., 0., -85.));
#360 = TRIMMED_CURVE('cutting part line', #361, (#365), (#366), .T., .CARTESIAN.);
#361 = LINE('', #362, #363);
#362 = CARTESIAN_POINT('', (5., 0., -85.));
#363 = VECTOR('', #364, 5.);
#364 = DIRECTION('', (-5., 0., 0.));
#365 = CARTESIAN_POINT('', (5., 0., -85.));
#366 = CARTESIAN_POINT('', (0., 0., -85.));
#367 = TRIMMED_CURVE('cutting part line', #368, (#372), (#373), .T., .CARTESIAN.);
#368 = LINE('', #369, #370);
#369 = CARTESIAN_POINT('', (0., 0., -85.));
#370 = VECTOR('', #371, 15.);
#371 = DIRECTION('', (0., 0., -15.));
#372 = CARTESIAN_POINT('', (0., 0., -85.));
#373 = CARTESIAN_POINT('', (0., 0., -100.));
#374 = COMPOSITE_CURVE('cutting part line', (#375, #376, #377, #378, #379), .U.);
#375 = COMPOSITE_CURVE_SEGMENT(.CONTINUOUS., .T., #338);
#376 = COMPOSITE_CURVE_SEGMENT(.CONTINUOUS., .T., #345);
#377 = COMPOSITE_CURVE_SEGMENT(.CONTINUOUS., .T., #353);
#378 = COMPOSITE_CURVE_SEGMENT(.CONTINUOUS., .T., #360);
#379 = COMPOSITE_CURVE_SEGMENT(.CONTINUOUS., .T., #367);
#380 = GEOMETRIC_SET('', (#374, #423));
#381 = PRESENTATION_STYLE_ASSIGNMENT((#382));
#382 = CURVE_STYLE('', #384, POSITIVE_LENGTH_MEASURE(1.E-6), #383);
#383 = COLOUR_RGB('', 0., 0., 1.);
#384 = DRAUGHTING_PRE_DEFINED_CURVE_FONT('continuous');
#385 = STYLED_ITEM('', (#381), #374);
#386 = PRESENTATION_STYLE_ASSIGNMENT((#387));
#387 = CURVE_STYLE('', #389, POSITIVE_LENGTH_MEASURE(1.E-6), #388);
#388 = COLOUR_RGB('', 0., 0., 1.);
#389 = DRAUGHTING_PRE_DEFINED_CURVE_FONT('continuous');
#390 = OVER_RIDING_STYLED_ITEM('', (#386), #338, #385);
#391 = PRESENTATION_STYLE_ASSIGNMENT((#392));
#392 = CURVE_STYLE('', #394, POSITIVE_LENGTH_MEASURE(1.E-6), #393);
#393 = COLOUR_RGB('', 0., 0., 1.);
#394 = DRAUGHTING_PRE_DEFINED_CURVE_FONT('continuous');
#395 = OVER_RIDING_STYLED_ITEM('', (#391), #345, #385);
#396 = PRESENTATION_STYLE_ASSIGNMENT((#397));
#397 = CURVE_STYLE('', #399, POSITIVE_LENGTH_MEASURE(1.E-6), #398);
#398 = COLOUR_RGB('', 0., 0., 1.);
#399 = DRAUGHTING_PRE_DEFINED_CURVE_FONT('continuous');
#400 = OVER_RIDING_STYLED_ITEM('', (#396), #353, #385);
#401 = PRESENTATION_STYLE_ASSIGNMENT((#402));
#402 = CURVE_STYLE('', #404, POSITIVE_LENGTH_MEASURE(1.E-6), #403);
#403 = COLOUR_RGB('', 0., 0., 1.);
#404 = DRAUGHTING_PRE_DEFINED_CURVE_FONT('continuous');
#405 = OVER_RIDING_STYLED_ITEM('', (#401), #360, #385);
#406 = PRESENTATION_STYLE_ASSIGNMENT((#407));
#407 = CURVE_STYLE('', #409, POSITIVE_LENGTH_MEASURE(1.E-6), #408);
#408 = COLOUR_RGB('', 0., 0., 1.);
#409 = DRAUGHTING_PRE_DEFINED_CURVE_FONT('continuous');
#410 = OVER_RIDING_STYLED_ITEM('', (#406), #367, #385);
#411 = AXIS2_PLACEMENT_3D('MCS', #412, #413, #414);
#412 = CARTESIAN_POINT('', (0., 0., -40.));
#413 = DIRECTION('', (0., 0., 1.));
#414 = DIRECTION('', (1., 0., 0.));
#415 = AXIS2_PLACEMENT_3D('PCS', #416, #417, #418);
#416 = CARTESIAN_POINT('', (0., 0., 0.));
#417 = DIRECTION('', (0., 0., 1.));
#418 = DIRECTION('', (1., 0., 0.));
#419 = AXIS2_PLACEMENT_3D('CIP', #420, #421, #422);
#420 = CARTESIAN_POINT('', (0., 0., -100.));
#421 = DIRECTION('', (0., 0., 1.));
#422 = DIRECTION('', (1., 0., 0.));
#423 = CARTESIAN_POINT('CRP', (5., 0., -100.));
#424 = (
   GEOMETRIC_REPRESENTATION_CONTEXT (3)
   GLOBAL_UNCERTAINTY_ASSIGNED_CONTEXT ((#426))
   GLOBAL_UNIT_ASSIGNED_CONTEXT ((#425, #427, #428))
   REPRESENTATION_CONTEXT ('', '3D')
);
#425 = (
   LENGTH_UNIT ()
   NAMED_UNIT (*)
   SI_UNIT (.MILLI., .METRE.)
);
#426 = UNCERTAINTY_MEASURE_WITH_UNIT(LENGTH_MEASURE(1.E-6), #425, 'DISTANCE_ACCURACY_VALUE', '');
#427 = (
   NAMED_UNIT (*)
   SI_UNIT ($, .STERADIAN.)
   SOLID_ANGLE_UNIT ()
);
#428 = (
   NAMED_UNIT (*)
   PLANE_ANGLE_UNIT ()
   SI_UNIT ($, .RADIAN.)
);
#429 = SHAPE_REPRESENTATION('', (), #424);
#430 = PRODUCT_DEFINITION_SHAPE('', '', #431);
#431 = PRODUCT_DEFINITION('', '', #434, #438);
#432 = APPLICATION_CONTEXT('configuration controlled 3D designs of mechanical parts and assemblies');
#433 = APPLICATION_PROTOCOL_DEFINITION('International Standard', 'automotive_design', 2002, #432);
#434 = PRODUCT_DEFINITION_FORMATION_WITH_SPECIFIED_SOURCE('', '', #435, .NOT_KNOWN.);
#435 = PRODUCT('product-name', '2S221-1000-150-NG   H10F', '', (#436));
#436 = PRODUCT_CONTEXT('', #432, 'mechanical');
#437 = PRODUCT_RELATED_PRODUCT_CATEGORY('detail', '', (#435));
#438 = PRODUCT_DEFINITION_CONTEXT('part definition', #432, 'design');
#439 = SHAPE_DEFINITION_REPRESENTATION(#430, #429);
#440 = CONSTRUCTIVE_GEOMETRY_REPRESENTATION('supplemental geometry', (#411, #415, #419), #424);
#441 = CONSTRUCTIVE_GEOMETRY_REPRESENTATION_RELATIONSHIP('', '', #429, #440);
#442 = SHAPE_REPRESENTATION_RELATIONSHIP('', '', #429, #443);
#443 = SHAPE_REPRESENTATION('', (#380), #424);
#444 = SHAPE_REPRESENTATION_RELATIONSHIP('', '', #429, #445);
#445 = ADVANCED_BREP_SHAPE_REPRESENTATION('', (#1, #214), #424);
ENDSEC;
END-ISO-10303-21;
