ISO-10303-21;
HEADER;
FILE_DESCRIPTION(('STEP'), '1');
FILE_NAME('C:\\Users\\ds2002\\OneDrive - Sandvik\\HomeShare\\Documents\\Batchrepair\\CorSRT2\\NEW_MILSQ_SLD\\Output\\MOD000000000000000020082328000000.stp', '2019-01-02T12:09:00', (''), (''), 'Express v3.0.0.0', 'Express Tool', 'Unknown');
FILE_SCHEMA(('AUTOMOTIVE_DESIGN'));
ENDSEC;

DATA;
#1 = MANIFOLD_SOLID_BREP('NOCUT', #2);
#2 = CLOSED_SHELL('', (#3, #31, #70, #109, #148, #157, #196));
#3 = ADVANCED_FACE('', (#4, #15), #26, .T.);
#4 = FACE_OUTER_BOUND('', #5, .T.);
#5 = EDGE_LOOP('', (#6));
#6 = ORIENTED_EDGE('', *, *, #7, .F.);
#7 = EDGE_CURVE('', #8, #8, #10, .T.);
#8 = VERTEX_POINT('', #9);
#9 = CARTESIAN_POINT('', (-3., 5.69460761603519E-15, -90.));
#10 = CIRCLE('', #11, 3.);
#11 = AXIS2_PLACEMENT_3D('', #12, #13, #14);
#12 = CARTESIAN_POINT('', (-3.05311331771918E-16, 7.82707232360735E-15, -90.));
#13 = DIRECTION('', (0., 0., -1.));
#14 = DIRECTION('', (-1., -7.10821569190721E-16, 0.));
#15 = FACE_BOUND('', #16, .T.);
#16 = EDGE_LOOP('', (#17));
#17 = ORIENTED_EDGE('', *, *, #18, .T.);
#18 = EDGE_CURVE('', #19, #19, #21, .T.);
#19 = VERTEX_POINT('', #20);
#20 = CARTESIAN_POINT('', (-2.9, 5.68848438203946E-15, -90.));
#21 = CIRCLE('', #22, 2.9);
#22 = AXIS2_PLACEMENT_3D('', #23, #24, #25);
#23 = CARTESIAN_POINT('', (2.4980018054066E-16, 3.33066907387547E-15, -90.));
#24 = DIRECTION('', (1.35601517377806E-29, 1.66783377406203E-14, -1.));
#25 = DIRECTION('', (-1., 8.13039761435859E-16, 0.));
#26 = B_SPLINE_SURFACE_WITH_KNOTS('', 1, 1, ((#27, #28), (#29, #30)), .UNSPECIFIED., .F., .F., .U., (2, 2), (2, 2), (0.0454545454545454, 0.954545454545455), (0.0454545454545455, 0.954545454545455), .UNSPECIFIED.);
#27 = CARTESIAN_POINT('', (3., -3., -90.));
#28 = CARTESIAN_POINT('', (-3., -3., -90.));
#29 = CARTESIAN_POINT('', (3., 3.00000000000001, -90.));
#30 = CARTESIAN_POINT('', (-3., 3.00000000000001, -90.));
#31 = ADVANCED_FACE('', (#32), #51, .T.);
#32 = FACE_OUTER_BOUND('', #33, .T.);
#33 = EDGE_LOOP('', (#34, #42, #49, #50));
#34 = ORIENTED_EDGE('', *, *, #35, .F.);
#35 = EDGE_CURVE('', #36, #19, #38, .T.);
#36 = VERTEX_POINT('', #37);
#37 = CARTESIAN_POINT('', (-2.9, 2.3819380243416E-15, -36.));
#38 = LINE('', #39, #40);
#39 = CARTESIAN_POINT('', (-2.9, 2.3819380243416E-15, -36.));
#40 = VECTOR('', #41, 54.);
#41 = DIRECTION('', (0., 3.30654635769786E-15, -54.));
#42 = ORIENTED_EDGE('', *, *, #43, .T.);
#43 = EDGE_CURVE('', #36, #36, #44, .T.);
#44 = CIRCLE('', #45, 2.9);
#45 = AXIS2_PLACEMENT_3D('', #46, #47, #48);
#46 = CARTESIAN_POINT('', (-5.27355936696949E-16, -5.55111512312578E-17, -36.));
#47 = DIRECTION('', (0., 0., -1.));
#48 = DIRECTION('', (-1., 8.40499715714779E-16, 0.));
#49 = ORIENTED_EDGE('', *, *, #35, .T.);
#50 = ORIENTED_EDGE('', *, *, #18, .F.);
#51 = (
   BOUNDED_SURFACE ()
   B_SPLINE_SURFACE (2, 1, ((#52, #53), (#54, #55), (#56, #57), (#58, #59), (#60, #61), (#62, #63), (#64, #65), (#66, #67), (#68, #69)), .UNSPECIFIED., .T., .F., .U.)
   B_SPLINE_SURFACE_WITH_KNOTS ((3, 2, 2, 2, 3), (2, 2), (0., 4.5553093477052, 9.1106186954104, 13.6659280431156, 18.2212373908208), (0., 1.), .UNSPECIFIED.)
   GEOMETRIC_REPRESENTATION_ITEM ()
   RATIONAL_B_SPLINE_SURFACE (((1., 1.), (0.707106781186548, 0.707106781186548), (1., 1.), (0.707106781186548, 0.707106781186548), (1., 1.), (0.707106781186548, 0.707106781186548), (1., 1.), (0.707106781186548, 0.707106781186548), (1., 1.)))
   REPRESENTATION_ITEM ('')
   SURFACE ()
);
#52 = CARTESIAN_POINT('', (-2.9, 2.3819380243416E-15, -36.));
#53 = CARTESIAN_POINT('', (-2.9, 4.10278371251059E-15, -90.));
#54 = CARTESIAN_POINT('', (-2.9, 2.9, -36.));
#55 = CARTESIAN_POINT('', (-2.9, 2.9, -90.));
#56 = CARTESIAN_POINT('', (-1.27104113247595E-16, 2.9, -36.));
#57 = CARTESIAN_POINT('', (-1.27104113247595E-16, 2.9, -90.));
#58 = CARTESIAN_POINT('', (2.9, 2.9, -36.));
#59 = CARTESIAN_POINT('', (2.9, 2.9, -90.));
#60 = CARTESIAN_POINT('', (2.9, 1.19285631882409E-15, -36.));
#61 = CARTESIAN_POINT('', (2.9, 2.91370200699308E-15, -90.));
#62 = CARTESIAN_POINT('', (2.9, -2.9, -36.));
#63 = CARTESIAN_POINT('', (2.9, -2.9, -90.));
#64 = CARTESIAN_POINT('', (-9.61038247012376E-16, -2.9, -36.));
#65 = CARTESIAN_POINT('', (-9.61038247012375E-16, -2.9, -90.));
#66 = CARTESIAN_POINT('', (-2.9, -2.9, -36.));
#67 = CARTESIAN_POINT('', (-2.9, -2.9, -90.));
#68 = CARTESIAN_POINT('', (-2.9, 2.3819380243416E-15, -36.));
#69 = CARTESIAN_POINT('', (-2.9, 4.10278371251059E-15, -90.));
#70 = ADVANCED_FACE('', (#71), #90, .T.);
#71 = FACE_OUTER_BOUND('', #72, .T.);
#72 = EDGE_LOOP('', (#73, #81, #88, #89));
#73 = ORIENTED_EDGE('', *, *, #74, .T.);
#74 = EDGE_CURVE('', #36, #75, #77, .T.);
#75 = VERTEX_POINT('', #76);
#76 = CARTESIAN_POINT('', (-2.9, 1.95331164464003E-16, -0.289999999999999));
#77 = LINE('', #78, #79);
#78 = CARTESIAN_POINT('', (-2.9, 2.3819380243416E-15, -36.));
#79 = VECTOR('', #80, 35.71);
#80 = DIRECTION('', (0., -2.1866068598776E-15, 35.71));
#81 = ORIENTED_EDGE('', *, *, #82, .T.);
#82 = EDGE_CURVE('', #75, #75, #83, .T.);
#83 = CIRCLE('', #84, 2.9);
#84 = AXIS2_PLACEMENT_3D('', #85, #86, #87);
#85 = CARTESIAN_POINT('', (-8.60422844084496E-16, 8.32667268468867E-16, -0.289999999999999));
#86 = DIRECTION('', (-1.43180317845964E-32, 6.51497567992987E-17, -1.));
#87 = DIRECTION('', (-1., -2.19771070346505E-16, 0.));
#88 = ORIENTED_EDGE('', *, *, #74, .F.);
#89 = ORIENTED_EDGE('', *, *, #43, .F.);
#90 = (
   BOUNDED_SURFACE ()
   B_SPLINE_SURFACE (1, 2, ((#91, #92, #93, #94, #95, #96, #97, #98, #99), (#100, #101, #102, #103, #104, #105, #106, #107, #108)), .UNSPECIFIED., .F., .T., .U.)
   B_SPLINE_SURFACE_WITH_KNOTS ((2, 2), (3, 2, 2, 2, 3), (0., 1.), (0., 4.5553093477052, 9.11061869541041, 13.6659280431156, 18.2212373908208), .UNSPECIFIED.)
   GEOMETRIC_REPRESENTATION_ITEM ()
   RATIONAL_B_SPLINE_SURFACE (((1., 0.707106781186548, 1., 0.707106781186548, 1., 0.707106781186548, 1., 0.707106781186548, 1.), (1., 0.707106781186548, 1., 0.707106781186548, 1., 0.707106781186548, 1., 0.707106781186548, 1.)))
   REPRESENTATION_ITEM ('')
   SURFACE ()
);
#91 = CARTESIAN_POINT('', (-2.9, 9.72487281701612E-16, -36.));
#92 = CARTESIAN_POINT('', (-2.9, 2.9, -36.));
#93 = CARTESIAN_POINT('', (-1.67533273396573E-15, 2.9, -36.));
#94 = CARTESIAN_POINT('', (2.9, 2.9, -36.));
#95 = CARTESIAN_POINT('', (2.9, 2.60230706146407E-15, -36.));
#96 = CARTESIAN_POINT('', (2.9, -2.9, -36.));
#97 = CARTESIAN_POINT('', (3.09634617549467E-16, -2.9, -36.));
#98 = CARTESIAN_POINT('', (-2.9, -2.9, -36.));
#99 = CARTESIAN_POINT('', (-2.9, 9.72487281701612E-16, -36.));
#100 = CARTESIAN_POINT('', (-2.9, 1.95331164464003E-16, -0.289999999999999));
#101 = CARTESIAN_POINT('', (-2.9, 2.9, -0.289999999999999));
#102 = CARTESIAN_POINT('', (-1.67533273396573E-15, 2.9, -0.289999999999999));
#103 = CARTESIAN_POINT('', (2.9, 2.9, -0.289999999999999));
#104 = CARTESIAN_POINT('', (2.9, 1.82515094422646E-15, -0.289999999999999));
#105 = CARTESIAN_POINT('', (2.9, -2.9, -0.289999999999999));
#106 = CARTESIAN_POINT('', (3.09634617549467E-16, -2.9, -0.289999999999999));
#107 = CARTESIAN_POINT('', (-2.9, -2.9, -0.289999999999999));
#108 = CARTESIAN_POINT('', (-2.9, 1.95331164464003E-16, -0.289999999999999));
#109 = ADVANCED_FACE('', (#110), #129, .T.);
#110 = FACE_OUTER_BOUND('', #111, .T.);
#111 = EDGE_LOOP('', (#112, #120, #127, #128));
#112 = ORIENTED_EDGE('', *, *, #113, .T.);
#113 = EDGE_CURVE('', #75, #114, #116, .T.);
#114 = VERTEX_POINT('', #115);
#115 = CARTESIAN_POINT('', (-2.61, 1.5981640728873E-16, 0.));
#116 = LINE('', #117, #118);
#117 = CARTESIAN_POINT('', (-2.9, 1.95331164464003E-16, -0.289999999999999));
#118 = VECTOR('', #119, 0.410121933088197);
#119 = DIRECTION('', (0.29, -3.5514757175274E-17, 0.289999999999999));
#120 = ORIENTED_EDGE('', *, *, #121, .T.);
#121 = EDGE_CURVE('', #114, #114, #122, .T.);
#122 = CIRCLE('', #123, 2.61);
#123 = AXIS2_PLACEMENT_3D('', #124, #125, #126);
#124 = CARTESIAN_POINT('', (3.53883589099269E-16, -1.77635683940025E-15, -1.10933564796705E-31));
#125 = DIRECTION('', (2.92063358655762E-33, 6.12323399573678E-17, -1.));
#126 = DIRECTION('', (-1., 7.41828830149034E-16, 4.25032815313045E-32));
#127 = ORIENTED_EDGE('', *, *, #113, .F.);
#128 = ORIENTED_EDGE('', *, *, #82, .F.);
#129 = (
   BOUNDED_SURFACE ()
   B_SPLINE_SURFACE (1, 2, ((#130, #131, #132, #133, #134, #135, #136, #137, #138), (#139, #140, #141, #142, #143, #144, #145, #146, #147)), .UNSPECIFIED., .F., .T., .U.)
   B_SPLINE_SURFACE_WITH_KNOTS ((2, 2), (3, 2, 2, 2, 3), (0., 1.), (0., 0.25, 0.5, 0.75, 1.), .UNSPECIFIED.)
   GEOMETRIC_REPRESENTATION_ITEM ()
   RATIONAL_B_SPLINE_SURFACE (((1., 0.707106781186548, 1., 0.707106781186548, 1., 0.707106781186548, 1., 0.707106781186548, 1.), (1., 0.707106781186548, 1., 0.707106781186548, 1., 0.707106781186548, 1., 0.707106781186548, 1.)))
   REPRESENTATION_ITEM ('')
   SURFACE ()
);
#130 = CARTESIAN_POINT('', (-2.9, 2.70641511974478E-15, -0.289999999999999));
#131 = CARTESIAN_POINT('', (-2.9, 2.9, -0.289999999999976));
#132 = CARTESIAN_POINT('', (2.3276134106551E-15, 2.9, -0.289999999999976));
#133 = CARTESIAN_POINT('', (2.9, 2.9, -0.289999999999976));
#134 = CARTESIAN_POINT('', (2.9, -1.24104452336689E-15, -0.289999999999999));
#135 = CARTESIAN_POINT('', (2.9, -2.9, -0.290000000000022));
#136 = CARTESIAN_POINT('', (-1.26469866070383E-15, -2.9, -0.290000000000022));
#137 = CARTESIAN_POINT('', (-2.9, -2.9, -0.290000000000022));
#138 = CARTESIAN_POINT('', (-2.9, 2.70641511974478E-15, -0.289999999999999));
#139 = CARTESIAN_POINT('', (-2.61, 1.59816407288729E-16, -2.18952885050753E-47));
#140 = CARTESIAN_POINT('', (-2.61, 2.61, 2.09832151654155E-14));
#141 = CARTESIAN_POINT('', (2.13024042849952E-15, 2.61, 2.09832151654155E-14));
#142 = CARTESIAN_POINT('', (2.61, 2.61, 2.09832151654155E-14));
#143 = CARTESIAN_POINT('', (2.61, -3.39289727151177E-15, 2.34783559922122E-30));
#144 = CARTESIAN_POINT('', (2.61, -2.61, -2.09832151654155E-14));
#145 = CARTESIAN_POINT('', (-1.10284043572352E-15, -2.61, -2.09832151654155E-14));
#146 = CARTESIAN_POINT('', (-2.61, -2.61, -2.09832151654155E-14));
#147 = CARTESIAN_POINT('', (-2.61, 1.59816407288729E-16, -2.18952885050753E-47));
#148 = ADVANCED_FACE('', (#149), #152, .T.);
#149 = FACE_OUTER_BOUND('', #150, .T.);
#150 = EDGE_LOOP('', (#151));
#151 = ORIENTED_EDGE('', *, *, #121, .F.);
#152 = B_SPLINE_SURFACE_WITH_KNOTS('', 1, 1, ((#153, #154), (#155, #156)), .UNSPECIFIED., .F., .F., .U., (2, 2), (2, 2), (0.0454545454545454, 0.954545454545454), (0.0454545454545454, 0.954545454545454), .UNSPECIFIED.);
#153 = CARTESIAN_POINT('', (2.61, -2.61, -1.5981640728873E-16));
#154 = CARTESIAN_POINT('', (-2.61, -2.61, -1.5981640728873E-16));
#155 = CARTESIAN_POINT('', (2.61, 2.61, 1.5981640728873E-16));
#156 = CARTESIAN_POINT('', (-2.61, 2.61, 1.5981640728873E-16));
#157 = ADVANCED_FACE('', (#158), #177, .T.);
#158 = FACE_OUTER_BOUND('', #159, .T.);
#159 = EDGE_LOOP('', (#160, #169, #175, #176));
#160 = ORIENTED_EDGE('', *, *, #161, .F.);
#161 = EDGE_CURVE('', #162, #162, #164, .T.);
#162 = VERTEX_POINT('', #163);
#163 = CARTESIAN_POINT('', (-3., 5.75583995599256E-15, -91.));
#164 = CIRCLE('', #165, 3.);
#165 = AXIS2_PLACEMENT_3D('', #166, #167, #168);
#166 = CARTESIAN_POINT('', (1.13797860024079E-15, 3.77475828372553E-15, -91.));
#167 = DIRECTION('', (0., 0., -1.));
#168 = DIRECTION('', (-1., 6.60360557422342E-16, 0.));
#169 = ORIENTED_EDGE('', *, *, #170, .F.);
#170 = EDGE_CURVE('', #8, #162, #171, .T.);
#171 = LINE('', #172, #173);
#172 = CARTESIAN_POINT('', (-3., 5.69460761603519E-15, -90.));
#173 = VECTOR('', #174, 1.);
#174 = DIRECTION('', (0., 6.12323399573699E-17, -1.));
#175 = ORIENTED_EDGE('', *, *, #7, .T.);
#176 = ORIENTED_EDGE('', *, *, #170, .T.);
#177 = (
   BOUNDED_SURFACE ()
   B_SPLINE_SURFACE (2, 1, ((#178, #179), (#180, #181), (#182, #183), (#184, #185), (#186, #187), (#188, #189), (#190, #191), (#192, #193), (#194, #195)), .UNSPECIFIED., .T., .F., .U.)
   B_SPLINE_SURFACE_WITH_KNOTS ((3, 2, 2, 2, 3), (2, 2), (0., 4.7123889803847, 9.4247779607694, 14.1371669411541, 18.8495559215388), (0., 0.111111111111111), .UNSPECIFIED.)
   GEOMETRIC_REPRESENTATION_ITEM ()
   RATIONAL_B_SPLINE_SURFACE (((1., 1.), (0.707106781186548, 0.707106781186548), (1., 1.), (0.707106781186548, 0.707106781186548), (1., 1.), (0.707106781186548, 0.707106781186548), (1., 1.), (0.707106781186548, 0.707106781186548), (1., 1.)))
   REPRESENTATION_ITEM ('')
   SURFACE ()
);
#178 = CARTESIAN_POINT('', (-3., 5.69460761603519E-15, -90.));
#179 = CARTESIAN_POINT('', (-3., 3.47416156678488E-15, -91.));
#180 = CARTESIAN_POINT('', (-3., 3.00000000000001, -90.));
#181 = CARTESIAN_POINT('', (-3., 3., -91.));
#182 = CARTESIAN_POINT('', (-1.59451676143792E-15, 3.00000000000001, -90.));
#183 = CARTESIAN_POINT('', (-1.59451676143791E-15, 3.00000000000001, -91.));
#184 = CARTESIAN_POINT('', (3., 3.00000000000001, -90.));
#185 = CARTESIAN_POINT('', (3., 3.00000000000001, -91.));
#186 = CARTESIAN_POINT('', (3., 9.88284186107366E-15, -90.));
#187 = CARTESIAN_POINT('', (3., 7.66239581182335E-15, -91.));
#188 = CARTESIAN_POINT('', (3., -2.99999999999999, -90.));
#189 = CARTESIAN_POINT('', (3., -2.99999999999999, -91.));
#190 = CARTESIAN_POINT('', (2.96111152334476E-15, -2.99999999999999, -90.));
#191 = CARTESIAN_POINT('', (2.96111152334476E-15, -3., -91.));
#192 = CARTESIAN_POINT('', (-3., -3., -90.));
#193 = CARTESIAN_POINT('', (-3., -3., -91.));
#194 = CARTESIAN_POINT('', (-3., 5.69460761603519E-15, -90.));
#195 = CARTESIAN_POINT('', (-3., 3.47416156678488E-15, -91.));
#196 = ADVANCED_FACE('', (#197), #200, .T.);
#197 = FACE_OUTER_BOUND('', #198, .T.);
#198 = EDGE_LOOP('', (#199));
#199 = ORIENTED_EDGE('', *, *, #161, .T.);
#200 = B_SPLINE_SURFACE_WITH_KNOTS('', 1, 1, ((#201, #202), (#203, #204)), .UNSPECIFIED., .F., .F., .U., (2, 2), (2, 2), (0.497309675625021, 0.52720225401811), (0.47279774598189, 0.502690324374978), .UNSPECIFIED.);
#201 = CARTESIAN_POINT('', (-3.00000000000004, 3.00000000000003, -91.));
#202 = CARTESIAN_POINT('', (-3.00000000000004, -2.99999999999999, -91.));
#203 = CARTESIAN_POINT('', (2.99999999999999, 3.00000000000003, -91.));
#204 = CARTESIAN_POINT('', (2.99999999999999, -2.99999999999999, -91.));
#205 = DRAUGHTING_MODEL('', (#213, #337, #385, #390, #395, #400, #405, #410), #424);
#206 = PRESENTATION_STYLE_ASSIGNMENT((#207));
#207 = SURFACE_STYLE_USAGE(.POSITIVE., #208);
#208 = SURFACE_SIDE_STYLE('', (#209));
#209 = SURFACE_STYLE_FILL_AREA(#210);
#210 = FILL_AREA_STYLE('', (#211));
#211 = FILL_AREA_STYLE_COLOUR('', #212);
#212 = COLOUR_RGB('', 0.50196078431373, 0.50196078431373, 0.50196078431373);
#213 = STYLED_ITEM('', (#206), #1);
#214 = MANIFOLD_SOLID_BREP('CUT', #215);
#215 = CLOSED_SHELL('', (#216, #233, #272, #321));
#216 = ADVANCED_FACE('', (#217), #228, .T.);
#217 = FACE_OUTER_BOUND('', #218, .T.);
#218 = EDGE_LOOP('', (#219));
#219 = ORIENTED_EDGE('', *, *, #220, .F.);
#220 = EDGE_CURVE('', #221, #221, #223, .T.);
#221 = VERTEX_POINT('', #222);
#222 = CARTESIAN_POINT('', (-3., 5.75583995599256E-15, -91.));
#223 = CIRCLE('', #224, 3.);
#224 = AXIS2_PLACEMENT_3D('', #225, #226, #227);
#225 = CARTESIAN_POINT('', (1.13797860024079E-15, 3.77475828372553E-15, -91.));
#226 = DIRECTION('', (0., 0., -1.));
#227 = DIRECTION('', (-1., 6.60360557422342E-16, 0.));
#228 = B_SPLINE_SURFACE_WITH_KNOTS('', 1, 1, ((#229, #230), (#231, #232)), .UNSPECIFIED., .F., .F., .U., (2, 2), (2, 2), (0.47279774598189, 0.502690324374979), (0.497309675625021, 0.52720225401811), .UNSPECIFIED.);
#229 = CARTESIAN_POINT('', (-3.00000000000001, 3.00000000000001, -91.));
#230 = CARTESIAN_POINT('', (3., 3.00000000000001, -91.));
#231 = CARTESIAN_POINT('', (-3.00000000000001, -2.99999999999999, -91.));
#232 = CARTESIAN_POINT('', (3., -2.99999999999999, -91.));
#233 = ADVANCED_FACE('', (#234), #253, .T.);
#234 = FACE_OUTER_BOUND('', #235, .T.);
#235 = EDGE_LOOP('', (#236, #237, #245, #252));
#236 = ORIENTED_EDGE('', *, *, #220, .T.);
#237 = ORIENTED_EDGE('', *, *, #238, .T.);
#238 = EDGE_CURVE('', #221, #239, #241, .T.);
#239 = VERTEX_POINT('', #240);
#240 = CARTESIAN_POINT('', (-3., 6.2456986756515E-15, -99.));
#241 = LINE('', #242, #243);
#242 = CARTESIAN_POINT('', (-3., 5.75583995599256E-15, -91.));
#243 = VECTOR('', #244, 8.);
#244 = DIRECTION('', (0., 4.8985871965894E-16, -8.));
#245 = ORIENTED_EDGE('', *, *, #246, .F.);
#246 = EDGE_CURVE('', #239, #239, #247, .T.);
#247 = CIRCLE('', #248, 3.);
#248 = AXIS2_PLACEMENT_3D('', #249, #250, #251);
#249 = CARTESIAN_POINT('', (9.29811783123569E-16, 8.10462807976364E-15, -99.));
#250 = DIRECTION('', (-4.73695157173401E-15, 1.5410803050671E-14, -1.));
#251 = DIRECTION('', (-1., -6.19643134704047E-16, 4.736951571734E-15));
#252 = ORIENTED_EDGE('', *, *, #238, .F.);
#253 = (
   BOUNDED_SURFACE ()
   B_SPLINE_SURFACE (2, 1, ((#254, #255), (#256, #257), (#258, #259), (#260, #261), (#262, #263), (#264, #265), (#266, #267), (#268, #269), (#270, #271)), .UNSPECIFIED., .T., .F., .U.)
   B_SPLINE_SURFACE_WITH_KNOTS ((3, 2, 2, 2, 3), (2, 2), (0., 4.7123889803847, 9.4247779607694, 14.1371669411541, 18.8495559215388), (0.111111111111111, 1.), .UNSPECIFIED.)
   GEOMETRIC_REPRESENTATION_ITEM ()
   RATIONAL_B_SPLINE_SURFACE (((1., 1.), (0.707106781186548, 0.707106781186548), (1., 1.), (0.707106781186548, 0.707106781186548), (1., 1.), (0.707106781186548, 0.707106781186548), (1., 1.), (0.707106781186548, 0.707106781186548), (1., 1.)))
   REPRESENTATION_ITEM ('')
   SURFACE ()
);
#254 = CARTESIAN_POINT('', (-3., 5.75583995599256E-15, -91.));
#255 = CARTESIAN_POINT('', (-3., 8.47588636632419E-15, -99.));
#256 = CARTESIAN_POINT('', (-3., 3.00000000000001, -91.));
#257 = CARTESIAN_POINT('', (-3., 3.00000000000001, -99.));
#258 = CARTESIAN_POINT('', (1.32553986692923E-15, 3.00000000000001, -91.));
#259 = CARTESIAN_POINT('', (1.32553986692923E-15, 3.00000000000001, -99.));
#260 = CARTESIAN_POINT('', (3., 3.00000000000001, -91.));
#261 = CARTESIAN_POINT('', (3., 3.00000000000001, -99.));
#262 = CARTESIAN_POINT('', (3., 5.38071742261566E-15, -91.));
#263 = CARTESIAN_POINT('', (3., 8.1007638329473E-15, -99.));
#264 = CARTESIAN_POINT('', (3., -3., -91.));
#265 = CARTESIAN_POINT('', (3., -2.99999999999999, -99.));
#266 = CARTESIAN_POINT('', (1.31781137329654E-15, -3., -91.));
#267 = CARTESIAN_POINT('', (1.31781137329654E-15, -2.99999999999999, -99.));
#268 = CARTESIAN_POINT('', (-3., -3., -91.));
#269 = CARTESIAN_POINT('', (-3., -2.99999999999999, -99.));
#270 = CARTESIAN_POINT('', (-3., 5.75583995599256E-15, -91.));
#271 = CARTESIAN_POINT('', (-3., 8.47588636632419E-15, -99.));
#272 = ADVANCED_FACE('', (#273), #293, .T.);
#273 = FACE_OUTER_BOUND('', #274, .T.);
#274 = EDGE_LOOP('', (#275, #284, #285, #286));
#275 = ORIENTED_EDGE('', *, *, #276, .F.);
#276 = EDGE_CURVE('', #239, #277, #279, .T.);
#277 = VERTEX_POINT('', #278);
#278 = CARTESIAN_POINT('', (-2., 6.2456986756515E-15, -100.));
#279 = CIRCLE('', #280, 0.999999999999952);
#280 = AXIS2_PLACEMENT_3D('', #281, #282, #283);
#281 = CARTESIAN_POINT('', (-2.00000000000005, 6.18446633569413E-15, -99.));
#282 = DIRECTION('', (-6.12323399573697E-17, -1., -6.12323399573707E-17));
#283 = DIRECTION('', (-1., 6.1232339957368E-17, 2.84217094304053E-14));
#284 = ORIENTED_EDGE('', *, *, #246, .T.);
#285 = ORIENTED_EDGE('', *, *, #276, .T.);
#286 = ORIENTED_EDGE('', *, *, #287, .F.);
#287 = EDGE_CURVE('', #277, #277, #288, .T.);
#288 = CIRCLE('', #289, 2.);
#289 = AXIS2_PLACEMENT_3D('', #290, #291, #292);
#290 = CARTESIAN_POINT('', (3.19189119579733E-16, 7.16093850883226E-15, -100.));
#291 = DIRECTION('', (0., 0., -1.));
#292 = DIRECTION('', (-1., -4.5761991659038E-16, 0.));
#293 = (
   BOUNDED_SURFACE ()
   B_SPLINE_SURFACE (2, 2, ((#294, #295, #296), (#297, #298, #299), (#300, #301, #302), (#303, #304, #305), (#306, #307, #308), (#309, #310, #311), (#312, #313, #314), (#315, #316, #317), (#318, #319, #320)), .UNSPECIFIED., .T., .F., .U.)
   B_SPLINE_SURFACE_WITH_KNOTS ((3, 2, 2, 2, 3), (3, 3), (0., 0.25, 0.5, 0.75, 1.), (0., 1.), .UNSPECIFIED.)
   GEOMETRIC_REPRESENTATION_ITEM ()
   RATIONAL_B_SPLINE_SURFACE (((1., 0.707106781186548, 1.), (0.707106781186548, 0.5, 0.707106781186548), (1., 0.707106781186548, 1.), (0.707106781186548, 0.5, 0.707106781186548), (1., 0.707106781186548, 1.), (0.707106781186548, 0.5, 0.707106781186548), (1., 0.707106781186548, 1.), (0.707106781186548, 0.5, 0.707106781186548), (1., 0.707106781186548, 1.)))
   REPRESENTATION_ITEM ('')
   SURFACE ()
);
#294 = CARTESIAN_POINT('', (-3., 6.2456986756515E-15, -99.));
#295 = CARTESIAN_POINT('', (-3., 6.30693101560887E-15, -100.));
#296 = CARTESIAN_POINT('', (-2., 6.2456986756515E-15, -100.));
#297 = CARTESIAN_POINT('', (-3., 3.00000000000001, -99.));
#298 = CARTESIAN_POINT('', (-3., 3.00000000000001, -100.));
#299 = CARTESIAN_POINT('', (-2., 2.00000000000001, -100.));
#300 = CARTESIAN_POINT('', (-2.18140430206239E-15, 3.00000000000001, -99.));
#301 = CARTESIAN_POINT('', (-2.12017196210502E-15, 3.00000000000001, -100.));
#302 = CARTESIAN_POINT('', (-2.12017196210502E-15, 2.00000000000001, -100.));
#303 = CARTESIAN_POINT('', (3., 3.00000000000001, -99.));
#304 = CARTESIAN_POINT('', (3., 3.00000000000001, -100.));
#305 = CARTESIAN_POINT('', (2., 2.00000000000001, -100.));
#306 = CARTESIAN_POINT('', (3., 1.08860630359326E-14, -99.));
#307 = CARTESIAN_POINT('', (3., 1.08248306959752E-14, -100.));
#308 = CARTESIAN_POINT('', (2., 1.07635983560178E-14, -100.));
#309 = CARTESIAN_POINT('', (3., -2.99999999999999, -99.));
#310 = CARTESIAN_POINT('', (3., -2.99999999999999, -100.));
#311 = CARTESIAN_POINT('', (2., -1.99999999999999, -100.));
#312 = CARTESIAN_POINT('', (2.82635409796289E-15, -2.99999999999999, -99.));
#313 = CARTESIAN_POINT('', (2.76512175800552E-15, -2.99999999999999, -100.));
#314 = CARTESIAN_POINT('', (2.64265707809078E-15, -1.99999999999999, -100.));
#315 = CARTESIAN_POINT('', (-3., -2.99999999999999, -99.));
#316 = CARTESIAN_POINT('', (-3., -2.99999999999999, -100.));
#317 = CARTESIAN_POINT('', (-2., -1.99999999999999, -100.));
#318 = CARTESIAN_POINT('', (-3., 6.2456986756515E-15, -99.));
#319 = CARTESIAN_POINT('', (-3., 6.30693101560887E-15, -100.));
#320 = CARTESIAN_POINT('', (-2., 6.2456986756515E-15, -100.));
#321 = ADVANCED_FACE('', (#322), #325, .T.);
#322 = FACE_OUTER_BOUND('', #323, .T.);
#323 = EDGE_LOOP('', (#324));
#324 = ORIENTED_EDGE('', *, *, #287, .T.);
#325 = B_SPLINE_SURFACE_WITH_KNOTS('', 1, 1, ((#326, #327), (#328, #329)), .UNSPECIFIED., .F., .F., .U., (2, 2), (2, 2), (0.0454545454545454, 0.954545454545454), (0.0454545454545454, 0.954545454545454), .UNSPECIFIED.);
#326 = CARTESIAN_POINT('', (2., -1.99999999999999, -100.));
#327 = CARTESIAN_POINT('', (2., 2.00000000000001, -100.));
#328 = CARTESIAN_POINT('', (-2., -1.99999999999999, -100.));
#329 = CARTESIAN_POINT('', (-2., 2.00000000000001, -100.));
#330 = PRESENTATION_STYLE_ASSIGNMENT((#331));
#331 = SURFACE_STYLE_USAGE(.POSITIVE., #332);
#332 = SURFACE_SIDE_STYLE('', (#333));
#333 = SURFACE_STYLE_FILL_AREA(#334);
#334 = FILL_AREA_STYLE('', (#335));
#335 = FILL_AREA_STYLE_COLOUR('', #336);
#336 = COLOUR_RGB('', 0.8, 0.8, 0.8);
#337 = STYLED_ITEM('', (#330), #214);
#338 = TRIMMED_CURVE('cutting part line', #339, (#343), (#344), .T., .CARTESIAN.);
#339 = LINE('', #340, #341);
#340 = CARTESIAN_POINT('', (2.15105711021124E-16, 0., -100.));
#341 = VECTOR('', #342, 2.);
#342 = DIRECTION('', (2., 0., 0.));
#343 = CARTESIAN_POINT('', (2.15105711021124E-16, 0., -100.));
#344 = CARTESIAN_POINT('', (2., 0., -100.));
#345 = TRIMMED_CURVE('cutting part line', #346, (#351), (#352), .T., .CARTESIAN.);
#346 = CIRCLE('', #347, 1.);
#347 = AXIS2_PLACEMENT_3D('', #348, #349, #350);
#348 = CARTESIAN_POINT('', (2., 9.44497996395223E-15, -99.));
#349 = DIRECTION('', (-6.31439345255555E-16, -1., 6.24500451351629E-17));
#350 = DIRECTION('', (3.33066907387547E-15, -6.24500451351651E-17, -1.));
#351 = CARTESIAN_POINT('', (2., 9.38252991881707E-15, -100.));
#352 = CARTESIAN_POINT('', (3., 8.81354061869667E-15, -99.));
#353 = TRIMMED_CURVE('cutting part line', #354, (#358), (#359), .T., .CARTESIAN.);
#354 = LINE('', #355, #356);
#355 = CARTESIAN_POINT('', (3., 2.7196321340885E-15, -99.));
#356 = VECTOR('', #357, 8.00000000000001);
#357 = DIRECTION('', (0., -2.7196321340885E-15, 8.00000000000001));
#358 = CARTESIAN_POINT('', (3., 2.7196321340885E-15, -99.));
#359 = CARTESIAN_POINT('', (3., 0., -91.));
#360 = TRIMMED_CURVE('cutting part line', #361, (#365), (#366), .T., .CARTESIAN.);
#361 = LINE('', #362, #363);
#362 = CARTESIAN_POINT('', (3., 0., -91.));
#363 = VECTOR('', #364, 3.);
#364 = DIRECTION('', (-3., 0., 0.));
#365 = CARTESIAN_POINT('', (3., 0., -91.));
#366 = CARTESIAN_POINT('', (0., 0., -91.));
#367 = TRIMMED_CURVE('cutting part line', #368, (#372), (#373), .T., .CARTESIAN.);
#368 = LINE('', #369, #370);
#369 = CARTESIAN_POINT('', (0., 0., -91.));
#370 = VECTOR('', #371, 9.00000000000003);
#371 = DIRECTION('', (0., 0., -9.00000000000003));
#372 = CARTESIAN_POINT('', (0., 0., -91.));
#373 = CARTESIAN_POINT('', (0., 0., -100.));
#374 = COMPOSITE_CURVE('cutting part line', (#375, #376, #377, #378, #379), .U.);
#375 = COMPOSITE_CURVE_SEGMENT(.CONTINUOUS., .T., #338);
#376 = COMPOSITE_CURVE_SEGMENT(.CONTINUOUS., .T., #345);
#377 = COMPOSITE_CURVE_SEGMENT(.CONTINUOUS., .T., #353);
#378 = COMPOSITE_CURVE_SEGMENT(.CONTINUOUS., .T., #360);
#379 = COMPOSITE_CURVE_SEGMENT(.CONTINUOUS., .T., #367);
#380 = GEOMETRIC_SET('', (#374, #423));
#381 = PRESENTATION_STYLE_ASSIGNMENT((#382));
#382 = CURVE_STYLE('', #384, POSITIVE_LENGTH_MEASURE(1.E-6), #383);
#383 = COLOUR_RGB('', 0., 0., 1.);
#384 = DRAUGHTING_PRE_DEFINED_CURVE_FONT('continuous');
#385 = STYLED_ITEM('', (#381), #374);
#386 = PRESENTATION_STYLE_ASSIGNMENT((#387));
#387 = CURVE_STYLE('', #389, POSITIVE_LENGTH_MEASURE(1.E-6), #388);
#388 = COLOUR_RGB('', 0., 0., 1.);
#389 = DRAUGHTING_PRE_DEFINED_CURVE_FONT('continuous');
#390 = OVER_RIDING_STYLED_ITEM('', (#386), #338, #385);
#391 = PRESENTATION_STYLE_ASSIGNMENT((#392));
#392 = CURVE_STYLE('', #394, POSITIVE_LENGTH_MEASURE(1.E-6), #393);
#393 = COLOUR_RGB('', 0., 0., 1.);
#394 = DRAUGHTING_PRE_DEFINED_CURVE_FONT('continuous');
#395 = OVER_RIDING_STYLED_ITEM('', (#391), #345, #385);
#396 = PRESENTATION_STYLE_ASSIGNMENT((#397));
#397 = CURVE_STYLE('', #399, POSITIVE_LENGTH_MEASURE(1.E-6), #398);
#398 = COLOUR_RGB('', 0., 0., 1.);
#399 = DRAUGHTING_PRE_DEFINED_CURVE_FONT('continuous');
#400 = OVER_RIDING_STYLED_ITEM('', (#396), #353, #385);
#401 = PRESENTATION_STYLE_ASSIGNMENT((#402));
#402 = CURVE_STYLE('', #404, POSITIVE_LENGTH_MEASURE(1.E-6), #403);
#403 = COLOUR_RGB('', 0., 0., 1.);
#404 = DRAUGHTING_PRE_DEFINED_CURVE_FONT('continuous');
#405 = OVER_RIDING_STYLED_ITEM('', (#401), #360, #385);
#406 = PRESENTATION_STYLE_ASSIGNMENT((#407));
#407 = CURVE_STYLE('', #409, POSITIVE_LENGTH_MEASURE(1.E-6), #408);
#408 = COLOUR_RGB('', 0., 0., 1.);
#409 = DRAUGHTING_PRE_DEFINED_CURVE_FONT('continuous');
#410 = OVER_RIDING_STYLED_ITEM('', (#406), #367, #385);
#411 = AXIS2_PLACEMENT_3D('MCS', #412, #413, #414);
#412 = CARTESIAN_POINT('', (0., 0., -36.));
#413 = DIRECTION('', (0., 0., 1.));
#414 = DIRECTION('', (1., 0., 0.));
#415 = AXIS2_PLACEMENT_3D('PCS', #416, #417, #418);
#416 = CARTESIAN_POINT('', (0., 0., 0.));
#417 = DIRECTION('', (0., 0., 1.));
#418 = DIRECTION('', (1., 0., 0.));
#419 = AXIS2_PLACEMENT_3D('CIP', #420, #421, #422);
#420 = CARTESIAN_POINT('', (0., 0., -100.));
#421 = DIRECTION('', (0., 0., 1.));
#422 = DIRECTION('', (1., 0., 0.));
#423 = CARTESIAN_POINT('CRP', (3., 0., -100.));
#424 = (
   GEOMETRIC_REPRESENTATION_CONTEXT (3)
   GLOBAL_UNCERTAINTY_ASSIGNED_CONTEXT ((#426))
   GLOBAL_UNIT_ASSIGNED_CONTEXT ((#425, #427, #428))
   REPRESENTATION_CONTEXT ('', '3D')
);
#425 = (
   LENGTH_UNIT ()
   NAMED_UNIT (*)
   SI_UNIT (.MILLI., .METRE.)
);
#426 = UNCERTAINTY_MEASURE_WITH_UNIT(LENGTH_MEASURE(1.E-6), #425, 'DISTANCE_ACCURACY_VALUE', '');
#427 = (
   NAMED_UNIT (*)
   SI_UNIT ($, .STERADIAN.)
   SOLID_ANGLE_UNIT ()
);
#428 = (
   NAMED_UNIT (*)
   PLANE_ANGLE_UNIT ()
   SI_UNIT ($, .RADIAN.)
);
#429 = SHAPE_REPRESENTATION('', (), #424);
#430 = PRODUCT_DEFINITION_SHAPE('', '', #431);
#431 = PRODUCT_DEFINITION('', '', #434, #438);
#432 = APPLICATION_CONTEXT('configuration controlled 3D designs of mechanical parts and assemblies');
#433 = APPLICATION_PROTOCOL_DEFINITION('International Standard', 'automotive_design', 2002, #432);
#434 = PRODUCT_DEFINITION_FORMATION_WITH_SPECIFIED_SOURCE('', '', #435, .NOT_KNOWN.);
#435 = PRODUCT('product-name', '2S221-0600-100-NG   H10F', '', (#436));
#436 = PRODUCT_CONTEXT('', #432, 'mechanical');
#437 = PRODUCT_RELATED_PRODUCT_CATEGORY('detail', '', (#435));
#438 = PRODUCT_DEFINITION_CONTEXT('part definition', #432, 'design');
#439 = SHAPE_DEFINITION_REPRESENTATION(#430, #429);
#440 = CONSTRUCTIVE_GEOMETRY_REPRESENTATION('supplemental geometry', (#411, #415, #419), #424);
#441 = CONSTRUCTIVE_GEOMETRY_REPRESENTATION_RELATIONSHIP('', '', #429, #440);
#442 = SHAPE_REPRESENTATION_RELATIONSHIP('', '', #429, #443);
#443 = SHAPE_REPRESENTATION('', (#380), #424);
#444 = SHAPE_REPRESENTATION_RELATIONSHIP('', '', #429, #445);
#445 = ADVANCED_BREP_SHAPE_REPRESENTATION('', (#1, #214), #424);
ENDSEC;
END-ISO-10303-21;
