ISO-10303-21;
HEADER;
FILE_DESCRIPTION(('STEP'), '1');
FILE_NAME('C:\\Users\\ds2002\\OneDrive - Sandvik\\HomeShare\\Documents\\Batchrepair\\CorSRT2\\NEW_MILSQ_SLD\\Output\\MOD000000000000000020082327800000.stp', '2019-01-02T12:08:57', (''), (''), 'Express v3.0.0.0', 'Express Tool', 'Unknown');
FILE_SCHEMA(('AUTOMOTIVE_DESIGN'));
ENDSEC;

DATA;
#1 = MANIFOLD_SOLID_BREP('NOCUT', #2);
#2 = CLOSED_SHELL('', (#3, #31, #70, #109, #148, #157, #196));
#3 = ADVANCED_FACE('', (#4, #15), #26, .T.);
#4 = FACE_OUTER_BOUND('', #5, .T.);
#5 = EDGE_LOOP('', (#6));
#6 = ORIENTED_EDGE('', *, *, #7, .F.);
#7 = EDGE_CURVE('', #8, #8, #10, .T.);
#8 = VERTEX_POINT('', #9);
#9 = CARTESIAN_POINT('', (-2., 3.42901103761259E-15, -54.));
#10 = CIRCLE('', #11, 2.);
#11 = AXIS2_PLACEMENT_3D('', #12, #13, #14);
#12 = CARTESIAN_POINT('', (1.31838984174237E-16, 1.83186799063151E-15, -54.));
#13 = DIRECTION('', (0., 0., -1.));
#14 = DIRECTION('', (-1., 7.98571523490541E-16, 0.));
#15 = FACE_BOUND('', #16, .T.);
#16 = EDGE_LOOP('', (#17));
#17 = ORIENTED_EDGE('', *, *, #18, .T.);
#18 = EDGE_CURVE('', #19, #19, #21, .T.);
#19 = VERTEX_POINT('', #20);
#20 = CARTESIAN_POINT('', (-1.9, 3.42288780361685E-15, -54.));
#21 = CIRCLE('', #22, 1.9);
#22 = AXIS2_PLACEMENT_3D('', #23, #24, #25);
#23 = CARTESIAN_POINT('', (3.19189119579733E-16, 1.33226762955019E-15, -54.));
#24 = DIRECTION('', (0., 0., -1.));
#25 = DIRECTION('', (-1., 1.10032640740351E-15, 0.));
#26 = B_SPLINE_SURFACE_WITH_KNOTS('', 1, 1, ((#27, #28), (#29, #30)), .UNSPECIFIED., .F., .F., .U., (2, 2), (2, 2), (0.0454545454545454, 0.954545454545454), (0.0454545454545455, 0.954545454545454), .UNSPECIFIED.);
#27 = CARTESIAN_POINT('', (2., -2., -54.));
#28 = CARTESIAN_POINT('', (-2., -2., -54.));
#29 = CARTESIAN_POINT('', (2., 2., -54.));
#30 = CARTESIAN_POINT('', (-2., 2., -54.));
#31 = ADVANCED_FACE('', (#32), #51, .T.);
#32 = FACE_OUTER_BOUND('', #33, .T.);
#33 = EDGE_LOOP('', (#34, #42, #49, #50));
#34 = ORIENTED_EDGE('', *, *, #35, .F.);
#35 = EDGE_CURVE('', #36, #19, #38, .T.);
#36 = VERTEX_POINT('', #37);
#37 = CARTESIAN_POINT('', (-1.9, 1.83084696472529E-15, -28.));
#38 = LINE('', #39, #40);
#39 = CARTESIAN_POINT('', (-1.9, 1.83084696472529E-15, -28.));
#40 = VECTOR('', #41, 26.);
#41 = DIRECTION('', (0., 1.59204083889156E-15, -26.));
#42 = ORIENTED_EDGE('', *, *, #43, .T.);
#43 = EDGE_CURVE('', #36, #36, #44, .T.);
#44 = CIRCLE('', #45, 1.9);
#45 = AXIS2_PLACEMENT_3D('', #46, #47, #48);
#46 = CARTESIAN_POINT('', (4.37150315946155E-16, 6.10622663543836E-16, -28.));
#47 = DIRECTION('', (1.86984930463184E-15, -6.08321173052787E-15, -1.));
#48 = DIRECTION('', (-1., 6.42223316411291E-16, -1.86984930463184E-15));
#49 = ORIENTED_EDGE('', *, *, #35, .T.);
#50 = ORIENTED_EDGE('', *, *, #18, .F.);
#51 = (
   BOUNDED_SURFACE ()
   B_SPLINE_SURFACE (2, 1, ((#52, #53), (#54, #55), (#56, #57), (#58, #59), (#60, #61), (#62, #63), (#64, #65), (#66, #67), (#68, #69)), .UNSPECIFIED., .T., .F., .U.)
   B_SPLINE_SURFACE_WITH_KNOTS ((3, 2, 2, 2, 3), (2, 2), (0., 2.9845130209103, 5.9690260418206, 8.9535390627309, 11.9380520836412), (0., 1.), .UNSPECIFIED.)
   GEOMETRIC_REPRESENTATION_ITEM ()
   RATIONAL_B_SPLINE_SURFACE (((1., 1.), (0.707106781186548, 0.707106781186548), (1., 1.), (0.707106781186548, 0.707106781186548), (1., 1.), (0.707106781186548, 0.707106781186548), (1., 1.), (0.707106781186548, 0.707106781186548), (1., 1.)))
   REPRESENTATION_ITEM ('')
   SURFACE ()
);
#52 = CARTESIAN_POINT('', (-1.9, 1.83084696472529E-15, -28.));
#53 = CARTESIAN_POINT('', (-1.89999999999995, 2.60800308196287E-15, -54.));
#54 = CARTESIAN_POINT('', (-1.9, 1.9, -28.));
#55 = CARTESIAN_POINT('', (-1.89999999999995, 1.9, -54.));
#56 = CARTESIAN_POINT('', (1.65899436757503E-15, 1.9, -28.));
#57 = CARTESIAN_POINT('', (5.02750762880029E-14, 1.9, -54.));
#58 = CARTESIAN_POINT('', (1.9, 1.9, -28.));
#59 = CARTESIAN_POINT('', (1.90000000000005, 1.9, -54.));
#60 = CARTESIAN_POINT('', (1.9, -4.87941048262136E-16, -28.));
#61 = CARTESIAN_POINT('', (1.90000000000005, 2.8921506897544E-16, -54.));
#62 = CARTESIAN_POINT('', (1.9, -1.9, -28.));
#63 = CARTESIAN_POINT('', (1.90000000000005, -1.9, -54.));
#64 = CARTESIAN_POINT('', (-4.27110753574395E-16, -1.9, -28.));
#65 = CARTESIAN_POINT('', (4.81889711668535E-14, -1.9, -54.));
#66 = CARTESIAN_POINT('', (-1.9, -1.9, -28.));
#67 = CARTESIAN_POINT('', (-1.89999999999995, -1.9, -54.));
#68 = CARTESIAN_POINT('', (-1.9, 1.83084696472529E-15, -28.));
#69 = CARTESIAN_POINT('', (-1.89999999999995, 2.60800308196287E-15, -54.));
#70 = ADVANCED_FACE('', (#71), #90, .T.);
#71 = FACE_OUTER_BOUND('', #72, .T.);
#72 = EDGE_LOOP('', (#73, #81, #88, #89));
#73 = ORIENTED_EDGE('', *, *, #74, .T.);
#74 = EDGE_CURVE('', #36, #75, #77, .T.);
#75 = VERTEX_POINT('', #76);
#76 = CARTESIAN_POINT('', (-1.9, 1.27975590510899E-16, -0.190000000000001));
#77 = LINE('', #78, #79);
#78 = CARTESIAN_POINT('', (-1.9, 1.83084696472529E-15, -28.));
#79 = VECTOR('', #80, 27.81);
#80 = DIRECTION('', (0., -1.70287137421439E-15, 27.81));
#81 = ORIENTED_EDGE('', *, *, #82, .T.);
#82 = EDGE_CURVE('', #75, #75, #83, .T.);
#83 = CIRCLE('', #84, 1.9);
#84 = AXIS2_PLACEMENT_3D('', #85, #86, #87);
#85 = CARTESIAN_POINT('', (4.37150315946155E-16, -2.77555756156289E-16, -0.190000000000001));
#86 = DIRECTION('', (0., 0., -1.));
#87 = DIRECTION('', (-1., 2.13437550877467E-16, 0.));
#88 = ORIENTED_EDGE('', *, *, #74, .F.);
#89 = ORIENTED_EDGE('', *, *, #43, .F.);
#90 = (
   BOUNDED_SURFACE ()
   B_SPLINE_SURFACE (1, 2, ((#91, #92, #93, #94, #95, #96, #97, #98, #99), (#100, #101, #102, #103, #104, #105, #106, #107, #108)), .UNSPECIFIED., .F., .T., .U.)
   B_SPLINE_SURFACE_WITH_KNOTS ((2, 2), (3, 2, 2, 2, 3), (0., 1.), (0., 2.9845130209103, 5.9690260418206, 8.9535390627309, 11.9380520836412), .UNSPECIFIED.)
   GEOMETRIC_REPRESENTATION_ITEM ()
   RATIONAL_B_SPLINE_SURFACE (((1., 0.707106781186548, 1., 0.707106781186548, 1., 0.707106781186548, 1., 0.707106781186548, 1.), (1., 0.707106781186548, 1., 0.707106781186548, 1., 0.707106781186548, 1., 0.707106781186548, 1.)))
   REPRESENTATION_ITEM ('')
   SURFACE ()
);
#91 = CARTESIAN_POINT('', (-1.9, 9.60642858979765E-16, -28.));
#92 = CARTESIAN_POINT('', (-1.9, 1.9, -28.));
#93 = CARTESIAN_POINT('', (7.26340216694344E-16, 1.9, -28.));
#94 = CARTESIAN_POINT('', (1.9, 1.9, -28.));
#95 = CARTESIAN_POINT('', (1.9, 3.82263057483388E-16, -28.));
#96 = CARTESIAN_POINT('', (1.9, -1.9, -28.));
#97 = CARTESIAN_POINT('', (3.80643307035964E-16, -1.9, -28.));
#98 = CARTESIAN_POINT('', (-1.9, -1.9, -28.));
#99 = CARTESIAN_POINT('', (-1.9, 9.60642858979765E-16, -28.));
#100 = CARTESIAN_POINT('', (-1.9, 1.27975590510898E-16, -0.190000000000001));
#101 = CARTESIAN_POINT('', (-1.9, 1.9, -0.190000000000001));
#102 = CARTESIAN_POINT('', (7.26340216694344E-16, 1.9, -0.190000000000001));
#103 = CARTESIAN_POINT('', (1.9, 1.9, -0.190000000000001));
#104 = CARTESIAN_POINT('', (1.9, -4.50404210985479E-16, -0.190000000000001));
#105 = CARTESIAN_POINT('', (1.9, -1.9, -0.190000000000001));
#106 = CARTESIAN_POINT('', (3.80643307035964E-16, -1.9, -0.190000000000001));
#107 = CARTESIAN_POINT('', (-1.9, -1.9, -0.190000000000001));
#108 = CARTESIAN_POINT('', (-1.9, 1.27975590510898E-16, -0.190000000000001));
#109 = ADVANCED_FACE('', (#110), #129, .T.);
#110 = FACE_OUTER_BOUND('', #111, .T.);
#111 = EDGE_LOOP('', (#112, #120, #127, #128));
#112 = ORIENTED_EDGE('', *, *, #113, .T.);
#113 = EDGE_CURVE('', #75, #114, #116, .T.);
#114 = VERTEX_POINT('', #115);
#115 = CARTESIAN_POINT('', (-1.71, 1.04707301327099E-16, 0.));
#116 = LINE('', #117, #118);
#117 = CARTESIAN_POINT('', (-1.9, 1.27975590510898E-16, -0.190000000000001));
#118 = VECTOR('', #119, 0.268700576850889);
#119 = DIRECTION('', (0.19, -2.3268289183799E-17, 0.190000000000001));
#120 = ORIENTED_EDGE('', *, *, #121, .T.);
#121 = EDGE_CURVE('', #114, #114, #122, .T.);
#122 = CIRCLE('', #123, 1.71);
#123 = AXIS2_PLACEMENT_3D('', #124, #125, #126);
#124 = CARTESIAN_POINT('', (1.17961196366423E-16, -8.88178419700125E-16, -7.7875102531819E-16));
#125 = DIRECTION('', (-4.55409956326426E-16, 1.327320624947E-15, -1.));
#126 = DIRECTION('', (-1., 5.80634924577324E-16, 4.55409956326427E-16));
#127 = ORIENTED_EDGE('', *, *, #113, .F.);
#128 = ORIENTED_EDGE('', *, *, #82, .F.);
#129 = (
   BOUNDED_SURFACE ()
   B_SPLINE_SURFACE (1, 2, ((#130, #131, #132, #133, #134, #135, #136, #137, #138), (#139, #140, #141, #142, #143, #144, #145, #146, #147)), .UNSPECIFIED., .F., .T., .U.)
   B_SPLINE_SURFACE_WITH_KNOTS ((2, 2), (3, 2, 2, 2, 3), (0., 1.), (0., 0.25, 0.5, 0.75, 1.), .UNSPECIFIED.)
   GEOMETRIC_REPRESENTATION_ITEM ()
   RATIONAL_B_SPLINE_SURFACE (((1., 0.707106781186548, 1., 0.707106781186548, 1., 0.707106781186548, 1., 0.707106781186548, 1.), (1., 0.707106781186548, 1., 0.707106781186548, 1., 0.707106781186548, 1., 0.707106781186548, 1.)))
   REPRESENTATION_ITEM ('')
   SURFACE ()
);
#130 = CARTESIAN_POINT('', (-1.9, 8.25650600540626E-16, -0.19));
#131 = CARTESIAN_POINT('', (-1.9, 1.9, -0.189999999999994));
#132 = CARTESIAN_POINT('', (1.01829821544232E-15, 1.9, -0.189999999999995));
#133 = CARTESIAN_POINT('', (1.9, 1.9, -0.189999999999996));
#134 = CARTESIAN_POINT('', (1.9, -1.14807922101521E-15, -0.190000000000002));
#135 = CARTESIAN_POINT('', (1.9, -1.9, -0.190000000000008));
#136 = CARTESIAN_POINT('', (-7.22748714275521E-16, -1.9, -0.190000000000007));
#137 = CARTESIAN_POINT('', (-1.9, -1.9, -0.190000000000006));
#138 = CARTESIAN_POINT('', (-1.9, 8.25650600540626E-16, -0.19));
#139 = CARTESIAN_POINT('', (-1.71, 1.04707301327099E-16, -9.86076131526265E-32));
#140 = CARTESIAN_POINT('', (-1.71, 1.71, 5.49560397189452E-15));
#141 = CARTESIAN_POINT('', (1.00613961606655E-15, 1.71, 4.71685294657633E-15));
#142 = CARTESIAN_POINT('', (1.71, 1.71, 3.93810192125814E-15));
#143 = CARTESIAN_POINT('', (1.71, -1.67164953807315E-15, -1.55750205063638E-15));
#144 = CARTESIAN_POINT('', (1.71, -1.71, -7.0531060225309E-15));
#145 = CARTESIAN_POINT('', (-5.60802620679508E-16, -1.71, -6.27435499721271E-15));
#146 = CARTESIAN_POINT('', (-1.71, -1.71, -5.49560397189452E-15));
#147 = CARTESIAN_POINT('', (-1.71, 1.04707301327099E-16, -9.86076131526265E-32));
#148 = ADVANCED_FACE('', (#149), #152, .T.);
#149 = FACE_OUTER_BOUND('', #150, .T.);
#150 = EDGE_LOOP('', (#151));
#151 = ORIENTED_EDGE('', *, *, #121, .F.);
#152 = B_SPLINE_SURFACE_WITH_KNOTS('', 1, 1, ((#153, #154), (#155, #156)), .UNSPECIFIED., .F., .F., .U., (2, 2), (2, 2), (0.0454545454545453, 0.954545454545455), (0.0454545454545453, 0.954545454545455), .UNSPECIFIED.);
#153 = CARTESIAN_POINT('', (1.71, -1.71, -1.04707301327099E-16));
#154 = CARTESIAN_POINT('', (-1.71, -1.71, -1.04707301327099E-16));
#155 = CARTESIAN_POINT('', (1.71, 1.71, 1.04707301327099E-16));
#156 = CARTESIAN_POINT('', (-1.71, 1.71, 1.04707301327099E-16));
#157 = ADVANCED_FACE('', (#158), #177, .T.);
#158 = FACE_OUTER_BOUND('', #159, .T.);
#159 = EDGE_LOOP('', (#160, #169, #175, #176));
#160 = ORIENTED_EDGE('', *, *, #161, .F.);
#161 = EDGE_CURVE('', #162, #162, #164, .T.);
#162 = VERTEX_POINT('', #163);
#163 = CARTESIAN_POINT('', (-2., 3.49024337756996E-15, -55.));
#164 = CIRCLE('', #165, 2.);
#165 = AXIS2_PLACEMENT_3D('', #166, #167, #168);
#166 = CARTESIAN_POINT('', (4.09394740330526E-16, 8.88178419700125E-16, -55.));
#167 = DIRECTION('', (0., 0., -1.));
#168 = DIRECTION('', (-1., 1.30103247893492E-15, 0.));
#169 = ORIENTED_EDGE('', *, *, #170, .F.);
#170 = EDGE_CURVE('', #8, #162, #171, .T.);
#171 = LINE('', #172, #173);
#172 = CARTESIAN_POINT('', (-2., 3.42901103761259E-15, -54.));
#173 = VECTOR('', #174, 1.);
#174 = DIRECTION('', (0., 6.12323399573699E-17, -1.));
#175 = ORIENTED_EDGE('', *, *, #7, .T.);
#176 = ORIENTED_EDGE('', *, *, #170, .T.);
#177 = (
   BOUNDED_SURFACE ()
   B_SPLINE_SURFACE (2, 1, ((#178, #179), (#180, #181), (#182, #183), (#184, #185), (#186, #187), (#188, #189), (#190, #191), (#192, #193), (#194, #195)), .UNSPECIFIED., .T., .F., .U.)
   B_SPLINE_SURFACE_WITH_KNOTS ((3, 2, 2, 2, 3), (2, 2), (0., 3.1415926535898, 6.2831853071796, 9.4247779607694, 12.5663706143592), (0., 0.175438596491228), .UNSPECIFIED.)
   GEOMETRIC_REPRESENTATION_ITEM ()
   RATIONAL_B_SPLINE_SURFACE (((1., 1.), (0.707106781186548, 0.707106781186548), (1., 1.), (0.707106781186548, 0.707106781186548), (1., 1.), (0.707106781186548, 0.707106781186548), (1., 1.), (0.707106781186548, 0.707106781186548), (1., 1.)))
   REPRESENTATION_ITEM ('')
   SURFACE ()
);
#178 = CARTESIAN_POINT('', (-2., 3.42901103761259E-15, -54.));
#179 = CARTESIAN_POINT('', (-2., 3.54003334007511E-15, -55.));
#180 = CARTESIAN_POINT('', (-2., 2., -54.));
#181 = CARTESIAN_POINT('', (-2., 2., -55.));
#182 = CARTESIAN_POINT('', (2.12693439403363E-15, 2., -54.));
#183 = CARTESIAN_POINT('', (2.12693439403363E-15, 2., -55.));
#184 = CARTESIAN_POINT('', (2., 2., -54.));
#185 = CARTESIAN_POINT('', (2., 2., -55.));
#186 = CARTESIAN_POINT('', (2., -1.29670253592035E-15, -54.));
#187 = CARTESIAN_POINT('', (2., -1.18568023345784E-15, -55.));
#188 = CARTESIAN_POINT('', (2., -2., -54.));
#189 = CARTESIAN_POINT('', (2., -2., -55.));
#190 = CARTESIAN_POINT('', (-2.35384981966985E-15, -2., -54.));
#191 = CARTESIAN_POINT('', (-2.35384981966985E-15, -2., -55.));
#192 = CARTESIAN_POINT('', (-2., -2., -54.));
#193 = CARTESIAN_POINT('', (-2., -2., -55.));
#194 = CARTESIAN_POINT('', (-2., 3.42901103761259E-15, -54.));
#195 = CARTESIAN_POINT('', (-2., 3.54003334007511E-15, -55.));
#196 = ADVANCED_FACE('', (#197), #200, .T.);
#197 = FACE_OUTER_BOUND('', #198, .T.);
#198 = EDGE_LOOP('', (#199));
#199 = ORIENTED_EDGE('', *, *, #161, .T.);
#200 = B_SPLINE_SURFACE_WITH_KNOTS('', 1, 1, ((#201, #202), (#203, #204)), .UNSPECIFIED., .F., .F., .U., (2, 2), (2, 2), (0.497234499314505, 0.530420662409196), (0.469579337590804, 0.502765500685495), .UNSPECIFIED.);
#201 = CARTESIAN_POINT('', (-2.00000000000002, 2.00000000000002, -55.));
#202 = CARTESIAN_POINT('', (-2.00000000000002, -1.99999999999998, -55.));
#203 = CARTESIAN_POINT('', (1.99999999999998, 2.00000000000002, -55.));
#204 = CARTESIAN_POINT('', (1.99999999999998, -1.99999999999998, -55.));
#205 = DRAUGHTING_MODEL('', (#213, #337, #385, #390, #395, #400, #405, #410), #424);
#206 = PRESENTATION_STYLE_ASSIGNMENT((#207));
#207 = SURFACE_STYLE_USAGE(.POSITIVE., #208);
#208 = SURFACE_SIDE_STYLE('', (#209));
#209 = SURFACE_STYLE_FILL_AREA(#210);
#210 = FILL_AREA_STYLE('', (#211));
#211 = FILL_AREA_STYLE_COLOUR('', #212);
#212 = COLOUR_RGB('', 0.50196078431373, 0.50196078431373, 0.50196078431373);
#213 = STYLED_ITEM('', (#206), #1);
#214 = MANIFOLD_SOLID_BREP('CUT', #215);
#215 = CLOSED_SHELL('', (#216, #233, #272, #321));
#216 = ADVANCED_FACE('', (#217), #228, .T.);
#217 = FACE_OUTER_BOUND('', #218, .T.);
#218 = EDGE_LOOP('', (#219));
#219 = ORIENTED_EDGE('', *, *, #220, .F.);
#220 = EDGE_CURVE('', #221, #221, #223, .T.);
#221 = VERTEX_POINT('', #222);
#222 = CARTESIAN_POINT('', (-2., 3.49024337756996E-15, -55.));
#223 = CIRCLE('', #224, 2.);
#224 = AXIS2_PLACEMENT_3D('', #225, #226, #227);
#225 = CARTESIAN_POINT('', (4.09394740330526E-16, 8.88178419700125E-16, -55.));
#226 = DIRECTION('', (0., 0., -1.));
#227 = DIRECTION('', (-1., 1.30103247893492E-15, 0.));
#228 = B_SPLINE_SURFACE_WITH_KNOTS('', 1, 1, ((#229, #230), (#231, #232)), .UNSPECIFIED., .F., .F., .U., (2, 2), (2, 2), (0.469579337590804, 0.502765500685495), (0.497234499314505, 0.530420662409196), .UNSPECIFIED.);
#229 = CARTESIAN_POINT('', (-2.00000000000001, 2., -55.));
#230 = CARTESIAN_POINT('', (1.99999999999999, 2., -55.));
#231 = CARTESIAN_POINT('', (-2.00000000000001, -1.99999999999999, -55.));
#232 = CARTESIAN_POINT('', (1.99999999999999, -1.99999999999999, -55.));
#233 = ADVANCED_FACE('', (#234), #253, .T.);
#234 = FACE_OUTER_BOUND('', #235, .T.);
#235 = EDGE_LOOP('', (#236, #237, #245, #252));
#236 = ORIENTED_EDGE('', *, *, #220, .T.);
#237 = ORIENTED_EDGE('', *, *, #238, .T.);
#238 = EDGE_CURVE('', #221, #239, #241, .T.);
#239 = VERTEX_POINT('', #240);
#240 = CARTESIAN_POINT('', (-2., 3.77803537536958E-15, -59.7));
#241 = LINE('', #242, #243);
#242 = CARTESIAN_POINT('', (-2., 3.49024337756996E-15, -55.));
#243 = VECTOR('', #244, 4.7);
#244 = DIRECTION('', (0., 2.8779199779962E-16, -4.7));
#245 = ORIENTED_EDGE('', *, *, #246, .F.);
#246 = EDGE_CURVE('', #239, #239, #247, .T.);
#247 = CIRCLE('', #248, 2.);
#248 = AXIS2_PLACEMENT_3D('', #249, #250, #251);
#249 = CARTESIAN_POINT('', (-2.42861286636753E-16, 1.33226762955019E-15, -59.7));
#250 = DIRECTION('', (0., 0., -1.));
#251 = DIRECTION('', (-1., 1.2228838729097E-15, 0.));
#252 = ORIENTED_EDGE('', *, *, #238, .F.);
#253 = (
   BOUNDED_SURFACE ()
   B_SPLINE_SURFACE (2, 1, ((#254, #255), (#256, #257), (#258, #259), (#260, #261), (#262, #263), (#264, #265), (#266, #267), (#268, #269), (#270, #271)), .UNSPECIFIED., .T., .F., .U.)
   B_SPLINE_SURFACE_WITH_KNOTS ((3, 2, 2, 2, 3), (2, 2), (0., 3.1415926535898, 6.2831853071796, 9.4247779607694, 12.5663706143592), (0.175438596491227, 1.), .UNSPECIFIED.)
   GEOMETRIC_REPRESENTATION_ITEM ()
   RATIONAL_B_SPLINE_SURFACE (((1., 1.), (0.707106781186548, 0.707106781186548), (1., 1.), (0.707106781186548, 0.707106781186548), (1., 1.), (0.707106781186548, 0.707106781186548), (1., 1.), (0.707106781186548, 0.707106781186548), (1., 1.)))
   REPRESENTATION_ITEM ('')
   SURFACE ()
);
#254 = CARTESIAN_POINT('', (-2., 3.49024337756996E-15, -55.));
#255 = CARTESIAN_POINT('', (-2., 3.76779913372625E-15, -59.7));
#256 = CARTESIAN_POINT('', (-2., 2., -55.));
#257 = CARTESIAN_POINT('', (-2., 2., -59.7));
#258 = CARTESIAN_POINT('', (2.07020553762457E-15, 2., -55.));
#259 = CARTESIAN_POINT('', (2.07020553762457E-15, 2., -59.7));
#260 = CARTESIAN_POINT('', (2., 2., -55.));
#261 = CARTESIAN_POINT('', (2., 2., -59.7));
#262 = CARTESIAN_POINT('', (2., -1.13589027095269E-15, -55.));
#263 = CARTESIAN_POINT('', (2., -8.58334514796403E-16, -59.7));
#264 = CARTESIAN_POINT('', (2., -2., -55.));
#265 = CARTESIAN_POINT('', (2., -2., -59.7));
#266 = CARTESIAN_POINT('', (-2.31099875106861E-15, -2., -55.));
#267 = CARTESIAN_POINT('', (-2.31099875106861E-15, -2., -59.7));
#268 = CARTESIAN_POINT('', (-2., -2., -55.));
#269 = CARTESIAN_POINT('', (-2., -2., -59.7));
#270 = CARTESIAN_POINT('', (-2., 3.49024337756996E-15, -55.));
#271 = CARTESIAN_POINT('', (-2., 3.76779913372625E-15, -59.7));
#272 = ADVANCED_FACE('', (#273), #293, .T.);
#273 = FACE_OUTER_BOUND('', #274, .T.);
#274 = EDGE_LOOP('', (#275, #284, #285, #286));
#275 = ORIENTED_EDGE('', *, *, #276, .F.);
#276 = EDGE_CURVE('', #239, #277, #279, .T.);
#277 = VERTEX_POINT('', #278);
#278 = CARTESIAN_POINT('', (-1.7, 3.77803537536958E-15, -60.));
#279 = CIRCLE('', #280, 0.299999999999997);
#280 = AXIS2_PLACEMENT_3D('', #281, #282, #283);
#281 = CARTESIAN_POINT('', (-1.7, 3.75966567338237E-15, -59.7));
#282 = DIRECTION('', (-6.12323399573763E-17, -1., -6.12323399573751E-17));
#283 = DIRECTION('', (-1., 6.12323399573763E-17, 0.));
#284 = ORIENTED_EDGE('', *, *, #246, .T.);
#285 = ORIENTED_EDGE('', *, *, #276, .T.);
#286 = ORIENTED_EDGE('', *, *, #287, .F.);
#287 = EDGE_CURVE('', #277, #277, #288, .T.);
#288 = CIRCLE('', #289, 1.7);
#289 = AXIS2_PLACEMENT_3D('', #290, #291, #292);
#290 = CARTESIAN_POINT('', (4.5102810375397E-16, 1.13797860024079E-15, -60.));
#291 = DIRECTION('', (0., 0., -1.));
#292 = DIRECTION('', (-1., 1.55297457360517E-15, 0.));
#293 = (
   BOUNDED_SURFACE ()
   B_SPLINE_SURFACE (2, 2, ((#294, #295, #296), (#297, #298, #299), (#300, #301, #302), (#303, #304, #305), (#306, #307, #308), (#309, #310, #311), (#312, #313, #314), (#315, #316, #317), (#318, #319, #320)), .UNSPECIFIED., .T., .F., .U.)
   B_SPLINE_SURFACE_WITH_KNOTS ((3, 2, 2, 2, 3), (3, 3), (0., 0.25, 0.5, 0.75, 1.), (0., 1.), .UNSPECIFIED.)
   GEOMETRIC_REPRESENTATION_ITEM ()
   RATIONAL_B_SPLINE_SURFACE (((1., 0.707106781186544, 1.), (0.707106781186548, 0.499999999999998, 0.707106781186548), (1., 0.707106781186544, 1.), (0.707106781186548, 0.499999999999998, 0.707106781186548), (1., 0.707106781186544, 1.), (0.707106781186548, 0.499999999999998, 0.707106781186548), (1., 0.707106781186544, 1.), (0.707106781186548, 0.499999999999998, 0.707106781186548), (1., 0.707106781186544, 1.)))
   REPRESENTATION_ITEM ('')
   SURFACE ()
);
#294 = CARTESIAN_POINT('', (-2., 3.77803537536958E-15, -59.7));
#295 = CARTESIAN_POINT('', (-2., 3.79640507735679E-15, -60.));
#296 = CARTESIAN_POINT('', (-1.7, 3.77803537536958E-15, -60.));
#297 = CARTESIAN_POINT('', (-2., 2., -59.7));
#298 = CARTESIAN_POINT('', (-2., 2., -60.));
#299 = CARTESIAN_POINT('', (-1.7, 1.7, -60.));
#300 = CARTESIAN_POINT('', (2.58004214034931E-15, 2., -59.7));
#301 = CARTESIAN_POINT('', (-1.93483294770446E-15, 2., -60.));
#302 = CARTESIAN_POINT('', (-1.93483294770445E-15, 1.7, -60.));
#303 = CARTESIAN_POINT('', (2., 2., -59.7));
#304 = CARTESIAN_POINT('', (2., 2.00000000000001, -60.));
#305 = CARTESIAN_POINT('', (1.7, 1.70000000000001, -60.));
#306 = CARTESIAN_POINT('', (2., -5.35503849052187E-16, -59.7));
#307 = CARTESIAN_POINT('', (2., 6.38098782176229E-15, -60.));
#308 = CARTESIAN_POINT('', (1.7, 6.36261811977505E-15, -60.));
#309 = CARTESIAN_POINT('', (2., -2., -59.7));
#310 = CARTESIAN_POINT('', (2., -1.99999999999999, -60.));
#311 = CARTESIAN_POINT('', (1.7, -1.69999999999999, -60.));
#312 = CARTESIAN_POINT('', (-1.48856772424315E-15, -2., -59.7));
#313 = CARTESIAN_POINT('', (8.94679156530343E-16, -1.99999999999999, -60.));
#314 = CARTESIAN_POINT('', (8.57939752555913E-16, -1.69999999999999, -60.));
#315 = CARTESIAN_POINT('', (-2., -2., -59.7));
#316 = CARTESIAN_POINT('', (-2., -2., -60.));
#317 = CARTESIAN_POINT('', (-1.7, -1.7, -60.));
#318 = CARTESIAN_POINT('', (-2., 3.77803537536958E-15, -59.7));
#319 = CARTESIAN_POINT('', (-2., 3.79640507735679E-15, -60.));
#320 = CARTESIAN_POINT('', (-1.7, 3.77803537536958E-15, -60.));
#321 = ADVANCED_FACE('', (#322), #325, .T.);
#322 = FACE_OUTER_BOUND('', #323, .T.);
#323 = EDGE_LOOP('', (#324));
#324 = ORIENTED_EDGE('', *, *, #287, .T.);
#325 = B_SPLINE_SURFACE_WITH_KNOTS('', 1, 1, ((#326, #327), (#328, #329)), .UNSPECIFIED., .F., .F., .U., (2, 2), (2, 2), (0.0454545454545454, 0.954545454545455), (0.0454545454545454, 0.954545454545455), .UNSPECIFIED.);
#326 = CARTESIAN_POINT('', (1.7, -1.7, -60.));
#327 = CARTESIAN_POINT('', (1.7, 1.7, -60.));
#328 = CARTESIAN_POINT('', (-1.7, -1.7, -60.));
#329 = CARTESIAN_POINT('', (-1.7, 1.7, -60.));
#330 = PRESENTATION_STYLE_ASSIGNMENT((#331));
#331 = SURFACE_STYLE_USAGE(.POSITIVE., #332);
#332 = SURFACE_SIDE_STYLE('', (#333));
#333 = SURFACE_STYLE_FILL_AREA(#334);
#334 = FILL_AREA_STYLE('', (#335));
#335 = FILL_AREA_STYLE_COLOUR('', #336);
#336 = COLOUR_RGB('', 0.8, 0.8, 0.8);
#337 = STYLED_ITEM('', (#330), #214);
#338 = TRIMMED_CURVE('cutting part line', #339, (#343), (#344), .T., .CARTESIAN.);
#339 = LINE('', #340, #341);
#340 = CARTESIAN_POINT('', (9.71445146547012E-17, 0., -60.));
#341 = VECTOR('', #342, 1.7);
#342 = DIRECTION('', (1.7, 0., 0.));
#343 = CARTESIAN_POINT('', (9.71445146547012E-17, 0., -60.));
#344 = CARTESIAN_POINT('', (1.7, 0., -60.));
#345 = TRIMMED_CURVE('cutting part line', #346, (#351), (#352), .T., .CARTESIAN.);
#346 = CIRCLE('', #347, 0.299999999999982);
#347 = AXIS2_PLACEMENT_3D('', #348, #349, #350);
#348 = CARTESIAN_POINT('', (1.70000000000001, 1.29779311565772E-15, -59.7));
#349 = DIRECTION('', (1.15648231731627E-15, -1., -2.29830518789259E-14));
#350 = DIRECTION('', (-5.32907051820105E-14, 2.29830518789258E-14, -1.));
#351 = CARTESIAN_POINT('', (1.7, 8.19270867933507E-15, -60.));
#352 = CARTESIAN_POINT('', (2., 1.6447378108523E-15, -59.7));
#353 = TRIMMED_CURVE('cutting part line', #354, (#358), (#359), .T., .CARTESIAN.);
#354 = LINE('', #355, #356);
#355 = CARTESIAN_POINT('', (2., 2.77513483070255E-16, -59.7));
#356 = VECTOR('', #357, 4.7);
#357 = DIRECTION('', (0., -2.77513483070255E-16, 4.7));
#358 = CARTESIAN_POINT('', (2., 2.77513483070255E-16, -59.7));
#359 = CARTESIAN_POINT('', (2., 0., -55.));
#360 = TRIMMED_CURVE('cutting part line', #361, (#365), (#366), .T., .CARTESIAN.);
#361 = LINE('', #362, #363);
#362 = CARTESIAN_POINT('', (2., 0., -55.));
#363 = VECTOR('', #364, 2.);
#364 = DIRECTION('', (-2., 0., 0.));
#365 = CARTESIAN_POINT('', (2., 0., -55.));
#366 = CARTESIAN_POINT('', (6.93889390390723E-18, 0., -55.));
#367 = TRIMMED_CURVE('cutting part line', #368, (#372), (#373), .T., .CARTESIAN.);
#368 = LINE('', #369, #370);
#369 = CARTESIAN_POINT('', (0., 0., -55.));
#370 = VECTOR('', #371, 5.00000000000003);
#371 = DIRECTION('', (0., 0., -5.00000000000003));
#372 = CARTESIAN_POINT('', (0., 0., -55.));
#373 = CARTESIAN_POINT('', (0., 0., -60.));
#374 = COMPOSITE_CURVE('cutting part line', (#375, #376, #377, #378, #379), .U.);
#375 = COMPOSITE_CURVE_SEGMENT(.CONTINUOUS., .T., #338);
#376 = COMPOSITE_CURVE_SEGMENT(.CONTINUOUS., .T., #345);
#377 = COMPOSITE_CURVE_SEGMENT(.CONTINUOUS., .T., #353);
#378 = COMPOSITE_CURVE_SEGMENT(.CONTINUOUS., .T., #360);
#379 = COMPOSITE_CURVE_SEGMENT(.CONTINUOUS., .T., #367);
#380 = GEOMETRIC_SET('', (#374, #423));
#381 = PRESENTATION_STYLE_ASSIGNMENT((#382));
#382 = CURVE_STYLE('', #384, POSITIVE_LENGTH_MEASURE(1.E-6), #383);
#383 = COLOUR_RGB('', 0., 0., 1.);
#384 = DRAUGHTING_PRE_DEFINED_CURVE_FONT('continuous');
#385 = STYLED_ITEM('', (#381), #374);
#386 = PRESENTATION_STYLE_ASSIGNMENT((#387));
#387 = CURVE_STYLE('', #389, POSITIVE_LENGTH_MEASURE(1.E-6), #388);
#388 = COLOUR_RGB('', 0., 0., 1.);
#389 = DRAUGHTING_PRE_DEFINED_CURVE_FONT('continuous');
#390 = OVER_RIDING_STYLED_ITEM('', (#386), #338, #385);
#391 = PRESENTATION_STYLE_ASSIGNMENT((#392));
#392 = CURVE_STYLE('', #394, POSITIVE_LENGTH_MEASURE(1.E-6), #393);
#393 = COLOUR_RGB('', 0., 0., 1.);
#394 = DRAUGHTING_PRE_DEFINED_CURVE_FONT('continuous');
#395 = OVER_RIDING_STYLED_ITEM('', (#391), #345, #385);
#396 = PRESENTATION_STYLE_ASSIGNMENT((#397));
#397 = CURVE_STYLE('', #399, POSITIVE_LENGTH_MEASURE(1.E-6), #398);
#398 = COLOUR_RGB('', 0., 0., 1.);
#399 = DRAUGHTING_PRE_DEFINED_CURVE_FONT('continuous');
#400 = OVER_RIDING_STYLED_ITEM('', (#396), #353, #385);
#401 = PRESENTATION_STYLE_ASSIGNMENT((#402));
#402 = CURVE_STYLE('', #404, POSITIVE_LENGTH_MEASURE(1.E-6), #403);
#403 = COLOUR_RGB('', 0., 0., 1.);
#404 = DRAUGHTING_PRE_DEFINED_CURVE_FONT('continuous');
#405 = OVER_RIDING_STYLED_ITEM('', (#401), #360, #385);
#406 = PRESENTATION_STYLE_ASSIGNMENT((#407));
#407 = CURVE_STYLE('', #409, POSITIVE_LENGTH_MEASURE(1.E-6), #408);
#408 = COLOUR_RGB('', 0., 0., 1.);
#409 = DRAUGHTING_PRE_DEFINED_CURVE_FONT('continuous');
#410 = OVER_RIDING_STYLED_ITEM('', (#406), #367, #385);
#411 = AXIS2_PLACEMENT_3D('MCS', #412, #413, #414);
#412 = CARTESIAN_POINT('', (0., 0., -28.));
#413 = DIRECTION('', (0., 0., 1.));
#414 = DIRECTION('', (1., 0., 0.));
#415 = AXIS2_PLACEMENT_3D('PCS', #416, #417, #418);
#416 = CARTESIAN_POINT('', (0., 0., 0.));
#417 = DIRECTION('', (0., 0., 1.));
#418 = DIRECTION('', (1., 0., 0.));
#419 = AXIS2_PLACEMENT_3D('CIP', #420, #421, #422);
#420 = CARTESIAN_POINT('', (0., 0., -60.));
#421 = DIRECTION('', (0., 0., 1.));
#422 = DIRECTION('', (1., 0., 0.));
#423 = CARTESIAN_POINT('CRP', (2., 0., -60.));
#424 = (
   GEOMETRIC_REPRESENTATION_CONTEXT (3)
   GLOBAL_UNCERTAINTY_ASSIGNED_CONTEXT ((#426))
   GLOBAL_UNIT_ASSIGNED_CONTEXT ((#425, #427, #428))
   REPRESENTATION_CONTEXT ('', '3D')
);
#425 = (
   LENGTH_UNIT ()
   NAMED_UNIT (*)
   SI_UNIT (.MILLI., .METRE.)
);
#426 = UNCERTAINTY_MEASURE_WITH_UNIT(LENGTH_MEASURE(1.E-6), #425, 'DISTANCE_ACCURACY_VALUE', '');
#427 = (
   NAMED_UNIT (*)
   SI_UNIT ($, .STERADIAN.)
   SOLID_ANGLE_UNIT ()
);
#428 = (
   NAMED_UNIT (*)
   PLANE_ANGLE_UNIT ()
   SI_UNIT ($, .RADIAN.)
);
#429 = SHAPE_REPRESENTATION('', (), #424);
#430 = PRODUCT_DEFINITION_SHAPE('', '', #431);
#431 = PRODUCT_DEFINITION('', '', #434, #438);
#432 = APPLICATION_CONTEXT('configuration controlled 3D designs of mechanical parts and assemblies');
#433 = APPLICATION_PROTOCOL_DEFINITION('International Standard', 'automotive_design', 2002, #432);
#434 = PRODUCT_DEFINITION_FORMATION_WITH_SPECIFIED_SOURCE('', '', #435, .NOT_KNOWN.);
#435 = PRODUCT('product-name', '2S221-0400-030-NG   H10F', '', (#436));
#436 = PRODUCT_CONTEXT('', #432, 'mechanical');
#437 = PRODUCT_RELATED_PRODUCT_CATEGORY('detail', '', (#435));
#438 = PRODUCT_DEFINITION_CONTEXT('part definition', #432, 'design');
#439 = SHAPE_DEFINITION_REPRESENTATION(#430, #429);
#440 = CONSTRUCTIVE_GEOMETRY_REPRESENTATION('supplemental geometry', (#411, #415, #419), #424);
#441 = CONSTRUCTIVE_GEOMETRY_REPRESENTATION_RELATIONSHIP('', '', #429, #440);
#442 = SHAPE_REPRESENTATION_RELATIONSHIP('', '', #429, #443);
#443 = SHAPE_REPRESENTATION('', (#380), #424);
#444 = SHAPE_REPRESENTATION_RELATIONSHIP('', '', #429, #445);
#445 = ADVANCED_BREP_SHAPE_REPRESENTATION('', (#1, #214), #424);
ENDSEC;
END-ISO-10303-21;
