ISO-10303-21;
HEADER;
FILE_DESCRIPTION(('STEP'), '1');
FILE_NAME('C:\\Users\\ds2002\\OneDrive - Sandvik\\HomeShare\\Documents\\Batchrepair\\CorSRT2\\NEW_MILSQ_SLD\\Output\\MOD000000000000000020082327100000.stp', '2019-01-02T12:08:03', (''), (''), 'Express v3.0.0.0', 'Express Tool', 'Unknown');
FILE_SCHEMA(('AUTOMOTIVE_DESIGN'));
ENDSEC;

DATA;
#1 = MANIFOLD_SOLID_BREP('NOCUT', #2);
#2 = CLOSED_SHELL('', (#3, #50, #89, #98, #137));
#3 = ADVANCED_FACE('', (#4), #31, .T.);
#4 = FACE_OUTER_BOUND('', #5, .T.);
#5 = EDGE_LOOP('', (#6, #16, #23, #24));
#6 = ORIENTED_EDGE('', *, *, #7, .T.);
#7 = EDGE_CURVE('', #8, #10, #12, .T.);
#8 = VERTEX_POINT('', #9);
#9 = CARTESIAN_POINT('', (-2.5, 1.86758636869971E-15, -28.));
#10 = VERTEX_POINT('', #11);
#11 = CARTESIAN_POINT('', (-2.5, 1.68388934882761E-16, -0.25));
#12 = LINE('', #13, #14);
#13 = CARTESIAN_POINT('', (-2.5, 1.86758636869971E-15, -28.));
#14 = VECTOR('', #15, 27.75);
#15 = DIRECTION('', (0., -1.69919743381695E-15, 27.75));
#16 = ORIENTED_EDGE('', *, *, #17, .T.);
#17 = EDGE_CURVE('', #10, #10, #18, .T.);
#18 = CIRCLE('', #19, 2.5);
#19 = AXIS2_PLACEMENT_3D('', #20, #21, #22);
#20 = CARTESIAN_POINT('', (-2.0122792321331E-16, -1.16573417585641E-15, -0.25));
#21 = DIRECTION('', (0., 0., -1.));
#22 = DIRECTION('', (-1., 5.3364924429567E-16, 0.));
#23 = ORIENTED_EDGE('', *, *, #7, .F.);
#24 = ORIENTED_EDGE('', *, *, #25, .F.);
#25 = EDGE_CURVE('', #8, #8, #26, .T.);
#26 = CIRCLE('', #27, 2.5);
#27 = AXIS2_PLACEMENT_3D('', #28, #29, #30);
#28 = CARTESIAN_POINT('', (-5.55111512312578E-17, -1.66533453693773E-15, -28.));
#29 = DIRECTION('', (6.83509677671386E-30, 4.83671794477989E-15, -1.));
#30 = DIRECTION('', (-1., 1.41316836225498E-15, 0.));
#31 = (
   BOUNDED_SURFACE ()
   B_SPLINE_SURFACE (1, 2, ((#32, #33, #34, #35, #36, #37, #38, #39, #40), (#41, #42, #43, #44, #45, #46, #47, #48, #49)), .UNSPECIFIED., .F., .T., .U.)
   B_SPLINE_SURFACE_WITH_KNOTS ((2, 2), (3, 2, 2, 2, 3), (0., 1.), (0., 3.92699081698725, 7.8539816339745, 11.7809724509618, 15.707963267949), .UNSPECIFIED.)
   GEOMETRIC_REPRESENTATION_ITEM ()
   RATIONAL_B_SPLINE_SURFACE (((1., 0.707106781186548, 1., 0.707106781186548, 1., 0.707106781186548, 1., 0.707106781186548, 1.), (1., 0.707106781186548, 1., 0.707106781186548, 1., 0.707106781186548, 1., 0.707106781186548, 1.)))
   REPRESENTATION_ITEM ('')
   SURFACE ()
);
#32 = CARTESIAN_POINT('', (-2.5, 1.88923462305175E-15, -28.));
#33 = CARTESIAN_POINT('', (-2.5, 2.5, -28.));
#34 = CARTESIAN_POINT('', (9.79814337632447E-16, 2.5, -28.));
#35 = CARTESIAN_POINT('', (2.5, 2.5, -28.));
#36 = CARTESIAN_POINT('', (2.5, -4.72849898639759E-16, -28.));
#37 = CARTESIAN_POINT('', (2.5, -2.5, -28.));
#38 = CARTESIAN_POINT('', (-1.07610848427223E-15, -2.5, -28.));
#39 = CARTESIAN_POINT('', (-2.5, -2.5, -28.));
#40 = CARTESIAN_POINT('', (-2.5, 1.88923462305175E-15, -28.));
#41 = CARTESIAN_POINT('', (-2.5, 1.68388934882761E-16, -0.25));
#42 = CARTESIAN_POINT('', (-2.5, 2.5, -0.25));
#43 = CARTESIAN_POINT('', (9.79814337632446E-16, 2.5, -0.25));
#44 = CARTESIAN_POINT('', (2.5, 2.5, -0.25));
#45 = CARTESIAN_POINT('', (2.5, -2.19369558680875E-15, -0.25));
#46 = CARTESIAN_POINT('', (2.5, -2.5, -0.25));
#47 = CARTESIAN_POINT('', (-1.07610848427223E-15, -2.5, -0.25));
#48 = CARTESIAN_POINT('', (-2.5, -2.5, -0.25));
#49 = CARTESIAN_POINT('', (-2.5, 1.68388934882761E-16, -0.25));
#50 = ADVANCED_FACE('', (#51), #70, .T.);
#51 = FACE_OUTER_BOUND('', #52, .T.);
#52 = EDGE_LOOP('', (#53, #61, #68, #69));
#53 = ORIENTED_EDGE('', *, *, #54, .T.);
#54 = EDGE_CURVE('', #10, #55, #57, .T.);
#55 = VERTEX_POINT('', #56);
#56 = CARTESIAN_POINT('', (-2.25, 1.37772764904077E-16, 0.));
#57 = LINE('', #58, #59);
#58 = CARTESIAN_POINT('', (-2.5, 1.68388934882761E-16, -0.25));
#59 = VECTOR('', #60, 0.353553390593274);
#60 = DIRECTION('', (0.25, -3.0616169978684E-17, 0.25));
#61 = ORIENTED_EDGE('', *, *, #62, .T.);
#62 = EDGE_CURVE('', #55, #55, #63, .T.);
#63 = CIRCLE('', #64, 2.25);
#64 = AXIS2_PLACEMENT_3D('', #65, #66, #67);
#65 = CARTESIAN_POINT('', (1.1518563880486E-15, -5.55111512312578E-17, -7.78751025318189E-16));
#66 = DIRECTION('', (-3.46111566808084E-16, 1.02345943654949E-15, -1.));
#67 = DIRECTION('', (-1., 8.59039627268154E-17, 3.46111566808084E-16));
#68 = ORIENTED_EDGE('', *, *, #54, .F.);
#69 = ORIENTED_EDGE('', *, *, #17, .F.);
#70 = (
   BOUNDED_SURFACE ()
   B_SPLINE_SURFACE (1, 2, ((#71, #72, #73, #74, #75, #76, #77, #78, #79), (#80, #81, #82, #83, #84, #85, #86, #87, #88)), .UNSPECIFIED., .F., .T., .U.)
   B_SPLINE_SURFACE_WITH_KNOTS ((2, 2), (3, 2, 2, 2, 3), (0., 1.), (0., 0.25, 0.5, 0.75, 1.), .UNSPECIFIED.)
   GEOMETRIC_REPRESENTATION_ITEM ()
   RATIONAL_B_SPLINE_SURFACE (((1., 0.707106781186548, 1., 0.707106781186548, 1., 0.707106781186548, 1., 0.707106781186548, 1.), (1., 0.707106781186548, 1., 0.707106781186548, 1., 0.707106781186548, 1., 0.707106781186548, 1.)))
   REPRESENTATION_ITEM ('')
   SURFACE ()
);
#71 = CARTESIAN_POINT('', (-2.5, -1.28404117642692E-15, -0.249999999999999));
#72 = CARTESIAN_POINT('', (-2.5, 2.5, -0.250000000000014));
#73 = CARTESIAN_POINT('', (1.12700755327019E-15, 2.5, -0.250000000000014));
#74 = CARTESIAN_POINT('', (2.5, 2.5, -0.250000000000015));
#75 = CARTESIAN_POINT('', (2.5, -1.40739929027416E-15, -0.250000000000001));
#76 = CARTESIAN_POINT('', (2.5, -2.5, -0.249999999999986));
#77 = CARTESIAN_POINT('', (1.3098111392098E-15, -2.5, -0.249999999999986));
#78 = CARTESIAN_POINT('', (-2.5, -2.5, -0.249999999999985));
#79 = CARTESIAN_POINT('', (-2.5, -1.28404117642692E-15, -0.249999999999999));
#80 = CARTESIAN_POINT('', (-2.25, 1.37772764904077E-16, -2.95822839457879E-31));
#81 = CARTESIAN_POINT('', (-2.25, 2.25, -1.29896093881144E-14));
#82 = CARTESIAN_POINT('', (1.20736753927985E-15, 2.25, -1.37683604134326E-14));
#83 = CARTESIAN_POINT('', (2.25, 2.25, -1.45471114387508E-14));
#84 = CARTESIAN_POINT('', (2.25, 2.67504624415619E-17, -1.55750205063638E-15));
#85 = CARTESIAN_POINT('', (2.25, -2.25, 1.1432107337478E-14));
#86 = CARTESIAN_POINT('', (1.3718907666255E-15, -2.25, 1.22108583627962E-14));
#87 = CARTESIAN_POINT('', (-2.25, -2.25, 1.29896093881144E-14));
#88 = CARTESIAN_POINT('', (-2.25, 1.37772764904077E-16, -2.95822839457879E-31));
#89 = ADVANCED_FACE('', (#90), #93, .T.);
#90 = FACE_OUTER_BOUND('', #91, .T.);
#91 = EDGE_LOOP('', (#92));
#92 = ORIENTED_EDGE('', *, *, #62, .F.);
#93 = B_SPLINE_SURFACE_WITH_KNOTS('', 1, 1, ((#94, #95), (#96, #97)), .UNSPECIFIED., .F., .F., .U., (2, 2), (2, 2), (0.0454545454545454, 0.954545454545454), (0.0454545454545454, 0.954545454545454), .UNSPECIFIED.);
#94 = CARTESIAN_POINT('', (2.25, -2.25, -1.37772764904077E-16));
#95 = CARTESIAN_POINT('', (-2.25, -2.25, -1.37772764904077E-16));
#96 = CARTESIAN_POINT('', (2.25, 2.25, 1.37772764904077E-16));
#97 = CARTESIAN_POINT('', (-2.25, 2.25, 1.37772764904077E-16));
#98 = ADVANCED_FACE('', (#99), #118, .T.);
#99 = FACE_OUTER_BOUND('', #100, .T.);
#100 = EDGE_LOOP('', (#101, #110, #116, #117));
#101 = ORIENTED_EDGE('', *, *, #102, .F.);
#102 = EDGE_CURVE('', #103, #103, #105, .T.);
#103 = VERTEX_POINT('', #104);
#104 = CARTESIAN_POINT('', (-2.5, 2.75545529808154E-15, -42.5));
#105 = CIRCLE('', #106, 2.5);
#106 = AXIS2_PLACEMENT_3D('', #107, #108, #109);
#107 = CARTESIAN_POINT('', (6.93889390390723E-18, 8.32667268468867E-16, -42.5));
#108 = DIRECTION('', (-7.4399866934685E-30, -9.67343588955983E-15, -1.));
#109 = DIRECTION('', (-1., 7.69115211845069E-16, 0.));
#110 = ORIENTED_EDGE('', *, *, #111, .F.);
#111 = EDGE_CURVE('', #8, #103, #112, .T.);
#112 = LINE('', #113, #114);
#113 = CARTESIAN_POINT('', (-2.5, 1.86758636869971E-15, -28.));
#114 = VECTOR('', #115, 14.5);
#115 = DIRECTION('', (0., 8.8786892938183E-16, -14.5));
#116 = ORIENTED_EDGE('', *, *, #25, .T.);
#117 = ORIENTED_EDGE('', *, *, #111, .T.);
#118 = (
   BOUNDED_SURFACE ()
   B_SPLINE_SURFACE (2, 1, ((#119, #120), (#121, #122), (#123, #124), (#125, #126), (#127, #128), (#129, #130), (#131, #132), (#133, #134), (#135, #136)), .UNSPECIFIED., .T., .F., .U.)
   B_SPLINE_SURFACE_WITH_KNOTS ((3, 2, 2, 2, 3), (2, 2), (0., 3.92699081698725, 7.8539816339745, 11.7809724509618, 15.707963267949), (0., 0.674418604651163), .UNSPECIFIED.)
   GEOMETRIC_REPRESENTATION_ITEM ()
   RATIONAL_B_SPLINE_SURFACE (((1., 1.), (0.707106781186548, 0.707106781186548), (1., 1.), (0.707106781186548, 0.707106781186548), (1., 1.), (0.707106781186548, 0.707106781186548), (1., 1.), (0.707106781186548, 0.707106781186548), (1., 1.)))
   REPRESENTATION_ITEM ('')
   SURFACE ()
);
#119 = CARTESIAN_POINT('', (-2.5, 1.86758636869971E-15, -28.));
#120 = CARTESIAN_POINT('', (-2.5, 1.75656406623719E-15, -42.5));
#121 = CARTESIAN_POINT('', (-2.5, 2.5, -28.));
#122 = CARTESIAN_POINT('', (-2.5, 2.5, -42.5));
#123 = CARTESIAN_POINT('', (4.37749040487361E-16, 2.5, -28.));
#124 = CARTESIAN_POINT('', (4.37749040487361E-16, 2.5, -42.5));
#125 = CARTESIAN_POINT('', (2.5, 2.5, -28.));
#126 = CARTESIAN_POINT('', (2.5, 2.5, -42.5));
#127 = CARTESIAN_POINT('', (2.5, -4.51201644287715E-16, -28.));
#128 = CARTESIAN_POINT('', (2.5, -5.62223946750231E-16, -42.5));
#129 = CARTESIAN_POINT('', (2.5, -2.5, -28.));
#130 = CARTESIAN_POINT('', (2.5, -2.5, -42.5));
#131 = CARTESIAN_POINT('', (-1.57487727271323E-15, -2.5, -28.));
#132 = CARTESIAN_POINT('', (-1.57487727271323E-15, -2.5, -42.5));
#133 = CARTESIAN_POINT('', (-2.5, -2.5, -28.));
#134 = CARTESIAN_POINT('', (-2.5, -2.5, -42.5));
#135 = CARTESIAN_POINT('', (-2.5, 1.86758636869971E-15, -28.));
#136 = CARTESIAN_POINT('', (-2.5, 1.75656406623719E-15, -42.5));
#137 = ADVANCED_FACE('', (#138), #141, .T.);
#138 = FACE_OUTER_BOUND('', #139, .T.);
#139 = EDGE_LOOP('', (#140));
#140 = ORIENTED_EDGE('', *, *, #102, .T.);
#141 = B_SPLINE_SURFACE_WITH_KNOTS('', 1, 1, ((#142, #143), (#144, #145)), .UNSPECIFIED., .F., .F., .U., (2, 2), (2, 2), (0.492573906602459, 0.542081279091775), (0.457918720908224, 0.50742609339754), .UNSPECIFIED.);
#142 = CARTESIAN_POINT('', (-2.50000000000001, 2.50000000000002, -42.5));
#143 = CARTESIAN_POINT('', (-2.50000000000001, -2.49999999999998, -42.5));
#144 = CARTESIAN_POINT('', (2.49999999999999, 2.50000000000002, -42.5));
#145 = CARTESIAN_POINT('', (2.49999999999999, -2.49999999999998, -42.5));
#146 = DRAUGHTING_MODEL('', (#154, #278, #326, #331, #336, #341, #346, #351), #365);
#147 = PRESENTATION_STYLE_ASSIGNMENT((#148));
#148 = SURFACE_STYLE_USAGE(.POSITIVE., #149);
#149 = SURFACE_SIDE_STYLE('', (#150));
#150 = SURFACE_STYLE_FILL_AREA(#151);
#151 = FILL_AREA_STYLE('', (#152));
#152 = FILL_AREA_STYLE_COLOUR('', #153);
#153 = COLOUR_RGB('', 0.50196078431373, 0.50196078431373, 0.50196078431373);
#154 = STYLED_ITEM('', (#147), #1);
#155 = MANIFOLD_SOLID_BREP('CUT', #156);
#156 = CLOSED_SHELL('', (#157, #174, #213, #262));
#157 = ADVANCED_FACE('', (#158), #169, .T.);
#158 = FACE_OUTER_BOUND('', #159, .T.);
#159 = EDGE_LOOP('', (#160));
#160 = ORIENTED_EDGE('', *, *, #161, .F.);
#161 = EDGE_CURVE('', #162, #162, #164, .T.);
#162 = VERTEX_POINT('', #163);
#163 = CARTESIAN_POINT('', (-2.5, 2.75545529808154E-15, -42.5));
#164 = CIRCLE('', #165, 2.5);
#165 = AXIS2_PLACEMENT_3D('', #166, #167, #168);
#166 = CARTESIAN_POINT('', (6.93889390390723E-18, 8.32667268468867E-16, -42.5));
#167 = DIRECTION('', (-7.4399866934685E-30, -9.67343588955983E-15, -1.));
#168 = DIRECTION('', (-1., 7.69115211845069E-16, 0.));
#169 = B_SPLINE_SURFACE_WITH_KNOTS('', 1, 1, ((#170, #171), (#172, #173)), .UNSPECIFIED., .F., .F., .U., (2, 2), (2, 2), (0.457918720908225, 0.507426093397541), (0.492573906602459, 0.542081279091776), .UNSPECIFIED.);
#170 = CARTESIAN_POINT('', (-2.5, 2.5, -42.5));
#171 = CARTESIAN_POINT('', (2.5, 2.5, -42.5));
#172 = CARTESIAN_POINT('', (-2.5, -2.5, -42.5));
#173 = CARTESIAN_POINT('', (2.5, -2.5, -42.5));
#174 = ADVANCED_FACE('', (#175), #194, .T.);
#175 = FACE_OUTER_BOUND('', #176, .T.);
#176 = EDGE_LOOP('', (#177, #178, #186, #193));
#177 = ORIENTED_EDGE('', *, *, #161, .T.);
#178 = ORIENTED_EDGE('', *, *, #179, .T.);
#179 = EDGE_CURVE('', #162, #180, #182, .T.);
#180 = VERTEX_POINT('', #181);
#181 = CARTESIAN_POINT('', (-2.5, 3.18408167778312E-15, -49.5));
#182 = LINE('', #183, #184);
#183 = CARTESIAN_POINT('', (-2.5, 2.75545529808154E-15, -42.5));
#184 = VECTOR('', #185, 7.);
#185 = DIRECTION('', (0., 4.28626379701581E-16, -7.));
#186 = ORIENTED_EDGE('', *, *, #187, .F.);
#187 = EDGE_CURVE('', #180, #180, #188, .T.);
#188 = CIRCLE('', #189, 2.5);
#189 = AXIS2_PLACEMENT_3D('', #190, #191, #192);
#190 = CARTESIAN_POINT('', (-1.94289029309402E-16, 9.43689570931383E-16, -49.5));
#191 = DIRECTION('', (0., 0., -1.));
#192 = DIRECTION('', (-1., 8.96156842740695E-16, 0.));
#193 = ORIENTED_EDGE('', *, *, #179, .F.);
#194 = (
   BOUNDED_SURFACE ()
   B_SPLINE_SURFACE (2, 1, ((#195, #196), (#197, #198), (#199, #200), (#201, #202), (#203, #204), (#205, #206), (#207, #208), (#209, #210), (#211, #212)), .UNSPECIFIED., .T., .F., .U.)
   B_SPLINE_SURFACE_WITH_KNOTS ((3, 2, 2, 2, 3), (2, 2), (0., 3.92699081698725, 7.8539816339745, 11.7809724509618, 15.707963267949), (0.674418604651163, 1.), .UNSPECIFIED.)
   GEOMETRIC_REPRESENTATION_ITEM ()
   RATIONAL_B_SPLINE_SURFACE (((1., 1.), (0.707106781186548, 0.707106781186548), (1., 1.), (0.707106781186548, 0.707106781186548), (1., 1.), (0.707106781186548, 0.707106781186548), (1., 1.), (0.707106781186548, 0.707106781186548), (1., 1.)))
   REPRESENTATION_ITEM ('')
   SURFACE ()
);
#195 = CARTESIAN_POINT('', (-2.5, 2.75545529808154E-15, -42.5));
#196 = CARTESIAN_POINT('', (-2.5, 3.25505565916286E-15, -49.5));
#197 = CARTESIAN_POINT('', (-2.5, 2.5, -42.5));
#198 = CARTESIAN_POINT('', (-2.5, 2.5, -49.5));
#199 = CARTESIAN_POINT('', (1.54766257479422E-15, 2.5, -42.5));
#200 = CARTESIAN_POINT('', (1.54766257479422E-15, 2.5, -49.5));
#201 = CARTESIAN_POINT('', (2.5, 2.5, -42.5));
#202 = CARTESIAN_POINT('', (2.5, 2.5, -49.5));
#203 = CARTESIAN_POINT('', (2.5, -1.56111517859458E-15, -42.5));
#204 = CARTESIAN_POINT('', (2.5, -1.06151481751326E-15, -49.5));
#205 = CARTESIAN_POINT('', (2.5, -2.5, -42.5));
#206 = CARTESIAN_POINT('', (2.5, -2.5, -49.5));
#207 = CARTESIAN_POINT('', (-2.46274620209506E-15, -2.5, -42.5));
#208 = CARTESIAN_POINT('', (-2.46274620209506E-15, -2.5, -49.5));
#209 = CARTESIAN_POINT('', (-2.5, -2.5, -42.5));
#210 = CARTESIAN_POINT('', (-2.5, -2.5, -49.5));
#211 = CARTESIAN_POINT('', (-2.5, 2.75545529808154E-15, -42.5));
#212 = CARTESIAN_POINT('', (-2.5, 3.25505565916286E-15, -49.5));
#213 = ADVANCED_FACE('', (#214), #234, .T.);
#214 = FACE_OUTER_BOUND('', #215, .T.);
#215 = EDGE_LOOP('', (#216, #225, #226, #227));
#216 = ORIENTED_EDGE('', *, *, #217, .F.);
#217 = EDGE_CURVE('', #180, #218, #220, .T.);
#218 = VERTEX_POINT('', #219);
#219 = CARTESIAN_POINT('', (-2., 3.18408167778312E-15, -50.));
#220 = CIRCLE('', #221, 0.499999999999976);
#221 = AXIS2_PLACEMENT_3D('', #222, #223, #224);
#222 = CARTESIAN_POINT('', (-2.00000000000002, 3.15346550780444E-15, -49.5));
#223 = DIRECTION('', (-6.1232339957361E-17, -1., -6.12323399573614E-17));
#224 = DIRECTION('', (-1., 6.12323399573593E-17, 2.84217094304053E-14));
#225 = ORIENTED_EDGE('', *, *, #187, .T.);
#226 = ORIENTED_EDGE('', *, *, #217, .T.);
#227 = ORIENTED_EDGE('', *, *, #228, .F.);
#228 = EDGE_CURVE('', #218, #218, #229, .T.);
#229 = CIRCLE('', #230, 2.);
#230 = AXIS2_PLACEMENT_3D('', #231, #232, #233);
#231 = CARTESIAN_POINT('', (1.31838984174237E-16, 1.55431223447522E-15, -50.));
#232 = DIRECTION('', (0., 0., -1.));
#233 = DIRECTION('', (-1., 8.14884721653951E-16, 0.));
#234 = (
   BOUNDED_SURFACE ()
   B_SPLINE_SURFACE (2, 2, ((#235, #236, #237), (#238, #239, #240), (#241, #242, #243), (#244, #245, #246), (#247, #248, #249), (#250, #251, #252), (#253, #254, #255), (#256, #257, #258), (#259, #260, #261)), .UNSPECIFIED., .T., .F., .U.)
   B_SPLINE_SURFACE_WITH_KNOTS ((3, 2, 2, 2, 3), (3, 3), (0., 0.25, 0.5, 0.75, 1.), (0., 1.), .UNSPECIFIED.)
   GEOMETRIC_REPRESENTATION_ITEM ()
   RATIONAL_B_SPLINE_SURFACE (((1., 0.707106781186548, 1.), (0.707106781186548, 0.5, 0.707106781186548), (1., 0.707106781186548, 1.), (0.707106781186548, 0.5, 0.707106781186548), (1., 0.707106781186548, 1.), (0.707106781186548, 0.5, 0.707106781186548), (1., 0.707106781186548, 1.), (0.707106781186548, 0.5, 0.707106781186548), (1., 0.707106781186548, 1.)))
   REPRESENTATION_ITEM ('')
   SURFACE ()
);
#235 = CARTESIAN_POINT('', (-2.5, 3.18408167778312E-15, -49.5));
#236 = CARTESIAN_POINT('', (-2.5, 3.2146978477618E-15, -50.));
#237 = CARTESIAN_POINT('', (-2., 3.18408167778312E-15, -50.));
#238 = CARTESIAN_POINT('', (-2.5, 2.5, -49.5));
#239 = CARTESIAN_POINT('', (-2.5, 2.5, -50.));
#240 = CARTESIAN_POINT('', (-2., 2., -50.));
#241 = CARTESIAN_POINT('', (3.30161769014208E-15, 2.5, -49.5));
#242 = CARTESIAN_POINT('', (3.33223386012076E-15, 2.5, -50.));
#243 = CARTESIAN_POINT('', (3.33223386012077E-15, 2., -50.));
#244 = CARTESIAN_POINT('', (2.5, 2.5, -49.5));
#245 = CARTESIAN_POINT('', (2.5, 2.5, -50.));
#246 = CARTESIAN_POINT('', (2., 2., -50.));
#247 = CARTESIAN_POINT('', (2.5, -3.65507609523389E-15, -49.5));
#248 = CARTESIAN_POINT('', (2.5, -3.68569226521257E-15, -50.));
#249 = CARTESIAN_POINT('', (2., -3.71630843519126E-15, -50.));
#250 = CARTESIAN_POINT('', (2.5, -2.5, -49.5));
#251 = CARTESIAN_POINT('', (2.5, -2.5, -50.));
#252 = CARTESIAN_POINT('', (2., -2., -50.));
#253 = CARTESIAN_POINT('', (-3.23137838308809E-15, -2.5, -49.5));
#254 = CARTESIAN_POINT('', (-3.26199455306677E-15, -2.5, -50.));
#255 = CARTESIAN_POINT('', (-3.32322689302414E-15, -2., -50.));
#256 = CARTESIAN_POINT('', (-2.5, -2.5, -49.5));
#257 = CARTESIAN_POINT('', (-2.5, -2.5, -50.));
#258 = CARTESIAN_POINT('', (-2., -2., -50.));
#259 = CARTESIAN_POINT('', (-2.5, 3.18408167778312E-15, -49.5));
#260 = CARTESIAN_POINT('', (-2.5, 3.2146978477618E-15, -50.));
#261 = CARTESIAN_POINT('', (-2., 3.18408167778312E-15, -50.));
#262 = ADVANCED_FACE('', (#263), #266, .T.);
#263 = FACE_OUTER_BOUND('', #264, .T.);
#264 = EDGE_LOOP('', (#265));
#265 = ORIENTED_EDGE('', *, *, #228, .T.);
#266 = B_SPLINE_SURFACE_WITH_KNOTS('', 1, 1, ((#267, #268), (#269, #270)), .UNSPECIFIED., .F., .F., .U., (2, 2), (2, 2), (0.0454545454545455, 0.954545454545454), (0.0454545454545454, 0.954545454545454), .UNSPECIFIED.);
#267 = CARTESIAN_POINT('', (2., -2., -50.));
#268 = CARTESIAN_POINT('', (2., 2., -50.));
#269 = CARTESIAN_POINT('', (-2., -2., -50.));
#270 = CARTESIAN_POINT('', (-2., 2., -50.));
#271 = PRESENTATION_STYLE_ASSIGNMENT((#272));
#272 = SURFACE_STYLE_USAGE(.POSITIVE., #273);
#273 = SURFACE_SIDE_STYLE('', (#274));
#274 = SURFACE_STYLE_FILL_AREA(#275);
#275 = FILL_AREA_STYLE('', (#276));
#276 = FILL_AREA_STYLE_COLOUR('', #277);
#277 = COLOUR_RGB('', 0.8, 0.8, 0.8);
#278 = STYLED_ITEM('', (#271), #155);
#279 = TRIMMED_CURVE('cutting part line', #280, (#284), (#285), .T., .CARTESIAN.);
#280 = LINE('', #281, #282);
#281 = CARTESIAN_POINT('', (1.73472347597681E-16, 0., -50.));
#282 = VECTOR('', #283, 2.);
#283 = DIRECTION('', (2., 0., 0.));
#284 = CARTESIAN_POINT('', (1.73472347597681E-16, 0., -50.));
#285 = CARTESIAN_POINT('', (2., 0., -50.));
#286 = TRIMMED_CURVE('cutting part line', #287, (#292), (#293), .T., .CARTESIAN.);
#287 = CIRCLE('', #288, 0.500000000000001);
#288 = AXIS2_PLACEMENT_3D('', #289, #290, #291);
#289 = CARTESIAN_POINT('', (2., -6.33438869677928E-16, -49.5));
#290 = DIRECTION('', (1.60982338570648E-15, -1., 5.5511151231258E-17));
#291 = DIRECTION('', (3.5527136788005E-15, -5.55111512312523E-17, -1.));
#292 = CARTESIAN_POINT('', (2., -6.61194445293554E-16, -50.));
#293 = CARTESIAN_POINT('', (2.5, 1.71472823175312E-16, -49.5));
#294 = TRIMMED_CURVE('cutting part line', #295, (#299), (#300), .T., .CARTESIAN.);
#295 = LINE('', #296, #297);
#296 = CARTESIAN_POINT('', (2.5, 4.99524269526459E-16, -49.5));
#297 = VECTOR('', #298, 7.);
#298 = DIRECTION('', (0., -4.99524269526459E-16, 7.));
#299 = CARTESIAN_POINT('', (2.5, 4.99524269526459E-16, -49.5));
#300 = CARTESIAN_POINT('', (2.5, 0., -42.5));
#301 = TRIMMED_CURVE('cutting part line', #302, (#306), (#307), .T., .CARTESIAN.);
#302 = LINE('', #303, #304);
#303 = CARTESIAN_POINT('', (2.5, 0., -42.5));
#304 = VECTOR('', #305, 2.5);
#305 = DIRECTION('', (-2.5, 0., 7.105427357601E-15));
#306 = CARTESIAN_POINT('', (2.5, 0., -42.5));
#307 = CARTESIAN_POINT('', (0., 0., -42.5));
#308 = TRIMMED_CURVE('cutting part line', #309, (#313), (#314), .T., .CARTESIAN.);
#309 = LINE('', #310, #311);
#310 = CARTESIAN_POINT('', (0., 0., -42.5));
#311 = VECTOR('', #312, 7.50000000000001);
#312 = DIRECTION('', (0., 0., -7.50000000000001));
#313 = CARTESIAN_POINT('', (0., 0., -42.5));
#314 = CARTESIAN_POINT('', (0., 0., -50.));
#315 = COMPOSITE_CURVE('cutting part line', (#316, #317, #318, #319, #320), .U.);
#316 = COMPOSITE_CURVE_SEGMENT(.CONTINUOUS., .T., #279);
#317 = COMPOSITE_CURVE_SEGMENT(.CONTINUOUS., .T., #286);
#318 = COMPOSITE_CURVE_SEGMENT(.CONTINUOUS., .T., #294);
#319 = COMPOSITE_CURVE_SEGMENT(.CONTINUOUS., .T., #301);
#320 = COMPOSITE_CURVE_SEGMENT(.CONTINUOUS., .T., #308);
#321 = GEOMETRIC_SET('', (#315, #364));
#322 = PRESENTATION_STYLE_ASSIGNMENT((#323));
#323 = CURVE_STYLE('', #325, POSITIVE_LENGTH_MEASURE(1.E-6), #324);
#324 = COLOUR_RGB('', 0., 0., 1.);
#325 = DRAUGHTING_PRE_DEFINED_CURVE_FONT('continuous');
#326 = STYLED_ITEM('', (#322), #315);
#327 = PRESENTATION_STYLE_ASSIGNMENT((#328));
#328 = CURVE_STYLE('', #330, POSITIVE_LENGTH_MEASURE(1.E-6), #329);
#329 = COLOUR_RGB('', 0., 0., 1.);
#330 = DRAUGHTING_PRE_DEFINED_CURVE_FONT('continuous');
#331 = OVER_RIDING_STYLED_ITEM('', (#327), #279, #326);
#332 = PRESENTATION_STYLE_ASSIGNMENT((#333));
#333 = CURVE_STYLE('', #335, POSITIVE_LENGTH_MEASURE(1.E-6), #334);
#334 = COLOUR_RGB('', 0., 0., 1.);
#335 = DRAUGHTING_PRE_DEFINED_CURVE_FONT('continuous');
#336 = OVER_RIDING_STYLED_ITEM('', (#332), #286, #326);
#337 = PRESENTATION_STYLE_ASSIGNMENT((#338));
#338 = CURVE_STYLE('', #340, POSITIVE_LENGTH_MEASURE(1.E-6), #339);
#339 = COLOUR_RGB('', 0., 0., 1.);
#340 = DRAUGHTING_PRE_DEFINED_CURVE_FONT('continuous');
#341 = OVER_RIDING_STYLED_ITEM('', (#337), #294, #326);
#342 = PRESENTATION_STYLE_ASSIGNMENT((#343));
#343 = CURVE_STYLE('', #345, POSITIVE_LENGTH_MEASURE(1.E-6), #344);
#344 = COLOUR_RGB('', 0., 0., 1.);
#345 = DRAUGHTING_PRE_DEFINED_CURVE_FONT('continuous');
#346 = OVER_RIDING_STYLED_ITEM('', (#342), #301, #326);
#347 = PRESENTATION_STYLE_ASSIGNMENT((#348));
#348 = CURVE_STYLE('', #350, POSITIVE_LENGTH_MEASURE(1.E-6), #349);
#349 = COLOUR_RGB('', 0., 0., 1.);
#350 = DRAUGHTING_PRE_DEFINED_CURVE_FONT('continuous');
#351 = OVER_RIDING_STYLED_ITEM('', (#347), #308, #326);
#352 = AXIS2_PLACEMENT_3D('MCS', #353, #354, #355);
#353 = CARTESIAN_POINT('', (0., 0., -28.));
#354 = DIRECTION('', (0., 0., 1.));
#355 = DIRECTION('', (1., 0., 0.));
#356 = AXIS2_PLACEMENT_3D('PCS', #357, #358, #359);
#357 = CARTESIAN_POINT('', (0., 0., 0.));
#358 = DIRECTION('', (0., 0., 1.));
#359 = DIRECTION('', (1., 0., 0.));
#360 = AXIS2_PLACEMENT_3D('CIP', #361, #362, #363);
#361 = CARTESIAN_POINT('', (0., 0., -50.));
#362 = DIRECTION('', (0., 0., 1.));
#363 = DIRECTION('', (1., 0., 0.));
#364 = CARTESIAN_POINT('CRP', (2.5, 0., -50.));
#365 = (
   GEOMETRIC_REPRESENTATION_CONTEXT (3)
   GLOBAL_UNCERTAINTY_ASSIGNED_CONTEXT ((#367))
   GLOBAL_UNIT_ASSIGNED_CONTEXT ((#366, #368, #369))
   REPRESENTATION_CONTEXT ('', '3D')
);
#366 = (
   LENGTH_UNIT ()
   NAMED_UNIT (*)
   SI_UNIT (.MILLI., .METRE.)
);
#367 = UNCERTAINTY_MEASURE_WITH_UNIT(LENGTH_MEASURE(1.E-6), #366, 'DISTANCE_ACCURACY_VALUE', '');
#368 = (
   NAMED_UNIT (*)
   SI_UNIT ($, .STERADIAN.)
   SOLID_ANGLE_UNIT ()
);
#369 = (
   NAMED_UNIT (*)
   PLANE_ANGLE_UNIT ()
   SI_UNIT ($, .RADIAN.)
);
#370 = SHAPE_REPRESENTATION('', (), #365);
#371 = PRODUCT_DEFINITION_SHAPE('', '', #372);
#372 = PRODUCT_DEFINITION('', '', #375, #379);
#373 = APPLICATION_CONTEXT('configuration controlled 3D designs of mechanical parts and assemblies');
#374 = APPLICATION_PROTOCOL_DEFINITION('International Standard', 'automotive_design', 2002, #373);
#375 = PRODUCT_DEFINITION_FORMATION_WITH_SPECIFIED_SOURCE('', '', #376, .NOT_KNOWN.);
#376 = PRODUCT('product-name', '2S220-0500-050-NC   H10F', '', (#377));
#377 = PRODUCT_CONTEXT('', #373, 'mechanical');
#378 = PRODUCT_RELATED_PRODUCT_CATEGORY('detail', '', (#376));
#379 = PRODUCT_DEFINITION_CONTEXT('part definition', #373, 'design');
#380 = SHAPE_DEFINITION_REPRESENTATION(#371, #370);
#381 = CONSTRUCTIVE_GEOMETRY_REPRESENTATION('supplemental geometry', (#352, #356, #360), #365);
#382 = CONSTRUCTIVE_GEOMETRY_REPRESENTATION_RELATIONSHIP('', '', #370, #381);
#383 = SHAPE_REPRESENTATION_RELATIONSHIP('', '', #370, #384);
#384 = SHAPE_REPRESENTATION('', (#321), #365);
#385 = SHAPE_REPRESENTATION_RELATIONSHIP('', '', #370, #386);
#386 = ADVANCED_BREP_SHAPE_REPRESENTATION('', (#1, #155), #365);
ENDSEC;
END-ISO-10303-21;
