ISO-10303-21;
HEADER;
FILE_DESCRIPTION(('STEP'), '1');
FILE_NAME('C:\\Users\\ds2002\\OneDrive - Sandvik\\HomeShare\\Documents\\Batchrepair\\CorSRT2\\NEW_MILSQ_SLD\\Output\\MOD000000000000000020082327000000.stp', '2019-01-02T12:08:01', (''), (''), 'Express v3.0.0.0', 'Express Tool', 'Unknown');
FILE_SCHEMA(('AUTOMOTIVE_DESIGN'));
ENDSEC;

DATA;
#1 = MANIFOLD_SOLID_BREP('NOCUT', #2);
#2 = CLOSED_SHELL('', (#3, #50, #89, #98, #137));
#3 = ADVANCED_FACE('', (#4), #31, .T.);
#4 = FACE_OUTER_BOUND('', #5, .T.);
#5 = EDGE_LOOP('', (#6, #16, #23, #24));
#6 = ORIENTED_EDGE('', *, *, #7, .T.);
#7 = EDGE_CURVE('', #8, #10, #12, .T.);
#8 = VERTEX_POINT('', #9);
#9 = CARTESIAN_POINT('', (-2., 2.44929359829471E-15, -38.));
#10 = VERTEX_POINT('', #11);
#11 = CARTESIAN_POINT('', (-2., 1.34711147906209E-16, -0.200000000000003));
#12 = LINE('', #13, #14);
#13 = CARTESIAN_POINT('', (-2., 2.44929359829471E-15, -38.));
#14 = VECTOR('', #15, 37.8);
#15 = DIRECTION('', (0., -2.3145824503885E-15, 37.8));
#16 = ORIENTED_EDGE('', *, *, #17, .T.);
#17 = EDGE_CURVE('', #10, #10, #18, .T.);
#18 = CIRCLE('', #19, 2.);
#19 = AXIS2_PLACEMENT_3D('', #20, #21, #22);
#20 = CARTESIAN_POINT('', (-1.04083408558608E-16, -6.66133814775094E-16, -0.200000000000003));
#21 = DIRECTION('', (1.38777878078145E-17, 2.08473661697978E-18, -1.));
#22 = DIRECTION('', (-1., 4.00422481340651E-16, -1.38777878078145E-17));
#23 = ORIENTED_EDGE('', *, *, #7, .F.);
#24 = ORIENTED_EDGE('', *, *, #25, .F.);
#25 = EDGE_CURVE('', #8, #8, #26, .T.);
#26 = CIRCLE('', #27, 2.);
#27 = AXIS2_PLACEMENT_3D('', #28, #29, #30);
#28 = CARTESIAN_POINT('', (6.24500451351651E-17, 1.60982338570648E-15, -38.));
#29 = DIRECTION('', (0., 0., -1.));
#30 = DIRECTION('', (-1., 4.19735106294117E-16, 0.));
#31 = (
   BOUNDED_SURFACE ()
   B_SPLINE_SURFACE (1, 2, ((#32, #33, #34, #35, #36, #37, #38, #39, #40), (#41, #42, #43, #44, #45, #46, #47, #48, #49)), .UNSPECIFIED., .F., .T., .U.)
   B_SPLINE_SURFACE_WITH_KNOTS ((2, 2), (3, 2, 2, 2, 3), (0., 1.), (0., 3.1415926535898, 6.2831853071796, 9.4247779607694, 12.5663706143592), .UNSPECIFIED.)
   GEOMETRIC_REPRESENTATION_ITEM ()
   RATIONAL_B_SPLINE_SURFACE (((1., 0.707106781186548, 1., 0.707106781186548, 1., 0.707106781186548, 1., 0.707106781186548, 1.), (1., 0.707106781186548, 1., 0.707106781186548, 1., 0.707106781186548, 1., 0.707106781186548, 1.)))
   REPRESENTATION_ITEM ('')
   SURFACE ()
);
#32 = CARTESIAN_POINT('', (-2., 8.00844962681303E-16, -38.));
#33 = CARTESIAN_POINT('', (-2., 2., -38.));
#34 = CARTESIAN_POINT('', (1.09887725334335E-15, 2., -38.));
#35 = CARTESIAN_POINT('', (2., 2., -38.));
#36 = CARTESIAN_POINT('', (2., -5.55915602851833E-16, -38.));
#37 = CARTESIAN_POINT('', (2., -2., -38.));
#38 = CARTESIAN_POINT('', (-1.29539523603188E-17, -2., -38.));
#39 = CARTESIAN_POINT('', (-2., -2., -38.));
#40 = CARTESIAN_POINT('', (-2., 8.00844962681303E-16, -38.));
#41 = CARTESIAN_POINT('', (-2., 1.34711147906209E-16, -0.200000000000003));
#42 = CARTESIAN_POINT('', (-2., 2., -0.200000000000003));
#43 = CARTESIAN_POINT('', (5.74296874207959E-16, 2., -0.200000000000003));
#44 = CARTESIAN_POINT('', (2., 2., -0.200000000000003));
#45 = CARTESIAN_POINT('', (2., -1.22204941762693E-15, -0.200000000000003));
#46 = CARTESIAN_POINT('', (2., -2., -0.200000000000003));
#47 = CARTESIAN_POINT('', (-5.37534331495705E-16, -2., -0.200000000000003));
#48 = CARTESIAN_POINT('', (-2., -2., -0.200000000000003));
#49 = CARTESIAN_POINT('', (-2., 1.34711147906209E-16, -0.200000000000003));
#50 = ADVANCED_FACE('', (#51), #70, .T.);
#51 = FACE_OUTER_BOUND('', #52, .T.);
#52 = EDGE_LOOP('', (#53, #61, #68, #69));
#53 = ORIENTED_EDGE('', *, *, #54, .T.);
#54 = EDGE_CURVE('', #10, #55, #57, .T.);
#55 = VERTEX_POINT('', #56);
#56 = CARTESIAN_POINT('', (-1.8, 1.10218211923262E-16, 0.));
#57 = LINE('', #58, #59);
#58 = CARTESIAN_POINT('', (-2., 1.34711147906209E-16, -0.200000000000003));
#59 = VECTOR('', #60, 0.282842712474621);
#60 = DIRECTION('', (0.2, -2.4492935982947E-17, 0.200000000000003));
#61 = ORIENTED_EDGE('', *, *, #62, .T.);
#62 = EDGE_CURVE('', #55, #55, #63, .T.);
#63 = CIRCLE('', #64, 1.8);
#64 = AXIS2_PLACEMENT_3D('', #65, #66, #67);
#65 = CARTESIAN_POINT('', (-2.08166817117217E-17, -1.66533453693773E-16, -7.78751025318189E-16));
#66 = DIRECTION('', (-4.32639458510105E-16, 1.26401621069751E-15, -1.));
#67 = DIRECTION('', (-1., 1.53750925342797E-16, 4.32639458510105E-16));
#68 = ORIENTED_EDGE('', *, *, #54, .F.);
#69 = ORIENTED_EDGE('', *, *, #17, .F.);
#70 = (
   BOUNDED_SURFACE ()
   B_SPLINE_SURFACE (1, 2, ((#71, #72, #73, #74, #75, #76, #77, #78, #79), (#80, #81, #82, #83, #84, #85, #86, #87, #88)), .UNSPECIFIED., .F., .T., .U.)
   B_SPLINE_SURFACE_WITH_KNOTS ((2, 2), (3, 2, 2, 2, 3), (0., 1.), (0., 0.25, 0.5, 0.75, 1.), .UNSPECIFIED.)
   GEOMETRIC_REPRESENTATION_ITEM ()
   RATIONAL_B_SPLINE_SURFACE (((1., 0.707106781186548, 1., 0.707106781186548, 1., 0.707106781186548, 1., 0.707106781186548, 1.), (1., 0.707106781186548, 1., 0.707106781186548, 1., 0.707106781186548, 1., 0.707106781186548, 1.)))
   REPRESENTATION_ITEM ('')
   SURFACE ()
);
#71 = CARTESIAN_POINT('', (-2., -1.02476577886459E-15, -0.200000000000002));
#72 = CARTESIAN_POINT('', (-2., 2., -0.200000000000014));
#73 = CARTESIAN_POINT('', (7.76925973571109E-17, 2., -0.200000000000015));
#74 = CARTESIAN_POINT('', (2., 2., -0.200000000000016));
#75 = CARTESIAN_POINT('', (2., -1.39484012040631E-15, -0.200000000000004));
#76 = CARTESIAN_POINT('', (2., -2., -0.199999999999992));
#77 = CARTESIAN_POINT('', (-4.7452384355128E-17, -2., -0.199999999999991));
#78 = CARTESIAN_POINT('', (-2., -2., -0.19999999999999));
#79 = CARTESIAN_POINT('', (-2., -1.02476577886459E-15, -0.200000000000002));
#80 = CARTESIAN_POINT('', (-1.8, 1.10218211923262E-16, 0.));
#81 = CARTESIAN_POINT('', (-1.8, 1.8, -1.04916075827076E-14));
#82 = CARTESIAN_POINT('', (1.45716771982047E-16, 1.8, -1.12703586080258E-14));
#83 = CARTESIAN_POINT('', (1.8, 1.8, -1.2049109633344E-14));
#84 = CARTESIAN_POINT('', (1.8, -2.22848695464285E-16, -1.55750205063638E-15));
#85 = CARTESIAN_POINT('', (1.8, -1.8, 8.93410553207123E-15));
#86 = CARTESIAN_POINT('', (3.30862884410328E-17, -1.8, 9.71285655738942E-15));
#87 = CARTESIAN_POINT('', (-1.8, -1.8, 1.04916075827076E-14));
#88 = CARTESIAN_POINT('', (-1.8, 1.10218211923262E-16, 0.));
#89 = ADVANCED_FACE('', (#90), #93, .T.);
#90 = FACE_OUTER_BOUND('', #91, .T.);
#91 = EDGE_LOOP('', (#92));
#92 = ORIENTED_EDGE('', *, *, #62, .F.);
#93 = B_SPLINE_SURFACE_WITH_KNOTS('', 1, 1, ((#94, #95), (#96, #97)), .UNSPECIFIED., .F., .F., .U., (2, 2), (2, 2), (0.0454545454545454, 0.954545454545455), (0.0454545454545454, 0.954545454545454), .UNSPECIFIED.);
#94 = CARTESIAN_POINT('', (1.8, -1.8, -1.10218211923262E-16));
#95 = CARTESIAN_POINT('', (-1.8, -1.8, -1.10218211923262E-16));
#96 = CARTESIAN_POINT('', (1.8, 1.8, 1.10218211923262E-16));
#97 = CARTESIAN_POINT('', (-1.8, 1.8, 1.10218211923262E-16));
#98 = ADVANCED_FACE('', (#99), #118, .T.);
#99 = FACE_OUTER_BOUND('', #100, .T.);
#100 = EDGE_LOOP('', (#101, #110, #116, #117));
#101 = ORIENTED_EDGE('', *, *, #102, .F.);
#102 = EDGE_CURVE('', #103, #103, #105, .T.);
#103 = VERTEX_POINT('', #104);
#104 = CARTESIAN_POINT('', (-2., 2.81668763803891E-15, -44.));
#105 = CIRCLE('', #106, 2.);
#106 = AXIS2_PLACEMENT_3D('', #107, #108, #109);
#107 = CARTESIAN_POINT('', (3.12250225675825E-16, 9.99200722162641E-16, -44.));
#108 = DIRECTION('', (0., 0., -1.));
#109 = DIRECTION('', (-1., 9.08743457938134E-16, 0.));
#110 = ORIENTED_EDGE('', *, *, #111, .F.);
#111 = EDGE_CURVE('', #8, #103, #112, .T.);
#112 = LINE('', #113, #114);
#113 = CARTESIAN_POINT('', (-2., 2.44929359829471E-15, -38.));
#114 = VECTOR('', #115, 6.);
#115 = DIRECTION('', (0., 3.673940397442E-16, -6.));
#116 = ORIENTED_EDGE('', *, *, #25, .T.);
#117 = ORIENTED_EDGE('', *, *, #111, .T.);
#118 = (
   BOUNDED_SURFACE ()
   B_SPLINE_SURFACE (2, 1, ((#119, #120), (#121, #122), (#123, #124), (#125, #126), (#127, #128), (#129, #130), (#131, #132), (#133, #134), (#135, #136)), .UNSPECIFIED., .T., .F., .U.)
   B_SPLINE_SURFACE_WITH_KNOTS ((3, 2, 2, 2, 3), (2, 2), (0., 3.1415926535898, 6.2831853071796, 9.4247779607694, 12.5663706143592), (0., 0.512820512820513), .UNSPECIFIED.)
   GEOMETRIC_REPRESENTATION_ITEM ()
   RATIONAL_B_SPLINE_SURFACE (((1., 1.), (0.707106781186548, 0.707106781186548), (1., 1.), (0.707106781186548, 0.707106781186548), (1., 1.), (0.707106781186548, 0.707106781186548), (1., 1.), (0.707106781186548, 0.707106781186548), (1., 1.)))
   REPRESENTATION_ITEM ('')
   SURFACE ()
);
#119 = CARTESIAN_POINT('', (-2., 2.44929359829471E-15, -38.));
#120 = CARTESIAN_POINT('', (-2., 2.89338280814477E-15, -44.));
#121 = CARTESIAN_POINT('', (-2., 2., -38.));
#122 = CARTESIAN_POINT('', (-2., 2., -44.));
#123 = CARTESIAN_POINT('', (2.13253988907057E-15, 2., -38.));
#124 = CARTESIAN_POINT('', (2.13253988907057E-15, 2., -44.));
#125 = CARTESIAN_POINT('', (2., 2., -38.));
#126 = CARTESIAN_POINT('', (2., 2., -44.));
#127 = CARTESIAN_POINT('', (2., -2.20436423846524E-15, -38.));
#128 = CARTESIAN_POINT('', (2., -1.76027502861518E-15, -44.));
#129 = CARTESIAN_POINT('', (2., -2., -38.));
#130 = CARTESIAN_POINT('', (2., -2., -44.));
#131 = CARTESIAN_POINT('', (-2.27618858785991E-15, -2., -38.));
#132 = CARTESIAN_POINT('', (-2.27618858785991E-15, -2., -44.));
#133 = CARTESIAN_POINT('', (-2., -2., -38.));
#134 = CARTESIAN_POINT('', (-2., -2., -44.));
#135 = CARTESIAN_POINT('', (-2., 2.44929359829471E-15, -38.));
#136 = CARTESIAN_POINT('', (-2., 2.89338280814477E-15, -44.));
#137 = ADVANCED_FACE('', (#138), #141, .T.);
#138 = FACE_OUTER_BOUND('', #139, .T.);
#139 = EDGE_LOOP('', (#140));
#140 = ORIENTED_EDGE('', *, *, #102, .T.);
#141 = B_SPLINE_SURFACE_WITH_KNOTS('', 1, 1, ((#142, #143), (#144, #145)), .UNSPECIFIED., .F., .F., .U., (2, 2), (2, 2), (0.495230442531269, 0.534976870565275), (0.465023129434725, 0.50476955746873), .UNSPECIFIED.);
#142 = CARTESIAN_POINT('', (-2.00000000000001, 2.00000000000002, -44.));
#143 = CARTESIAN_POINT('', (-2.00000000000001, -1.99999999999998, -44.));
#144 = CARTESIAN_POINT('', (1.99999999999999, 2.00000000000002, -44.));
#145 = CARTESIAN_POINT('', (1.99999999999999, -1.99999999999998, -44.));
#146 = DRAUGHTING_MODEL('', (#154, #278, #326, #331, #336, #341, #346, #351), #365);
#147 = PRESENTATION_STYLE_ASSIGNMENT((#148));
#148 = SURFACE_STYLE_USAGE(.POSITIVE., #149);
#149 = SURFACE_SIDE_STYLE('', (#150));
#150 = SURFACE_STYLE_FILL_AREA(#151);
#151 = FILL_AREA_STYLE('', (#152));
#152 = FILL_AREA_STYLE_COLOUR('', #153);
#153 = COLOUR_RGB('', 0.50196078431373, 0.50196078431373, 0.50196078431373);
#154 = STYLED_ITEM('', (#147), #1);
#155 = MANIFOLD_SOLID_BREP('CUT', #156);
#156 = CLOSED_SHELL('', (#157, #174, #213, #262));
#157 = ADVANCED_FACE('', (#158), #169, .T.);
#158 = FACE_OUTER_BOUND('', #159, .T.);
#159 = EDGE_LOOP('', (#160));
#160 = ORIENTED_EDGE('', *, *, #161, .F.);
#161 = EDGE_CURVE('', #162, #162, #164, .T.);
#162 = VERTEX_POINT('', #163);
#163 = CARTESIAN_POINT('', (-2., 2.81668763803891E-15, -44.));
#164 = CIRCLE('', #165, 2.);
#165 = AXIS2_PLACEMENT_3D('', #166, #167, #168);
#166 = CARTESIAN_POINT('', (3.12250225675825E-16, 9.99200722162641E-16, -44.));
#167 = DIRECTION('', (0., 0., -1.));
#168 = DIRECTION('', (-1., 9.08743457938134E-16, 0.));
#169 = B_SPLINE_SURFACE_WITH_KNOTS('', 1, 1, ((#170, #171), (#172, #173)), .UNSPECIFIED., .F., .F., .U., (2, 2), (2, 2), (0.465023129434725, 0.50476955746873), (0.49523044253127, 0.534976870565275), .UNSPECIFIED.);
#170 = CARTESIAN_POINT('', (-2., 2., -44.));
#171 = CARTESIAN_POINT('', (2., 2., -44.));
#172 = CARTESIAN_POINT('', (-2., -1.99999999999999, -44.));
#173 = CARTESIAN_POINT('', (2., -1.99999999999999, -44.));
#174 = ADVANCED_FACE('', (#175), #194, .T.);
#175 = FACE_OUTER_BOUND('', #176, .T.);
#176 = EDGE_LOOP('', (#177, #178, #186, #193));
#177 = ORIENTED_EDGE('', *, *, #161, .T.);
#178 = ORIENTED_EDGE('', *, *, #179, .T.);
#179 = EDGE_CURVE('', #162, #180, #182, .T.);
#180 = VERTEX_POINT('', #181);
#181 = CARTESIAN_POINT('', (-2., 3.16571197579591E-15, -49.7));
#182 = LINE('', #183, #184);
#183 = CARTESIAN_POINT('', (-2., 2.81668763803891E-15, -44.));
#184 = VECTOR('', #185, 5.7);
#185 = DIRECTION('', (0., 3.49024337757E-16, -5.7));
#186 = ORIENTED_EDGE('', *, *, #187, .F.);
#187 = EDGE_CURVE('', #180, #180, #188, .T.);
#188 = CIRCLE('', #189, 2.);
#189 = AXIS2_PLACEMENT_3D('', #190, #191, #192);
#190 = CARTESIAN_POINT('', (-2.28983498828939E-16, 6.10622663543836E-16, -49.7));
#191 = DIRECTION('', (0., 0., -1.));
#192 = DIRECTION('', (-1., 1.27754465612604E-15, 0.));
#193 = ORIENTED_EDGE('', *, *, #179, .F.);
#194 = (
   BOUNDED_SURFACE ()
   B_SPLINE_SURFACE (2, 1, ((#195, #196), (#197, #198), (#199, #200), (#201, #202), (#203, #204), (#205, #206), (#207, #208), (#209, #210), (#211, #212)), .UNSPECIFIED., .T., .F., .U.)
   B_SPLINE_SURFACE_WITH_KNOTS ((3, 2, 2, 2, 3), (2, 2), (0., 3.1415926535898, 6.2831853071796, 9.4247779607694, 12.5663706143592), (0.512820512820513, 1.), .UNSPECIFIED.)
   GEOMETRIC_REPRESENTATION_ITEM ()
   RATIONAL_B_SPLINE_SURFACE (((1., 1.), (0.707106781186548, 0.707106781186548), (1., 1.), (0.707106781186548, 0.707106781186548), (1., 1.), (0.707106781186548, 0.707106781186548), (1., 1.), (0.707106781186548, 0.707106781186548), (1., 1.)))
   REPRESENTATION_ITEM ('')
   SURFACE ()
);
#195 = CARTESIAN_POINT('', (-2., 2.81668763803891E-15, -44.));
#196 = CARTESIAN_POINT('', (-2., 2.98322109173268E-15, -49.7));
#197 = CARTESIAN_POINT('', (-2., 2., -44.));
#198 = CARTESIAN_POINT('', (-2., 2., -49.7));
#199 = CARTESIAN_POINT('', (2.02808914334908E-15, 2., -44.));
#200 = CARTESIAN_POINT('', (2.02808914334908E-15, 2., -49.7));
#201 = CARTESIAN_POINT('', (2., 2., -44.));
#202 = CARTESIAN_POINT('', (2., 2., -49.7));
#203 = CARTESIAN_POINT('', (2., -1.68357985850931E-15, -44.));
#204 = CARTESIAN_POINT('', (2., -1.51704640481554E-15, -49.7));
#205 = CARTESIAN_POINT('', (2., -2., -44.));
#206 = CARTESIAN_POINT('', (2., -2., -49.7));
#207 = CARTESIAN_POINT('', (-2.22724899336967E-15, -2., -44.));
#208 = CARTESIAN_POINT('', (-2.22724899336967E-15, -2., -49.7));
#209 = CARTESIAN_POINT('', (-2., -2., -44.));
#210 = CARTESIAN_POINT('', (-2., -2., -49.7));
#211 = CARTESIAN_POINT('', (-2., 2.81668763803891E-15, -44.));
#212 = CARTESIAN_POINT('', (-2., 2.98322109173268E-15, -49.7));
#213 = ADVANCED_FACE('', (#214), #234, .T.);
#214 = FACE_OUTER_BOUND('', #215, .T.);
#215 = EDGE_LOOP('', (#216, #225, #226, #227));
#216 = ORIENTED_EDGE('', *, *, #217, .F.);
#217 = EDGE_CURVE('', #180, #218, #220, .T.);
#218 = VERTEX_POINT('', #219);
#219 = CARTESIAN_POINT('', (-1.7, 3.16571197579591E-15, -50.));
#220 = CIRCLE('', #221, 0.299999999999996);
#221 = AXIS2_PLACEMENT_3D('', #222, #223, #224);
#222 = CARTESIAN_POINT('', (-1.7, 3.1473422738087E-15, -49.7));
#223 = DIRECTION('', (-6.12323399573658E-17, -1., -6.12323399573671E-17));
#224 = DIRECTION('', (-1., 6.12323399573658E-17, 0.));
#225 = ORIENTED_EDGE('', *, *, #187, .T.);
#226 = ORIENTED_EDGE('', *, *, #217, .T.);
#227 = ORIENTED_EDGE('', *, *, #228, .F.);
#228 = EDGE_CURVE('', #218, #218, #229, .T.);
#229 = CIRCLE('', #230, 1.7);
#230 = AXIS2_PLACEMENT_3D('', #231, #232, #233);
#231 = CARTESIAN_POINT('', (5.41233724504764E-16, 1.66533453693773E-15, -50.));
#232 = DIRECTION('', (0., 0., -1.));
#233 = DIRECTION('', (-1., 8.82574964034221E-16, 0.));
#234 = (
   BOUNDED_SURFACE ()
   B_SPLINE_SURFACE (2, 2, ((#235, #236, #237), (#238, #239, #240), (#241, #242, #243), (#244, #245, #246), (#247, #248, #249), (#250, #251, #252), (#253, #254, #255), (#256, #257, #258), (#259, #260, #261)), .UNSPECIFIED., .T., .F., .U.)
   B_SPLINE_SURFACE_WITH_KNOTS ((3, 2, 2, 2, 3), (3, 3), (0., 0.25, 0.5, 0.75, 1.), (0., 1.), .UNSPECIFIED.)
   GEOMETRIC_REPRESENTATION_ITEM ()
   RATIONAL_B_SPLINE_SURFACE (((1., 0.707106781186548, 1.), (0.707106781186548, 0.5, 0.707106781186548), (1., 0.707106781186548, 1.), (0.707106781186548, 0.5, 0.707106781186548), (1., 0.707106781186548, 1.), (0.707106781186548, 0.5, 0.707106781186548), (1., 0.707106781186548, 1.), (0.707106781186548, 0.5, 0.707106781186548), (1., 0.707106781186548, 1.)))
   REPRESENTATION_ITEM ('')
   SURFACE ()
);
#235 = CARTESIAN_POINT('', (-2., 3.16571197579591E-15, -49.7));
#236 = CARTESIAN_POINT('', (-2., 3.18408167778312E-15, -50.));
#237 = CARTESIAN_POINT('', (-1.7, 3.16571197579591E-15, -50.));
#238 = CARTESIAN_POINT('', (-2., 2., -49.7));
#239 = CARTESIAN_POINT('', (-2., 2., -50.));
#240 = CARTESIAN_POINT('', (-1.7, 1.7, -50.));
#241 = CARTESIAN_POINT('', (1.62077404558019E-15, 2., -49.7));
#242 = CARTESIAN_POINT('', (1.6391437475674E-15, 2., -50.));
#243 = CARTESIAN_POINT('', (1.6391437475674E-15, 1.7, -50.));
#244 = CARTESIAN_POINT('', (2., 2., -49.7));
#245 = CARTESIAN_POINT('', (2., 2., -50.));
#246 = CARTESIAN_POINT('', (1.7, 1.7, -50.));
#247 = CARTESIAN_POINT('', (2., 1.87841852983999E-16, -49.7));
#248 = CARTESIAN_POINT('', (2., 1.69472150996789E-16, -50.));
#249 = CARTESIAN_POINT('', (1.7, 1.51102449009578E-16, -50.));
#250 = CARTESIAN_POINT('', (2., -2., -49.7));
#251 = CARTESIAN_POINT('', (2., -2., -50.));
#252 = CARTESIAN_POINT('', (1.7, -1.7, -50.));
#253 = CARTESIAN_POINT('', (-1.11216671740225E-15, -2., -49.7));
#254 = CARTESIAN_POINT('', (-1.13053641938946E-15, -2., -50.));
#255 = CARTESIAN_POINT('', (-1.16727582336388E-15, -1.7, -50.));
#256 = CARTESIAN_POINT('', (-2., -2., -49.7));
#257 = CARTESIAN_POINT('', (-2., -2., -50.));
#258 = CARTESIAN_POINT('', (-1.7, -1.7, -50.));
#259 = CARTESIAN_POINT('', (-2., 3.16571197579591E-15, -49.7));
#260 = CARTESIAN_POINT('', (-2., 3.18408167778312E-15, -50.));
#261 = CARTESIAN_POINT('', (-1.7, 3.16571197579591E-15, -50.));
#262 = ADVANCED_FACE('', (#263), #266, .T.);
#263 = FACE_OUTER_BOUND('', #264, .T.);
#264 = EDGE_LOOP('', (#265));
#265 = ORIENTED_EDGE('', *, *, #228, .T.);
#266 = B_SPLINE_SURFACE_WITH_KNOTS('', 1, 1, ((#267, #268), (#269, #270)), .UNSPECIFIED., .F., .F., .U., (2, 2), (2, 2), (0.0454545454545454, 0.954545454545454), (0.0454545454545453, 0.954545454545454), .UNSPECIFIED.);
#267 = CARTESIAN_POINT('', (1.7, -1.7, -50.));
#268 = CARTESIAN_POINT('', (1.7, 1.7, -50.));
#269 = CARTESIAN_POINT('', (-1.7, -1.7, -50.));
#270 = CARTESIAN_POINT('', (-1.7, 1.7, -50.));
#271 = PRESENTATION_STYLE_ASSIGNMENT((#272));
#272 = SURFACE_STYLE_USAGE(.POSITIVE., #273);
#273 = SURFACE_SIDE_STYLE('', (#274));
#274 = SURFACE_STYLE_FILL_AREA(#275);
#275 = FILL_AREA_STYLE('', (#276));
#276 = FILL_AREA_STYLE_COLOUR('', #277);
#277 = COLOUR_RGB('', 0.8, 0.8, 0.8);
#278 = STYLED_ITEM('', (#271), #155);
#279 = TRIMMED_CURVE('cutting part line', #280, (#284), (#285), .T., .CARTESIAN.);
#280 = LINE('', #281, #282);
#281 = CARTESIAN_POINT('', (6.93889390390723E-18, 0., -50.));
#282 = VECTOR('', #283, 1.7);
#283 = DIRECTION('', (1.7, 0., 0.));
#284 = CARTESIAN_POINT('', (6.93889390390723E-18, 0., -50.));
#285 = CARTESIAN_POINT('', (1.7, 0., -50.));
#286 = TRIMMED_CURVE('cutting part line', #287, (#292), (#293), .T., .CARTESIAN.);
#287 = CIRCLE('', #288, 0.299999999999996);
#288 = AXIS2_PLACEMENT_3D('', #289, #290, #291);
#289 = CARTESIAN_POINT('', (1.7, 1.26147342181346E-15, -49.7));
#290 = DIRECTION('', (7.05454213563901E-16, -1., 6.9388939039073E-17));
#291 = DIRECTION('', (-7.40148683083445E-15, -6.93889390390782E-17, -1.));
#292 = CARTESIAN_POINT('', (1.7, 1.24065674010174E-15, -50.));
#293 = CARTESIAN_POINT('', (2., 1.47310968588263E-15, -49.7));
#294 = TRIMMED_CURVE('cutting part line', #295, (#299), (#300), .T., .CARTESIAN.);
#295 = LINE('', #296, #297);
#296 = CARTESIAN_POINT('', (2., 1.66508089842153E-16, -49.7));
#297 = VECTOR('', #298, 5.7);
#298 = DIRECTION('', (0., -1.66508089842153E-16, 5.7));
#299 = CARTESIAN_POINT('', (2., 1.66508089842153E-16, -49.7));
#300 = CARTESIAN_POINT('', (2., 0., -44.));
#301 = TRIMMED_CURVE('cutting part line', #302, (#306), (#307), .T., .CARTESIAN.);
#302 = LINE('', #303, #304);
#303 = CARTESIAN_POINT('', (2., 0., -44.));
#304 = VECTOR('', #305, 2.);
#305 = DIRECTION('', (-2., 0., 0.));
#306 = CARTESIAN_POINT('', (2., 0., -44.));
#307 = CARTESIAN_POINT('', (0., 0., -44.));
#308 = TRIMMED_CURVE('cutting part line', #309, (#313), (#314), .T., .CARTESIAN.);
#309 = LINE('', #310, #311);
#310 = CARTESIAN_POINT('', (0., 0., -44.));
#311 = VECTOR('', #312, 6.00000000000001);
#312 = DIRECTION('', (0., 0., -6.00000000000001));
#313 = CARTESIAN_POINT('', (0., 0., -44.));
#314 = CARTESIAN_POINT('', (0., 0., -50.));
#315 = COMPOSITE_CURVE('cutting part line', (#316, #317, #318, #319, #320), .U.);
#316 = COMPOSITE_CURVE_SEGMENT(.CONTINUOUS., .T., #279);
#317 = COMPOSITE_CURVE_SEGMENT(.CONTINUOUS., .T., #286);
#318 = COMPOSITE_CURVE_SEGMENT(.CONTINUOUS., .T., #294);
#319 = COMPOSITE_CURVE_SEGMENT(.CONTINUOUS., .T., #301);
#320 = COMPOSITE_CURVE_SEGMENT(.CONTINUOUS., .T., #308);
#321 = GEOMETRIC_SET('', (#315, #364));
#322 = PRESENTATION_STYLE_ASSIGNMENT((#323));
#323 = CURVE_STYLE('', #325, POSITIVE_LENGTH_MEASURE(1.E-6), #324);
#324 = COLOUR_RGB('', 0., 0., 1.);
#325 = DRAUGHTING_PRE_DEFINED_CURVE_FONT('continuous');
#326 = STYLED_ITEM('', (#322), #315);
#327 = PRESENTATION_STYLE_ASSIGNMENT((#328));
#328 = CURVE_STYLE('', #330, POSITIVE_LENGTH_MEASURE(1.E-6), #329);
#329 = COLOUR_RGB('', 0., 0., 1.);
#330 = DRAUGHTING_PRE_DEFINED_CURVE_FONT('continuous');
#331 = OVER_RIDING_STYLED_ITEM('', (#327), #279, #326);
#332 = PRESENTATION_STYLE_ASSIGNMENT((#333));
#333 = CURVE_STYLE('', #335, POSITIVE_LENGTH_MEASURE(1.E-6), #334);
#334 = COLOUR_RGB('', 0., 0., 1.);
#335 = DRAUGHTING_PRE_DEFINED_CURVE_FONT('continuous');
#336 = OVER_RIDING_STYLED_ITEM('', (#332), #286, #326);
#337 = PRESENTATION_STYLE_ASSIGNMENT((#338));
#338 = CURVE_STYLE('', #340, POSITIVE_LENGTH_MEASURE(1.E-6), #339);
#339 = COLOUR_RGB('', 0., 0., 1.);
#340 = DRAUGHTING_PRE_DEFINED_CURVE_FONT('continuous');
#341 = OVER_RIDING_STYLED_ITEM('', (#337), #294, #326);
#342 = PRESENTATION_STYLE_ASSIGNMENT((#343));
#343 = CURVE_STYLE('', #345, POSITIVE_LENGTH_MEASURE(1.E-6), #344);
#344 = COLOUR_RGB('', 0., 0., 1.);
#345 = DRAUGHTING_PRE_DEFINED_CURVE_FONT('continuous');
#346 = OVER_RIDING_STYLED_ITEM('', (#342), #301, #326);
#347 = PRESENTATION_STYLE_ASSIGNMENT((#348));
#348 = CURVE_STYLE('', #350, POSITIVE_LENGTH_MEASURE(1.E-6), #349);
#349 = COLOUR_RGB('', 0., 0., 1.);
#350 = DRAUGHTING_PRE_DEFINED_CURVE_FONT('continuous');
#351 = OVER_RIDING_STYLED_ITEM('', (#347), #308, #326);
#352 = AXIS2_PLACEMENT_3D('MCS', #353, #354, #355);
#353 = CARTESIAN_POINT('', (0., 0., -28.));
#354 = DIRECTION('', (0., 0., 1.));
#355 = DIRECTION('', (1., 0., 0.));
#356 = AXIS2_PLACEMENT_3D('PCS', #357, #358, #359);
#357 = CARTESIAN_POINT('', (0., 0., 0.));
#358 = DIRECTION('', (0., 0., 1.));
#359 = DIRECTION('', (1., 0., 0.));
#360 = AXIS2_PLACEMENT_3D('CIP', #361, #362, #363);
#361 = CARTESIAN_POINT('', (0., 0., -50.));
#362 = DIRECTION('', (0., 0., 1.));
#363 = DIRECTION('', (1., 0., 0.));
#364 = CARTESIAN_POINT('CRP', (2., 0., -50.));
#365 = (
   GEOMETRIC_REPRESENTATION_CONTEXT (3)
   GLOBAL_UNCERTAINTY_ASSIGNED_CONTEXT ((#367))
   GLOBAL_UNIT_ASSIGNED_CONTEXT ((#366, #368, #369))
   REPRESENTATION_CONTEXT ('', '3D')
);
#366 = (
   LENGTH_UNIT ()
   NAMED_UNIT (*)
   SI_UNIT (.MILLI., .METRE.)
);
#367 = UNCERTAINTY_MEASURE_WITH_UNIT(LENGTH_MEASURE(1.E-6), #366, 'DISTANCE_ACCURACY_VALUE', '');
#368 = (
   NAMED_UNIT (*)
   SI_UNIT ($, .STERADIAN.)
   SOLID_ANGLE_UNIT ()
);
#369 = (
   NAMED_UNIT (*)
   PLANE_ANGLE_UNIT ()
   SI_UNIT ($, .RADIAN.)
);
#370 = SHAPE_REPRESENTATION('', (), #365);
#371 = PRODUCT_DEFINITION_SHAPE('', '', #372);
#372 = PRODUCT_DEFINITION('', '', #375, #379);
#373 = APPLICATION_CONTEXT('configuration controlled 3D designs of mechanical parts and assemblies');
#374 = APPLICATION_PROTOCOL_DEFINITION('International Standard', 'automotive_design', 2002, #373);
#375 = PRODUCT_DEFINITION_FORMATION_WITH_SPECIFIED_SOURCE('', '', #376, .NOT_KNOWN.);
#376 = PRODUCT('product-name', '2S220-0400-030-NC   H10F', '', (#377));
#377 = PRODUCT_CONTEXT('', #373, 'mechanical');
#378 = PRODUCT_RELATED_PRODUCT_CATEGORY('detail', '', (#376));
#379 = PRODUCT_DEFINITION_CONTEXT('part definition', #373, 'design');
#380 = SHAPE_DEFINITION_REPRESENTATION(#371, #370);
#381 = CONSTRUCTIVE_GEOMETRY_REPRESENTATION('supplemental geometry', (#352, #356, #360), #365);
#382 = CONSTRUCTIVE_GEOMETRY_REPRESENTATION_RELATIONSHIP('', '', #370, #381);
#383 = SHAPE_REPRESENTATION_RELATIONSHIP('', '', #370, #384);
#384 = SHAPE_REPRESENTATION('', (#321), #365);
#385 = SHAPE_REPRESENTATION_RELATIONSHIP('', '', #370, #386);
#386 = ADVANCED_BREP_SHAPE_REPRESENTATION('', (#1, #155), #365);
ENDSEC;
END-ISO-10303-21;
