ISO-10303-21;
HEADER;
FILE_DESCRIPTION(('STEP'), '1');
FILE_NAME('C:\\Users\\ds2002\\OneDrive - Sandvik\\HomeShare\\Documents\\Batchrepair\\CorSRT2\\NEW_MILSQ_SLD\\Output\\MOD000000000000000020082325900000.stp', '2019-01-02T12:12:09', (''), (''), 'Express v3.0.0.0', 'Express Tool', 'Unknown');
FILE_SCHEMA(('AUTOMOTIVE_DESIGN'));
ENDSEC;

DATA;
#1 = MANIFOLD_SOLID_BREP('NOCUT', #2);
#2 = CLOSED_SHELL('', (#3, #50, #89, #98, #137));
#3 = ADVANCED_FACE('', (#4), #31, .T.);
#4 = FACE_OUTER_BOUND('', #5, .T.);
#5 = EDGE_LOOP('', (#6, #16, #23, #24));
#6 = ORIENTED_EDGE('', *, *, #7, .T.);
#7 = EDGE_CURVE('', #8, #10, #12, .T.);
#8 = VERTEX_POINT('', #9);
#9 = CARTESIAN_POINT('', (-3., 2.38806125833734E-15, -36.));
#10 = VERTEX_POINT('', #11);
#11 = CARTESIAN_POINT('', (-3., 2.02066721859313E-16, -0.299999999999997));
#12 = LINE('', #13, #14);
#13 = CARTESIAN_POINT('', (-3., 2.38806125833734E-15, -36.));
#14 = VECTOR('', #15, 35.7);
#15 = DIRECTION('', (0., -2.18599453647803E-15, 35.7));
#16 = ORIENTED_EDGE('', *, *, #17, .T.);
#17 = EDGE_CURVE('', #10, #10, #18, .T.);
#18 = CIRCLE('', #19, 3.);
#19 = AXIS2_PLACEMENT_3D('', #20, #21, #22);
#20 = CARTESIAN_POINT('', (1.346145417358E-15, -1.88737914186277E-15, -0.299999999999997));
#21 = DIRECTION('', (-1.85037170770859E-17, 6.01984494166833E-17, -1.));
#22 = DIRECTION('', (-1., 6.96481954574026E-16, 1.85037170770859E-17));
#23 = ORIENTED_EDGE('', *, *, #7, .F.);
#24 = ORIENTED_EDGE('', *, *, #25, .F.);
#25 = EDGE_CURVE('', #8, #8, #26, .T.);
#26 = CIRCLE('', #27, 3.);
#27 = AXIS2_PLACEMENT_3D('', #28, #29, #30);
#28 = CARTESIAN_POINT('', (6.66133814775094E-16, 1.99840144432528E-15, -36.));
#29 = DIRECTION('', (0., 0., -1.));
#30 = DIRECTION('', (-1., 1.29886604670686E-16, 0.));
#31 = (
   BOUNDED_SURFACE ()
   B_SPLINE_SURFACE (1, 2, ((#32, #33, #34, #35, #36, #37, #38, #39, #40), (#41, #42, #43, #44, #45, #46, #47, #48, #49)), .UNSPECIFIED., .F., .T., .U.)
   B_SPLINE_SURFACE_WITH_KNOTS ((2, 2), (3, 2, 2, 2, 3), (0., 1.), (0., 4.7123889803847, 9.4247779607694, 14.1371669411541, 18.8495559215388), .UNSPECIFIED.)
   GEOMETRIC_REPRESENTATION_ITEM ()
   RATIONAL_B_SPLINE_SURFACE (((1., 0.707106781186548, 1., 0.707106781186548, 1., 0.707106781186548, 1., 0.707106781186548, 1.), (1., 0.707106781186548, 1., 0.707106781186548, 1., 0.707106781186548, 1., 0.707106781186548, 1.)))
   REPRESENTATION_ITEM ('')
   SURFACE ()
);
#32 = CARTESIAN_POINT('', (-3., 2.14495701495334E-15, -36.));
#33 = CARTESIAN_POINT('', (-3., 3., -36.));
#34 = CARTESIAN_POINT('', (2.59131156155601E-15, 3., -36.));
#35 = CARTESIAN_POINT('', (3., 3., -36.));
#36 = CARTESIAN_POINT('', (3., -1.66654067274662E-15, -36.));
#37 = CARTESIAN_POINT('', (3., -3., -36.));
#38 = CARTESIAN_POINT('', (-8.52792086399734E-16, -3., -36.));
#39 = CARTESIAN_POINT('', (-3., -3., -36.));
#40 = CARTESIAN_POINT('', (-3., 2.14495701495334E-15, -36.));
#41 = CARTESIAN_POINT('', (-3., 2.02066721859312E-16, -0.299999999999997));
#42 = CARTESIAN_POINT('', (-3., 3., -0.299999999999997));
#43 = CARTESIAN_POINT('', (3.25189426120798E-15, 3., -0.299999999999997));
#44 = CARTESIAN_POINT('', (3., 3., -0.299999999999997));
#45 = CARTESIAN_POINT('', (3., -3.60943096584064E-15, -0.299999999999997));
#46 = CARTESIAN_POINT('', (3., -3., -0.299999999999997));
#47 = CARTESIAN_POINT('', (-1.92209386747767E-16, -3., -0.299999999999997));
#48 = CARTESIAN_POINT('', (-3., -3., -0.299999999999997));
#49 = CARTESIAN_POINT('', (-3., 2.02066721859312E-16, -0.299999999999997));
#50 = ADVANCED_FACE('', (#51), #70, .T.);
#51 = FACE_OUTER_BOUND('', #52, .T.);
#52 = EDGE_LOOP('', (#53, #61, #68, #69));
#53 = ORIENTED_EDGE('', *, *, #54, .T.);
#54 = EDGE_CURVE('', #10, #55, #57, .T.);
#55 = VERTEX_POINT('', #56);
#56 = CARTESIAN_POINT('', (-2.7, 1.65327317884893E-16, 0.));
#57 = LINE('', #58, #59);
#58 = CARTESIAN_POINT('', (-3., 2.02066721859313E-16, -0.299999999999997));
#59 = VECTOR('', #60, 0.424264068711926);
#60 = DIRECTION('', (0.3, -3.673940397442E-17, 0.299999999999997));
#61 = ORIENTED_EDGE('', *, *, #62, .T.);
#62 = EDGE_CURVE('', #55, #55, #63, .T.);
#63 = CIRCLE('', #64, 2.7);
#64 = AXIS2_PLACEMENT_3D('', #65, #66, #67);
#65 = CARTESIAN_POINT('', (9.22872889219661E-16, -1.27675647831893E-15, -8.0118685686509E-32));
#66 = DIRECTION('', (3.03091835913145E-33, 6.12323399573678E-17, -1.));
#67 = DIRECTION('', (-1., 5.34105109705119E-16, 2.96735872912996E-32));
#68 = ORIENTED_EDGE('', *, *, #54, .F.);
#69 = ORIENTED_EDGE('', *, *, #17, .F.);
#70 = (
   BOUNDED_SURFACE ()
   B_SPLINE_SURFACE (1, 2, ((#71, #72, #73, #74, #75, #76, #77, #78, #79), (#80, #81, #82, #83, #84, #85, #86, #87, #88)), .UNSPECIFIED., .F., .T., .U.)
   B_SPLINE_SURFACE_WITH_KNOTS ((2, 2), (3, 2, 2, 2, 3), (0., 1.), (0., 0.25, 0.5, 0.75, 1.), .UNSPECIFIED.)
   GEOMETRIC_REPRESENTATION_ITEM ()
   RATIONAL_B_SPLINE_SURFACE (((1., 0.707106781186548, 1., 0.707106781186548, 1., 0.707106781186548, 1., 0.707106781186548, 1.), (1., 0.707106781186548, 1., 0.707106781186548, 1., 0.707106781186548, 1., 0.707106781186548, 1.)))
   REPRESENTATION_ITEM ('')
   SURFACE ()
);
#71 = CARTESIAN_POINT('', (-3., 1.49129302665284E-15, -0.299999999999997));
#72 = CARTESIAN_POINT('', (-3., 3., -0.299999999999985));
#73 = CARTESIAN_POINT('', (2.34149119846292E-15, 3., -0.299999999999985));
#74 = CARTESIAN_POINT('', (3., 3., -0.299999999999985));
#75 = CARTESIAN_POINT('', (3., -1.34594359183367E-15, -0.299999999999997));
#76 = CARTESIAN_POINT('', (3., -3., -0.300000000000009));
#77 = CARTESIAN_POINT('', (-1.28351380279387E-16, -3., -0.300000000000009));
#78 = CARTESIAN_POINT('', (-3., -3., -0.300000000000009));
#79 = CARTESIAN_POINT('', (-3., 1.49129302665284E-15, -0.299999999999997));
#80 = CARTESIAN_POINT('', (-2.7, 1.65327317884893E-16, -2.18952885050753E-47));
#81 = CARTESIAN_POINT('', (-2.7, 2.7, 1.04916075827078E-14));
#82 = CARTESIAN_POINT('', (2.19962936753859E-15, 2.7, 1.04916075827078E-14));
#83 = CARTESIAN_POINT('', (2.7, 2.7, 1.04916075827078E-14));
#84 = CARTESIAN_POINT('', (2.7, -2.38818563875297E-15, 1.12461399303431E-30));
#85 = CARTESIAN_POINT('', (2.7, -2.7, -1.04916075827078E-14));
#86 = CARTESIAN_POINT('', (-2.32289533294833E-17, -2.7, -1.04916075827078E-14));
#87 = CARTESIAN_POINT('', (-2.7, -2.7, -1.04916075827078E-14));
#88 = CARTESIAN_POINT('', (-2.7, 1.65327317884893E-16, -2.18952885050753E-47));
#89 = ADVANCED_FACE('', (#90), #93, .T.);
#90 = FACE_OUTER_BOUND('', #91, .T.);
#91 = EDGE_LOOP('', (#92));
#92 = ORIENTED_EDGE('', *, *, #62, .F.);
#93 = B_SPLINE_SURFACE_WITH_KNOTS('', 1, 1, ((#94, #95), (#96, #97)), .UNSPECIFIED., .F., .F., .U., (2, 2), (2, 2), (0.0454545454545454, 0.954545454545454), (0.0454545454545454, 0.954545454545454), .UNSPECIFIED.);
#94 = CARTESIAN_POINT('', (2.7, -2.7, -1.65327317884893E-16));
#95 = CARTESIAN_POINT('', (-2.7, -2.7, -1.65327317884893E-16));
#96 = CARTESIAN_POINT('', (2.7, 2.7, 1.65327317884893E-16));
#97 = CARTESIAN_POINT('', (-2.7, 2.7, 1.65327317884893E-16));
#98 = ADVANCED_FACE('', (#99), #118, .T.);
#99 = FACE_OUTER_BOUND('', #100, .T.);
#100 = EDGE_LOOP('', (#101, #110, #116, #117));
#101 = ORIENTED_EDGE('', *, *, #102, .F.);
#102 = EDGE_CURVE('', #103, #103, #105, .T.);
#103 = VERTEX_POINT('', #104);
#104 = CARTESIAN_POINT('', (-3., 3.24531401774049E-15, -50.));
#105 = CIRCLE('', #106, 3.);
#106 = AXIS2_PLACEMENT_3D('', #107, #108, #109);
#107 = CARTESIAN_POINT('', (6.93889390390723E-16, 1.49880108324396E-15, -50.));
#108 = DIRECTION('', (0., 0., -1.));
#109 = DIRECTION('', (-1., 5.82170978165509E-16, 0.));
#110 = ORIENTED_EDGE('', *, *, #111, .F.);
#111 = EDGE_CURVE('', #8, #103, #112, .T.);
#112 = LINE('', #113, #114);
#113 = CARTESIAN_POINT('', (-3., 2.38806125833734E-15, -36.));
#114 = VECTOR('', #115, 14.);
#115 = DIRECTION('', (0., 8.5725275940315E-16, -14.));
#116 = ORIENTED_EDGE('', *, *, #25, .T.);
#117 = ORIENTED_EDGE('', *, *, #111, .T.);
#118 = (
   BOUNDED_SURFACE ()
   B_SPLINE_SURFACE (2, 1, ((#119, #120), (#121, #122), (#123, #124), (#125, #126), (#127, #128), (#129, #130), (#131, #132), (#133, #134), (#135, #136)), .UNSPECIFIED., .T., .F., .U.)
   B_SPLINE_SURFACE_WITH_KNOTS ((3, 2, 2, 2, 3), (2, 2), (0., 4.7123889803847, 9.4247779607694, 14.1371669411541, 18.8495559215388), (0., 0.35), .UNSPECIFIED.)
   GEOMETRIC_REPRESENTATION_ITEM ()
   RATIONAL_B_SPLINE_SURFACE (((1., 1.), (0.707106781186548, 0.707106781186548), (1., 1.), (0.707106781186548, 0.707106781186548), (1., 1.), (0.707106781186548, 0.707106781186548), (1., 1.), (0.707106781186548, 0.707106781186548), (1., 1.)))
   REPRESENTATION_ITEM ('')
   SURFACE ()
);
#119 = CARTESIAN_POINT('', (-3., 2.38806125833734E-15, -36.));
#120 = CARTESIAN_POINT('', (-3., 1.94397204848728E-15, -50.));
#121 = CARTESIAN_POINT('', (-3., 3., -36.));
#122 = CARTESIAN_POINT('', (-3., 3., -50.));
#123 = CARTESIAN_POINT('', (2.06558636038709E-15, 3., -36.));
#124 = CARTESIAN_POINT('', (2.06558636038709E-15, 3., -50.));
#125 = CARTESIAN_POINT('', (3., 3., -36.));
#126 = CARTESIAN_POINT('', (3., 3., -50.));
#127 = CARTESIAN_POINT('', (3., -1.90964491613062E-15, -36.));
#128 = CARTESIAN_POINT('', (3., -2.35373412598068E-15, -50.));
#129 = CARTESIAN_POINT('', (3., -3., -36.));
#130 = CARTESIAN_POINT('', (3., -3., -50.));
#131 = CARTESIAN_POINT('', (-1.86472577433666E-15, -3., -36.));
#132 = CARTESIAN_POINT('', (-1.86472577433666E-15, -3., -50.));
#133 = CARTESIAN_POINT('', (-3., -3., -36.));
#134 = CARTESIAN_POINT('', (-3., -3., -50.));
#135 = CARTESIAN_POINT('', (-3., 2.38806125833734E-15, -36.));
#136 = CARTESIAN_POINT('', (-3., 1.94397204848728E-15, -50.));
#137 = ADVANCED_FACE('', (#138), #141, .T.);
#138 = FACE_OUTER_BOUND('', #139, .T.);
#139 = EDGE_LOOP('', (#140));
#140 = ORIENTED_EDGE('', *, *, #102, .T.);
#141 = B_SPLINE_SURFACE_WITH_KNOTS('', 1, 1, ((#142, #143), (#144, #145)), .UNSPECIFIED., .F., .F., .U., (2, 2), (2, 2), (0.486579237862804, 0.52580916907394), (0.47419083092606, 0.513420762137196), .UNSPECIFIED.);
#142 = CARTESIAN_POINT('', (-3.00000000000001, 3.00000000000001, -50.));
#143 = CARTESIAN_POINT('', (-3.00000000000001, -2.99999999999999, -50.));
#144 = CARTESIAN_POINT('', (2.99999999999999, 3.00000000000001, -50.));
#145 = CARTESIAN_POINT('', (2.99999999999999, -2.99999999999999, -50.));
#146 = DRAUGHTING_MODEL('', (#154, #229, #268, #273, #278, #283, #288), #302);
#147 = PRESENTATION_STYLE_ASSIGNMENT((#148));
#148 = SURFACE_STYLE_USAGE(.POSITIVE., #149);
#149 = SURFACE_SIDE_STYLE('', (#150));
#150 = SURFACE_STYLE_FILL_AREA(#151);
#151 = FILL_AREA_STYLE('', (#152));
#152 = FILL_AREA_STYLE_COLOUR('', #153);
#153 = COLOUR_RGB('', 0.50196078431373, 0.50196078431373, 0.50196078431373);
#154 = STYLED_ITEM('', (#147), #1);
#155 = MANIFOLD_SOLID_BREP('CUT', #156);
#156 = CLOSED_SHELL('', (#157, #174, #213));
#157 = ADVANCED_FACE('', (#158), #169, .T.);
#158 = FACE_OUTER_BOUND('', #159, .T.);
#159 = EDGE_LOOP('', (#160));
#160 = ORIENTED_EDGE('', *, *, #161, .F.);
#161 = EDGE_CURVE('', #162, #162, #164, .T.);
#162 = VERTEX_POINT('', #163);
#163 = CARTESIAN_POINT('', (-3., 3.24531401774049E-15, -50.));
#164 = CIRCLE('', #165, 3.);
#165 = AXIS2_PLACEMENT_3D('', #166, #167, #168);
#166 = CARTESIAN_POINT('', (6.93889390390723E-16, 1.49880108324396E-15, -50.));
#167 = DIRECTION('', (0., 0., -1.));
#168 = DIRECTION('', (-1., 5.82170978165509E-16, 0.));
#169 = B_SPLINE_SURFACE_WITH_KNOTS('', 1, 1, ((#170, #171), (#172, #173)), .UNSPECIFIED., .F., .F., .U., (2, 2), (2, 2), (0.47419083092606, 0.513420762137196), (0.486579237862804, 0.52580916907394), .UNSPECIFIED.);
#170 = CARTESIAN_POINT('', (-3., 3., -50.));
#171 = CARTESIAN_POINT('', (3., 3., -50.));
#172 = CARTESIAN_POINT('', (-3., -3., -50.));
#173 = CARTESIAN_POINT('', (3., -3., -50.));
#174 = ADVANCED_FACE('', (#175), #194, .T.);
#175 = FACE_OUTER_BOUND('', #176, .T.);
#176 = EDGE_LOOP('', (#177, #178, #186, #193));
#177 = ORIENTED_EDGE('', *, *, #161, .T.);
#178 = ORIENTED_EDGE('', *, *, #179, .T.);
#179 = EDGE_CURVE('', #162, #180, #182, .T.);
#180 = VERTEX_POINT('', #181);
#181 = CARTESIAN_POINT('', (-3., 4.83735485663204E-15, -76.));
#182 = LINE('', #183, #184);
#183 = CARTESIAN_POINT('', (-3., 3.24531401774049E-15, -50.));
#184 = VECTOR('', #185, 26.);
#185 = DIRECTION('', (0., 1.59204083889155E-15, -26.));
#186 = ORIENTED_EDGE('', *, *, #187, .F.);
#187 = EDGE_CURVE('', #180, #180, #188, .T.);
#188 = CIRCLE('', #189, 3.);
#189 = AXIS2_PLACEMENT_3D('', #190, #191, #192);
#190 = CARTESIAN_POINT('', (1.38777878078145E-17, 1.11022302462516E-15, -76.));
#191 = DIRECTION('', (0., 0., -1.));
#192 = DIRECTION('', (-1., 1.24237727733563E-15, 0.));
#193 = ORIENTED_EDGE('', *, *, #179, .F.);
#194 = (
   BOUNDED_SURFACE ()
   B_SPLINE_SURFACE (2, 1, ((#195, #196), (#197, #198), (#199, #200), (#201, #202), (#203, #204), (#205, #206), (#207, #208), (#209, #210), (#211, #212)), .UNSPECIFIED., .T., .F., .U.)
   B_SPLINE_SURFACE_WITH_KNOTS ((3, 2, 2, 2, 3), (2, 2), (0., 4.7123889803847, 9.4247779607694, 14.1371669411541, 18.8495559215388), (0.35, 1.), .UNSPECIFIED.)
   GEOMETRIC_REPRESENTATION_ITEM ()
   RATIONAL_B_SPLINE_SURFACE (((1., 1.), (0.707106781186548, 0.707106781186548), (1., 1.), (0.707106781186548, 0.707106781186548), (1., 1.), (0.707106781186548, 0.707106781186548), (1., 1.), (0.707106781186548, 0.707106781186548), (1., 1.)))
   REPRESENTATION_ITEM ('')
   SURFACE ()
);
#195 = CARTESIAN_POINT('', (-3., 3.24531401774049E-15, -50.));
#196 = CARTESIAN_POINT('', (-3., 4.74411510098445E-15, -76.));
#197 = CARTESIAN_POINT('', (-3., 3., -50.));
#198 = CARTESIAN_POINT('', (-3., 3.00000000000001, -76.));
#199 = CARTESIAN_POINT('', (3.54733957114189E-15, 3., -50.));
#200 = CARTESIAN_POINT('', (3.54733957114189E-15, 3., -76.));
#201 = CARTESIAN_POINT('', (3., 3., -50.));
#202 = CARTESIAN_POINT('', (3., 3., -76.));
#203 = CARTESIAN_POINT('', (3., -3.65507609523389E-15, -50.));
#204 = CARTESIAN_POINT('', (3., -2.15627501198993E-15, -76.));
#205 = CARTESIAN_POINT('', (3., -3., -50.));
#206 = CARTESIAN_POINT('', (3., -3., -76.));
#207 = CARTESIAN_POINT('', (-2.98565650208828E-15, -3., -50.));
#208 = CARTESIAN_POINT('', (-2.98565650208828E-15, -3., -76.));
#209 = CARTESIAN_POINT('', (-3., -3., -50.));
#210 = CARTESIAN_POINT('', (-3., -3., -76.));
#211 = CARTESIAN_POINT('', (-3., 3.24531401774049E-15, -50.));
#212 = CARTESIAN_POINT('', (-3., 4.74411510098445E-15, -76.));
#213 = ADVANCED_FACE('', (#214), #217, .T.);
#214 = FACE_OUTER_BOUND('', #215, .T.);
#215 = EDGE_LOOP('', (#216));
#216 = ORIENTED_EDGE('', *, *, #187, .T.);
#217 = B_SPLINE_SURFACE_WITH_KNOTS('', 1, 1, ((#218, #219), (#220, #221)), .UNSPECIFIED., .F., .F., .U., (2, 2), (2, 2), (0.0454545454545455, 0.954545454545455), (0.0454545454545454, 0.954545454545455), .UNSPECIFIED.);
#218 = CARTESIAN_POINT('', (3., -3., -76.));
#219 = CARTESIAN_POINT('', (3., 3., -76.));
#220 = CARTESIAN_POINT('', (-3., -3., -76.));
#221 = CARTESIAN_POINT('', (-3., 3., -76.));
#222 = PRESENTATION_STYLE_ASSIGNMENT((#223));
#223 = SURFACE_STYLE_USAGE(.POSITIVE., #224);
#224 = SURFACE_SIDE_STYLE('', (#225));
#225 = SURFACE_STYLE_FILL_AREA(#226);
#226 = FILL_AREA_STYLE('', (#227));
#227 = FILL_AREA_STYLE_COLOUR('', #228);
#228 = COLOUR_RGB('', 0.8, 0.8, 0.8);
#229 = STYLED_ITEM('', (#222), #155);
#230 = TRIMMED_CURVE('cutting part line', #231, (#235), (#236), .T., .CARTESIAN.);
#231 = LINE('', #232, #233);
#232 = CARTESIAN_POINT('', (1.87350135405495E-16, 0., -76.));
#233 = VECTOR('', #234, 3.);
#234 = DIRECTION('', (3., 0., 0.));
#235 = CARTESIAN_POINT('', (1.87350135405495E-16, 0., -76.));
#236 = CARTESIAN_POINT('', (3., 0., -76.));
#237 = TRIMMED_CURVE('cutting part line', #238, (#242), (#243), .T., .CARTESIAN.);
#238 = LINE('', #239, #240);
#239 = CARTESIAN_POINT('', (3., 1.49857280857938E-15, -76.));
#240 = VECTOR('', #241, 26.);
#241 = DIRECTION('', (0., -1.49857280857938E-15, 26.));
#242 = CARTESIAN_POINT('', (3., 1.49857280857938E-15, -76.));
#243 = CARTESIAN_POINT('', (3., 0., -50.));
#244 = TRIMMED_CURVE('cutting part line', #245, (#249), (#250), .T., .CARTESIAN.);
#245 = LINE('', #246, #247);
#246 = CARTESIAN_POINT('', (3., 0., -50.));
#247 = VECTOR('', #248, 3.);
#248 = DIRECTION('', (-3., 0., 0.));
#249 = CARTESIAN_POINT('', (3., 0., -50.));
#250 = CARTESIAN_POINT('', (6.93889390390723E-18, 0., -50.));
#251 = TRIMMED_CURVE('cutting part line', #252, (#256), (#257), .T., .CARTESIAN.);
#252 = LINE('', #253, #254);
#253 = CARTESIAN_POINT('', (0., 0., -50.));
#254 = VECTOR('', #255, 26.);
#255 = DIRECTION('', (0., 0., -26.));
#256 = CARTESIAN_POINT('', (0., 0., -50.));
#257 = CARTESIAN_POINT('', (0., 0., -76.));
#258 = COMPOSITE_CURVE('cutting part line', (#259, #260, #261, #262), .U.);
#259 = COMPOSITE_CURVE_SEGMENT(.CONTINUOUS., .T., #230);
#260 = COMPOSITE_CURVE_SEGMENT(.CONTINUOUS., .T., #237);
#261 = COMPOSITE_CURVE_SEGMENT(.CONTINUOUS., .T., #244);
#262 = COMPOSITE_CURVE_SEGMENT(.CONTINUOUS., .T., #251);
#263 = GEOMETRIC_SET('', (#258, #301));
#264 = PRESENTATION_STYLE_ASSIGNMENT((#265));
#265 = CURVE_STYLE('', #267, POSITIVE_LENGTH_MEASURE(1.E-6), #266);
#266 = COLOUR_RGB('', 0., 0., 1.);
#267 = DRAUGHTING_PRE_DEFINED_CURVE_FONT('continuous');
#268 = STYLED_ITEM('', (#264), #258);
#269 = PRESENTATION_STYLE_ASSIGNMENT((#270));
#270 = CURVE_STYLE('', #272, POSITIVE_LENGTH_MEASURE(1.E-6), #271);
#271 = COLOUR_RGB('', 0., 0., 1.);
#272 = DRAUGHTING_PRE_DEFINED_CURVE_FONT('continuous');
#273 = OVER_RIDING_STYLED_ITEM('', (#269), #230, #268);
#274 = PRESENTATION_STYLE_ASSIGNMENT((#275));
#275 = CURVE_STYLE('', #277, POSITIVE_LENGTH_MEASURE(1.E-6), #276);
#276 = COLOUR_RGB('', 0., 0., 1.);
#277 = DRAUGHTING_PRE_DEFINED_CURVE_FONT('continuous');
#278 = OVER_RIDING_STYLED_ITEM('', (#274), #237, #268);
#279 = PRESENTATION_STYLE_ASSIGNMENT((#280));
#280 = CURVE_STYLE('', #282, POSITIVE_LENGTH_MEASURE(1.E-6), #281);
#281 = COLOUR_RGB('', 0., 0., 1.);
#282 = DRAUGHTING_PRE_DEFINED_CURVE_FONT('continuous');
#283 = OVER_RIDING_STYLED_ITEM('', (#279), #244, #268);
#284 = PRESENTATION_STYLE_ASSIGNMENT((#285));
#285 = CURVE_STYLE('', #287, POSITIVE_LENGTH_MEASURE(1.E-6), #286);
#286 = COLOUR_RGB('', 0., 0., 1.);
#287 = DRAUGHTING_PRE_DEFINED_CURVE_FONT('continuous');
#288 = OVER_RIDING_STYLED_ITEM('', (#284), #251, #268);
#289 = AXIS2_PLACEMENT_3D('MCS', #290, #291, #292);
#290 = CARTESIAN_POINT('', (0., 0., -36.));
#291 = DIRECTION('', (0., 0., 1.));
#292 = DIRECTION('', (1., 0., 0.));
#293 = AXIS2_PLACEMENT_3D('PCS', #294, #295, #296);
#294 = CARTESIAN_POINT('', (0., 0., 0.));
#295 = DIRECTION('', (0., 0., 1.));
#296 = DIRECTION('', (1., 0., 0.));
#297 = AXIS2_PLACEMENT_3D('CIP', #298, #299, #300);
#298 = CARTESIAN_POINT('', (0., 0., -76.));
#299 = DIRECTION('', (0., 0., 1.));
#300 = DIRECTION('', (1., 0., 0.));
#301 = CARTESIAN_POINT('CRP', (3., 0., -76.));
#302 = (
   GEOMETRIC_REPRESENTATION_CONTEXT (3)
   GLOBAL_UNCERTAINTY_ASSIGNED_CONTEXT ((#304))
   GLOBAL_UNIT_ASSIGNED_CONTEXT ((#303, #305, #306))
   REPRESENTATION_CONTEXT ('', '3D')
);
#303 = (
   LENGTH_UNIT ()
   NAMED_UNIT (*)
   SI_UNIT (.MILLI., .METRE.)
);
#304 = UNCERTAINTY_MEASURE_WITH_UNIT(LENGTH_MEASURE(1.E-6), #303, 'DISTANCE_ACCURACY_VALUE', '');
#305 = (
   NAMED_UNIT (*)
   SI_UNIT ($, .STERADIAN.)
   SOLID_ANGLE_UNIT ()
);
#306 = (
   NAMED_UNIT (*)
   PLANE_ANGLE_UNIT ()
   SI_UNIT ($, .RADIAN.)
);
#307 = SHAPE_REPRESENTATION('', (), #302);
#308 = PRODUCT_DEFINITION_SHAPE('', '', #309);
#309 = PRODUCT_DEFINITION('', '', #312, #316);
#310 = APPLICATION_CONTEXT('configuration controlled 3D designs of mechanical parts and assemblies');
#311 = APPLICATION_PROTOCOL_DEFINITION('International Standard', 'automotive_design', 2002, #310);
#312 = PRODUCT_DEFINITION_FORMATION_WITH_SPECIFIED_SOURCE('', '', #313, .NOT_KNOWN.);
#313 = PRODUCT('product-name', '2P460-0600-NA       1630', '', (#314));
#314 = PRODUCT_CONTEXT('', #310, 'mechanical');
#315 = PRODUCT_RELATED_PRODUCT_CATEGORY('detail', '', (#313));
#316 = PRODUCT_DEFINITION_CONTEXT('part definition', #310, 'design');
#317 = SHAPE_DEFINITION_REPRESENTATION(#308, #307);
#318 = CONSTRUCTIVE_GEOMETRY_REPRESENTATION('supplemental geometry', (#289, #293, #297), #302);
#319 = CONSTRUCTIVE_GEOMETRY_REPRESENTATION_RELATIONSHIP('', '', #307, #318);
#320 = SHAPE_REPRESENTATION_RELATIONSHIP('', '', #307, #321);
#321 = SHAPE_REPRESENTATION('', (#263), #302);
#322 = SHAPE_REPRESENTATION_RELATIONSHIP('', '', #307, #323);
#323 = ADVANCED_BREP_SHAPE_REPRESENTATION('', (#1, #155), #302);
ENDSEC;
END-ISO-10303-21;
