ISO-10303-21;
HEADER;
FILE_DESCRIPTION(('STEP'), '1');
FILE_NAME('C:\\Users\\ds2002\\OneDrive - Sandvik\\HomeShare\\Documents\\Batchrepair\\CorSRT2\\NEW_MILSQ_SLD\\Output\\MOD000000000000000020082325700000.stp', '2019-01-02T12:10:29', (''), (''), 'Express v3.0.0.0', 'Express Tool', 'Unknown');
FILE_SCHEMA(('AUTOMOTIVE_DESIGN'));
ENDSEC;

DATA;
#1 = MANIFOLD_SOLID_BREP('NOCUT', #2);
#2 = CLOSED_SHELL('', (#3, #20, #37, #76));
#3 = ADVANCED_FACE('', (#4), #15, .T.);
#4 = FACE_OUTER_BOUND('', #5, .T.);
#5 = EDGE_LOOP('', (#6));
#6 = ORIENTED_EDGE('', *, *, #7, .T.);
#7 = EDGE_CURVE('', #8, #8, #10, .T.);
#8 = VERTEX_POINT('', #9);
#9 = CARTESIAN_POINT('', (-12.5, 0., -78.));
#10 = CIRCLE('', #11, 12.5);
#11 = AXIS2_PLACEMENT_3D('', #12, #13, #14);
#12 = CARTESIAN_POINT('', (-1.66533453693773E-15, 2.66453525910038E-15, -78.));
#13 = DIRECTION('', (-8.24806752140137E-31, 3.86937435582395E-15, -1.));
#14 = DIRECTION('', (-1., -2.1316282072803E-16, 0.));
#15 = B_SPLINE_SURFACE_WITH_KNOTS('', 1, 1, ((#16, #17), (#18, #19)), .UNSPECIFIED., .F., .F., .U., (2, 2), (2, 2), (-12.501, 12.501), (-25.001, 0.000999999999999446), .UNSPECIFIED.);
#16 = CARTESIAN_POINT('', (12.501, -12.501, -78.));
#17 = CARTESIAN_POINT('', (12.501, 12.501, -78.));
#18 = CARTESIAN_POINT('', (-12.501, -12.501, -78.));
#19 = CARTESIAN_POINT('', (-12.501, 12.501, -78.));
#20 = ADVANCED_FACE('', (#21), #32, .T.);
#21 = FACE_OUTER_BOUND('', #22, .T.);
#22 = EDGE_LOOP('', (#23));
#23 = ORIENTED_EDGE('', *, *, #24, .T.);
#24 = EDGE_CURVE('', #25, #25, #27, .T.);
#25 = VERTEX_POINT('', #26);
#26 = CARTESIAN_POINT('', (-11.5, 0., 0.));
#27 = CIRCLE('', #28, 11.5);
#28 = AXIS2_PLACEMENT_3D('', #29, #30, #31);
#29 = CARTESIAN_POINT('', (2.99760216648792E-15, -3.10862446895044E-15, 0.));
#30 = DIRECTION('', (0., 0., 1.));
#31 = DIRECTION('', (-1., 2.70315171213082E-16, 0.));
#32 = B_SPLINE_SURFACE_WITH_KNOTS('', 1, 1, ((#33, #34), (#35, #36)), .UNSPECIFIED., .F., .F., .U., (2, 2), (2, 2), (-11.501, 11.501), (-11.501, 11.501), .UNSPECIFIED.);
#33 = CARTESIAN_POINT('', (-11.501, -11.501, 0.));
#34 = CARTESIAN_POINT('', (-11.501, 11.501, 0.));
#35 = CARTESIAN_POINT('', (11.501, -11.501, 0.));
#36 = CARTESIAN_POINT('', (11.501, 11.501, 0.));
#37 = ADVANCED_FACE('', (#38), #57, .T.);
#38 = FACE_OUTER_BOUND('', #39, .T.);
#39 = EDGE_LOOP('', (#40, #48, #55, #56));
#40 = ORIENTED_EDGE('', *, *, #41, .T.);
#41 = EDGE_CURVE('', #8, #42, #44, .T.);
#42 = VERTEX_POINT('', #43);
#43 = CARTESIAN_POINT('', (-12.5, 0., -1.));
#44 = LINE('', #45, #46);
#45 = CARTESIAN_POINT('', (-12.5, 0., -78.));
#46 = VECTOR('', #47, 77.);
#47 = DIRECTION('', (0., 0., 77.));
#48 = ORIENTED_EDGE('', *, *, #49, .T.);
#49 = EDGE_CURVE('', #42, #42, #50, .T.);
#50 = CIRCLE('', #51, 12.5);
#51 = AXIS2_PLACEMENT_3D('', #52, #53, #54);
#52 = CARTESIAN_POINT('', (-1.66533453693773E-15, 2.66453525910038E-15, -1.));
#53 = DIRECTION('', (0., 0., -1.));
#54 = DIRECTION('', (-1., -2.1316282072803E-16, 0.));
#55 = ORIENTED_EDGE('', *, *, #41, .F.);
#56 = ORIENTED_EDGE('', *, *, #7, .F.);
#57 = (
   BOUNDED_SURFACE ()
   B_SPLINE_SURFACE (2, 1, ((#58, #59), (#60, #61), (#62, #63), (#64, #65), (#66, #67), (#68, #69), (#70, #71), (#72, #73), (#74, #75)), .UNSPECIFIED., .T., .F., .U.)
   B_SPLINE_SURFACE_WITH_KNOTS ((3, 2, 2, 2, 3), (2, 2), (0., 0.25, 0.5, 0.75, 1.), (0., 1.), .UNSPECIFIED.)
   GEOMETRIC_REPRESENTATION_ITEM ()
   RATIONAL_B_SPLINE_SURFACE (((1., 1.), (0.707106781186548, 0.707106781186548), (1., 1.), (0.707106781186548, 0.707106781186548), (1., 1.), (0.707106781186548, 0.707106781186548), (1., 1.), (0.707106781186548, 0.707106781186548), (1., 1.)))
   REPRESENTATION_ITEM ('')
   SURFACE ()
);
#58 = CARTESIAN_POINT('', (-12.5, 0., 6.7012));
#59 = CARTESIAN_POINT('', (-12.5, 0., -85.7012));
#60 = CARTESIAN_POINT('', (-12.5, 12.5, 6.7012));
#61 = CARTESIAN_POINT('', (-12.5, 12.5, -85.7012));
#62 = CARTESIAN_POINT('', (-2.76380569379238E-15, 12.5, 6.7012));
#63 = CARTESIAN_POINT('', (-2.76380569379238E-15, 12.5, -85.7012));
#64 = CARTESIAN_POINT('', (12.5, 12.5, 6.7012));
#65 = CARTESIAN_POINT('', (12.5, 12.5, -85.7012));
#66 = CARTESIAN_POINT('', (12.5, 5.97170059743482E-15, 6.7012));
#67 = CARTESIAN_POINT('', (12.5, 5.97170059743482E-15, -85.7012));
#68 = CARTESIAN_POINT('', (12.5, -12.5, 6.7012));
#69 = CARTESIAN_POINT('', (12.5, -12.5, -85.7012));
#70 = CARTESIAN_POINT('', (4.73870340257663E-15, -12.5, 6.7012));
#71 = CARTESIAN_POINT('', (4.73870340257663E-15, -12.5, -85.7012));
#72 = CARTESIAN_POINT('', (-12.5, -12.5, 6.7012));
#73 = CARTESIAN_POINT('', (-12.5, -12.5, -85.7012));
#74 = CARTESIAN_POINT('', (-12.5, 0., 6.7012));
#75 = CARTESIAN_POINT('', (-12.5, 0., -85.7012));
#76 = ADVANCED_FACE('', (#77), #88, .T.);
#77 = FACE_OUTER_BOUND('', #78, .T.);
#78 = EDGE_LOOP('', (#79, #85, #86, #87));
#79 = ORIENTED_EDGE('', *, *, #80, .T.);
#80 = EDGE_CURVE('', #42, #25, #81, .T.);
#81 = LINE('', #82, #83);
#82 = CARTESIAN_POINT('', (-12.5, 2.89012282701127E-16, -1.));
#83 = VECTOR('', #84, 1.41421356237309);
#84 = DIRECTION('', (1., -2.88723559141984E-16, 1.));
#85 = ORIENTED_EDGE('', *, *, #24, .F.);
#86 = ORIENTED_EDGE('', *, *, #80, .F.);
#87 = ORIENTED_EDGE('', *, *, #49, .F.);
#88 = (
   BOUNDED_SURFACE ()
   B_SPLINE_SURFACE (2, 1, ((#89, #90), (#91, #92), (#93, #94), (#95, #96), (#97, #98), (#99, #100), (#101, #102), (#103, #104), (#105, #106)), .UNSPECIFIED., .T., .F., .U.)
   B_SPLINE_SURFACE_WITH_KNOTS ((3, 2, 2, 2, 3), (2, 2), (0., 0.25, 0.5, 0.75, 1.), (0., 1.), .UNSPECIFIED.)
   GEOMETRIC_REPRESENTATION_ITEM ()
   RATIONAL_B_SPLINE_SURFACE (((1., 1.), (0.707106781186548, 0.707106781186548), (1., 1.), (0.707106781186548, 0.707106781186548), (1., 1.), (0.707106781186548, 0.707106781186548), (1., 1.), (0.707106781186548, 0.707106781186548), (1., 1.)))
   REPRESENTATION_ITEM ('')
   SURFACE ()
);
#89 = CARTESIAN_POINT('', (-11.499, 3.94430452610506E-31, 0.00100000000000114));
#90 = CARTESIAN_POINT('', (-12.501, 2.89301006260269E-16, -1.001));
#91 = CARTESIAN_POINT('', (-11.499, 11.499, 0.00100000000000624));
#92 = CARTESIAN_POINT('', (-12.501, 12.501, -1.00099999999999));
#93 = CARTESIAN_POINT('', (-1.25922218948235E-15, 11.499, 0.00100000000000499));
#94 = CARTESIAN_POINT('', (-1.58437070875795E-15, 12.501, -1.00099999999999));
#95 = CARTESIAN_POINT('', (11.499, 11.499, 0.00100000000000374));
#96 = CARTESIAN_POINT('', (12.501, 12.501, -1.001));
#97 = CARTESIAN_POINT('', (11.499, 4.96093503314004E-15, 0.000999999999998639));
#98 = CARTESIAN_POINT('', (12.501, 5.68252205585447E-15, -1.001));
#99 = CARTESIAN_POINT('', (11.499, -11.499, 0.000999999999993543));
#100 = CARTESIAN_POINT('', (12.501, -12.501, -1.00100000000001));
#101 = CARTESIAN_POINT('', (5.10993419799723E-15, -11.499, 0.000999999999994793));
#102 = CARTESIAN_POINT('', (5.33978130445035E-15, -12.501, -1.00100000000001));
#103 = CARTESIAN_POINT('', (-11.499, -11.499, 0.000999999999996044));
#104 = CARTESIAN_POINT('', (-12.501, -12.501, -1.001));
#105 = CARTESIAN_POINT('', (-11.499, 3.94430452610506E-31, 0.00100000000000114));
#106 = CARTESIAN_POINT('', (-12.501, 2.89301006260269E-16, -1.001));
#107 = DRAUGHTING_MODEL('', (#115, #239, #286, #291, #296, #301, #306, #311), #325);
#108 = PRESENTATION_STYLE_ASSIGNMENT((#109));
#109 = SURFACE_STYLE_USAGE(.POSITIVE., #110);
#110 = SURFACE_SIDE_STYLE('', (#111));
#111 = SURFACE_STYLE_FILL_AREA(#112);
#112 = FILL_AREA_STYLE('', (#113));
#113 = FILL_AREA_STYLE_COLOUR('', #114);
#114 = COLOUR_RGB('', 0.50196078431373, 0.50196078431373, 0.50196078431373);
#115 = STYLED_ITEM('', (#108), #1);
#116 = MANIFOLD_SOLID_BREP('CUT', #117);
#117 = CLOSED_SHELL('', (#118, #135, #183, #200));
#118 = ADVANCED_FACE('', (#119), #130, .T.);
#119 = FACE_OUTER_BOUND('', #120, .T.);
#120 = EDGE_LOOP('', (#121));
#121 = ORIENTED_EDGE('', *, *, #122, .F.);
#122 = EDGE_CURVE('', #123, #123, #125, .T.);
#123 = VERTEX_POINT('', #124);
#124 = CARTESIAN_POINT('', (-12.5, 0., -78.));
#125 = CIRCLE('', #126, 12.5);
#126 = AXIS2_PLACEMENT_3D('', #127, #128, #129);
#127 = CARTESIAN_POINT('', (-1.66533453693773E-15, 2.66453525910038E-15, -78.));
#128 = DIRECTION('', (-8.24806752140137E-31, 3.86937435582395E-15, -1.));
#129 = DIRECTION('', (-1., -2.1316282072803E-16, 0.));
#130 = B_SPLINE_SURFACE_WITH_KNOTS('', 1, 1, ((#131, #132), (#133, #134)), .UNSPECIFIED., .F., .F., .U., (2, 2), (2, 2), (-12.501, 12.501), (-12.501, 12.501), .UNSPECIFIED.);
#131 = CARTESIAN_POINT('', (-12.501, -12.501, -78.));
#132 = CARTESIAN_POINT('', (-12.501, 12.501, -78.));
#133 = CARTESIAN_POINT('', (12.501, -12.501, -78.));
#134 = CARTESIAN_POINT('', (12.501, 12.501, -78.));
#135 = ADVANCED_FACE('', (#136), #164, .T.);
#136 = FACE_OUTER_BOUND('', #137, .T.);
#137 = EDGE_LOOP('', (#138, #146, #147, #148, #157));
#138 = ORIENTED_EDGE('', *, *, #139, .T.);
#139 = EDGE_CURVE('', #140, #123, #142, .T.);
#140 = VERTEX_POINT('', #141);
#141 = CARTESIAN_POINT('', (-12.5, 1.53080849893419E-15, -177.75));
#142 = LINE('', #143, #144);
#143 = CARTESIAN_POINT('', (-12.5, 0., -177.75));
#144 = VECTOR('', #145, 99.75);
#145 = DIRECTION('', (0., 0., 99.75));
#146 = ORIENTED_EDGE('', *, *, #122, .T.);
#147 = ORIENTED_EDGE('', *, *, #139, .F.);
#148 = ORIENTED_EDGE('', *, *, #149, .T.);
#149 = EDGE_CURVE('', #140, #150, #152, .T.);
#150 = VERTEX_POINT('', #151);
#151 = CARTESIAN_POINT('', (12.5, 0., -177.75));
#152 = CIRCLE('', #153, 12.5);
#153 = AXIS2_PLACEMENT_3D('', #154, #155, #156);
#154 = CARTESIAN_POINT('', (1.66533453693773E-15, 2.66453525910038E-15, -177.75));
#155 = DIRECTION('', (-1.64961350428027E-30, -7.7387487116479E-15, 1.));
#156 = DIRECTION('', (1., -2.1316282072803E-16, 0.));
#157 = ORIENTED_EDGE('', *, *, #158, .T.);
#158 = EDGE_CURVE('', #150, #140, #159, .T.);
#159 = CIRCLE('', #160, 12.5);
#160 = AXIS2_PLACEMENT_3D('', #161, #162, #163);
#161 = CARTESIAN_POINT('', (1.66533453693773E-15, 2.66453525910038E-15, -177.75));
#162 = DIRECTION('', (-1.64961350428027E-30, -7.7387487116479E-15, 1.));
#163 = DIRECTION('', (1., -2.1316282072803E-16, 0.));
#164 = (
   BOUNDED_SURFACE ()
   B_SPLINE_SURFACE (2, 1, ((#165, #166), (#167, #168), (#169, #170), (#171, #172), (#173, #174), (#175, #176), (#177, #178), (#179, #180), (#181, #182)), .UNSPECIFIED., .T., .F., .U.)
   B_SPLINE_SURFACE_WITH_KNOTS ((3, 2, 2, 2, 3), (2, 2), (0., 0.25, 0.5, 0.75, 1.), (0., 1.), .UNSPECIFIED.)
   GEOMETRIC_REPRESENTATION_ITEM ()
   RATIONAL_B_SPLINE_SURFACE (((1., 1.), (0.707106781186548, 0.707106781186548), (1., 1.), (0.707106781186548, 0.707106781186548), (1., 1.), (0.707106781186548, 0.707106781186548), (1., 1.), (0.707106781186548, 0.707106781186548), (1., 1.)))
   REPRESENTATION_ITEM ('')
   SURFACE ()
);
#165 = CARTESIAN_POINT('', (-12.5, 0., -68.0238));
#166 = CARTESIAN_POINT('', (-12.5, 0., -187.7262));
#167 = CARTESIAN_POINT('', (-12.5, 12.5, -68.0238));
#168 = CARTESIAN_POINT('', (-12.5, 12.5, -187.7262));
#169 = CARTESIAN_POINT('', (-2.76380569379238E-15, 12.5, -68.0238));
#170 = CARTESIAN_POINT('', (-2.76380569379238E-15, 12.5, -187.7262));
#171 = CARTESIAN_POINT('', (12.5, 12.5, -68.0238));
#172 = CARTESIAN_POINT('', (12.5, 12.5, -187.7262));
#173 = CARTESIAN_POINT('', (12.5, 5.97170059743482E-15, -68.0238));
#174 = CARTESIAN_POINT('', (12.5, 5.97170059743482E-15, -187.7262));
#175 = CARTESIAN_POINT('', (12.5, -12.5, -68.0238));
#176 = CARTESIAN_POINT('', (12.5, -12.5, -187.7262));
#177 = CARTESIAN_POINT('', (4.73870340257663E-15, -12.5, -68.0238));
#178 = CARTESIAN_POINT('', (4.73870340257663E-15, -12.5, -187.7262));
#179 = CARTESIAN_POINT('', (-12.5, -12.5, -68.0238));
#180 = CARTESIAN_POINT('', (-12.5, -12.5, -187.7262));
#181 = CARTESIAN_POINT('', (-12.5, 0., -68.0238));
#182 = CARTESIAN_POINT('', (-12.5, 0., -187.7262));
#183 = ADVANCED_FACE('', (#184), #195, .T.);
#184 = FACE_OUTER_BOUND('', #185, .T.);
#185 = EDGE_LOOP('', (#186));
#186 = ORIENTED_EDGE('', *, *, #187, .T.);
#187 = EDGE_CURVE('', #188, #188, #190, .T.);
#188 = VERTEX_POINT('', #189);
#189 = CARTESIAN_POINT('', (12.25, 0., -178.));
#190 = CIRCLE('', #191, 12.25);
#191 = AXIS2_PLACEMENT_3D('', #192, #193, #194);
#192 = CARTESIAN_POINT('', (2.16493489801906E-15, 3.33066907387547E-15, -178.));
#193 = DIRECTION('', (-2.14703965051055E-30, -7.89668235882436E-15, -1.));
#194 = DIRECTION('', (1., -2.71891352969426E-16, 0.));
#195 = B_SPLINE_SURFACE_WITH_KNOTS('', 1, 1, ((#196, #197), (#198, #199)), .UNSPECIFIED., .F., .F., .U., (2, 2), (2, 2), (-12.251, 12.251), (-24.751, -0.248999999999999), .UNSPECIFIED.);
#196 = CARTESIAN_POINT('', (12.251, -12.251, -178.));
#197 = CARTESIAN_POINT('', (12.251, 12.251, -178.));
#198 = CARTESIAN_POINT('', (-12.251, -12.251, -178.));
#199 = CARTESIAN_POINT('', (-12.251, 12.251, -178.));
#200 = ADVANCED_FACE('', (#201), #213, .T.);
#201 = FACE_OUTER_BOUND('', #202, .T.);
#202 = EDGE_LOOP('', (#203, #209, #210, #211, #212));
#203 = ORIENTED_EDGE('', *, *, #204, .T.);
#204 = EDGE_CURVE('', #150, #188, #205, .T.);
#205 = LINE('', #206, #207);
#206 = CARTESIAN_POINT('', (12.5, 1.02963704167459E-14, -177.75));
#207 = VECTOR('', #208, 0.353553390593274);
#208 = DIRECTION('', (-0.25, -1.0255349020663E-14, -0.25));
#209 = ORIENTED_EDGE('', *, *, #187, .F.);
#210 = ORIENTED_EDGE('', *, *, #204, .F.);
#211 = ORIENTED_EDGE('', *, *, #149, .F.);
#212 = ORIENTED_EDGE('', *, *, #158, .F.);
#213 = (
   BOUNDED_SURFACE ()
   B_SPLINE_SURFACE (2, 1, ((#214, #215), (#216, #217), (#218, #219), (#220, #221), (#222, #223), (#224, #225), (#226, #227), (#228, #229), (#230, #231)), .UNSPECIFIED., .T., .F., .U.)
   B_SPLINE_SURFACE_WITH_KNOTS ((3, 2, 2, 2, 3), (2, 2), (0., 0.25, 0.5, 0.75, 1.), (0., 1.), .UNSPECIFIED.)
   GEOMETRIC_REPRESENTATION_ITEM ()
   RATIONAL_B_SPLINE_SURFACE (((1., 1.), (0.707106781186548, 0.707106781186548), (1., 1.), (0.707106781186548, 0.707106781186548), (1., 1.), (0.707106781186548, 0.707106781186548), (1., 1.), (0.707106781186548, 0.707106781186548), (1., 1.)))
   REPRESENTATION_ITEM ('')
   SURFACE ()
);
#214 = CARTESIAN_POINT('', (12.249, 0., -178.001));
#215 = CARTESIAN_POINT('', (12.501, 1.03373918128287E-14, -177.749));
#216 = CARTESIAN_POINT('', (12.249, 12.249, -178.001));
#217 = CARTESIAN_POINT('', (12.501, 12.501, -177.749000000001));
#218 = CARTESIAN_POINT('', (-6.68845933285075E-15, 12.249, -178.001));
#219 = CARTESIAN_POINT('', (-6.79636876945875E-15, 12.501, -177.749000000001));
#220 = CARTESIAN_POINT('', (-12.249, 12.249, -178.001));
#221 = CARTESIAN_POINT('', (-12.501, 12.501, -177.749000000001));
#222 = CARTESIAN_POINT('', (-12.249, -1.04903388016761E-14, -178.001));
#223 = CARTESIAN_POINT('', (-12.501, -3.68765862063389E-16, -177.749));
#224 = CARTESIAN_POINT('', (-12.249, -12.249, -178.001));
#225 = CARTESIAN_POINT('', (-12.501, -12.501, -177.748999999999));
#226 = CARTESIAN_POINT('', (2.30180960454975E-15, -12.249, -178.001));
#227 = CARTESIAN_POINT('', (2.37885794181922E-15, -12.501, -177.748999999999));
#228 = CARTESIAN_POINT('', (12.249, -12.249, -178.001));
#229 = CARTESIAN_POINT('', (12.501, -12.501, -177.748999999999));
#230 = CARTESIAN_POINT('', (12.249, 0., -178.001));
#231 = CARTESIAN_POINT('', (12.501, 1.03373918128287E-14, -177.749));
#232 = PRESENTATION_STYLE_ASSIGNMENT((#233));
#233 = SURFACE_STYLE_USAGE(.POSITIVE., #234);
#234 = SURFACE_SIDE_STYLE('', (#235));
#235 = SURFACE_STYLE_FILL_AREA(#236);
#236 = FILL_AREA_STYLE('', (#237));
#237 = FILL_AREA_STYLE_COLOUR('', #238);
#238 = COLOUR_RGB('', 0.8, 0.8, 0.8);
#239 = STYLED_ITEM('', (#232), #116);
#240 = TRIMMED_CURVE('cutting part line', #241, (#245), (#246), .T., .CARTESIAN.);
#241 = LINE('', #242, #243);
#242 = CARTESIAN_POINT('', (12.2499999999996, -5.97895433835364E-15, -178.));
#243 = VECTOR('', #244, 0.353553390594191);
#244 = DIRECTION('', (0.250000000000643, 1.01314446200509E-14, 0.250000000000654));
#245 = CARTESIAN_POINT('', (12.2499999999996, -5.97895433835364E-15, -178.));
#246 = CARTESIAN_POINT('', (12.5000000000002, 4.15249028169724E-15, -177.75));
#247 = TRIMMED_CURVE('cutting part line', #248, (#252), (#253), .T., .CARTESIAN.);
#248 = LINE('', #249, #250);
#249 = CARTESIAN_POINT('', (12.5, 0., -177.75));
#250 = VECTOR('', #251, 99.75);
#251 = DIRECTION('', (0., 0., 99.75));
#252 = CARTESIAN_POINT('', (12.5, 0., -177.75));
#253 = CARTESIAN_POINT('', (12.5, 0., -78.));
#254 = TRIMMED_CURVE('cutting part line', #255, (#259), (#260), .T., .CARTESIAN.);
#255 = LINE('', #256, #257);
#256 = CARTESIAN_POINT('', (12.5, 0., -78.));
#257 = VECTOR('', #258, 12.5);
#258 = DIRECTION('', (-12.5, 0., 0.));
#259 = CARTESIAN_POINT('', (12.5, 0., -78.));
#260 = CARTESIAN_POINT('', (0., 0., -78.));
#261 = TRIMMED_CURVE('cutting part line', #262, (#266), (#267), .T., .CARTESIAN.);
#262 = LINE('', #263, #264);
#263 = CARTESIAN_POINT('', (0., 0., -77.9999999999999));
#264 = VECTOR('', #265, 100.);
#265 = DIRECTION('', (0., 0., -100.));
#266 = CARTESIAN_POINT('', (0., 0., -77.9999999999999));
#267 = CARTESIAN_POINT('', (0., 0., -178.));
#268 = TRIMMED_CURVE('cutting part line', #269, (#273), (#274), .T., .CARTESIAN.);
#269 = LINE('', #270, #271);
#270 = CARTESIAN_POINT('', (4.44089209850063E-16, 0., -178.));
#271 = VECTOR('', #272, 12.25);
#272 = DIRECTION('', (12.25, 0., -2.8421709430404E-14));
#273 = CARTESIAN_POINT('', (4.44089209850063E-16, 0., -178.));
#274 = CARTESIAN_POINT('', (12.25, 0., -178.));
#275 = COMPOSITE_CURVE('cutting part line', (#276, #277, #278, #279, #280), .U.);
#276 = COMPOSITE_CURVE_SEGMENT(.CONTINUOUS., .T., #240);
#277 = COMPOSITE_CURVE_SEGMENT(.CONTINUOUS., .T., #247);
#278 = COMPOSITE_CURVE_SEGMENT(.CONTINUOUS., .T., #254);
#279 = COMPOSITE_CURVE_SEGMENT(.CONTINUOUS., .T., #261);
#280 = COMPOSITE_CURVE_SEGMENT(.CONTINUOUS., .T., #268);
#281 = GEOMETRIC_SET('', (#275, #324));
#282 = PRESENTATION_STYLE_ASSIGNMENT((#283));
#283 = CURVE_STYLE('', #285, POSITIVE_LENGTH_MEASURE(1.E-6), #284);
#284 = COLOUR_RGB('', 0., 0., 1.);
#285 = DRAUGHTING_PRE_DEFINED_CURVE_FONT('continuous');
#286 = STYLED_ITEM('', (#282), #275);
#287 = PRESENTATION_STYLE_ASSIGNMENT((#288));
#288 = CURVE_STYLE('', #290, POSITIVE_LENGTH_MEASURE(1.E-6), #289);
#289 = COLOUR_RGB('', 0., 0., 1.);
#290 = DRAUGHTING_PRE_DEFINED_CURVE_FONT('continuous');
#291 = OVER_RIDING_STYLED_ITEM('', (#287), #240, #286);
#292 = PRESENTATION_STYLE_ASSIGNMENT((#293));
#293 = CURVE_STYLE('', #295, POSITIVE_LENGTH_MEASURE(1.E-6), #294);
#294 = COLOUR_RGB('', 0., 0., 1.);
#295 = DRAUGHTING_PRE_DEFINED_CURVE_FONT('continuous');
#296 = OVER_RIDING_STYLED_ITEM('', (#292), #247, #286);
#297 = PRESENTATION_STYLE_ASSIGNMENT((#298));
#298 = CURVE_STYLE('', #300, POSITIVE_LENGTH_MEASURE(1.E-6), #299);
#299 = COLOUR_RGB('', 0., 0., 1.);
#300 = DRAUGHTING_PRE_DEFINED_CURVE_FONT('continuous');
#301 = OVER_RIDING_STYLED_ITEM('', (#297), #254, #286);
#302 = PRESENTATION_STYLE_ASSIGNMENT((#303));
#303 = CURVE_STYLE('', #305, POSITIVE_LENGTH_MEASURE(1.E-6), #304);
#304 = COLOUR_RGB('', 0., 0., 1.);
#305 = DRAUGHTING_PRE_DEFINED_CURVE_FONT('continuous');
#306 = OVER_RIDING_STYLED_ITEM('', (#302), #261, #286);
#307 = PRESENTATION_STYLE_ASSIGNMENT((#308));
#308 = CURVE_STYLE('', #310, POSITIVE_LENGTH_MEASURE(1.E-6), #309);
#309 = COLOUR_RGB('', 0., 0., 1.);
#310 = DRAUGHTING_PRE_DEFINED_CURVE_FONT('continuous');
#311 = OVER_RIDING_STYLED_ITEM('', (#307), #268, #286);
#312 = AXIS2_PLACEMENT_3D('MCS', #313, #314, #315);
#313 = CARTESIAN_POINT('', (0., 0., -56.));
#314 = DIRECTION('', (0., 0., 1.));
#315 = DIRECTION('', (1., 0., 0.));
#316 = AXIS2_PLACEMENT_3D('PCS', #317, #318, #319);
#317 = CARTESIAN_POINT('', (0., 0., 0.));
#318 = DIRECTION('', (0., 0., 1.));
#319 = DIRECTION('', (1., 0., 0.));
#320 = AXIS2_PLACEMENT_3D('CIP', #321, #322, #323);
#321 = CARTESIAN_POINT('', (0., 0., -178.));
#322 = DIRECTION('', (0., 0., 1.));
#323 = DIRECTION('', (1., 0., 0.));
#324 = CARTESIAN_POINT('CRP', (12.5000000000002, 0., -178.));
#325 = (
   GEOMETRIC_REPRESENTATION_CONTEXT (3)
   GLOBAL_UNCERTAINTY_ASSIGNED_CONTEXT ((#327))
   GLOBAL_UNIT_ASSIGNED_CONTEXT ((#326, #328, #329))
   REPRESENTATION_CONTEXT ('', '3D')
);
#326 = (
   LENGTH_UNIT ()
   NAMED_UNIT (*)
   SI_UNIT (.MILLI., .METRE.)
);
#327 = UNCERTAINTY_MEASURE_WITH_UNIT(LENGTH_MEASURE(1.E-6), #326, 'DISTANCE_ACCURACY_VALUE', '');
#328 = (
   NAMED_UNIT (*)
   SI_UNIT ($, .STERADIAN.)
   SOLID_ANGLE_UNIT ()
);
#329 = (
   NAMED_UNIT (*)
   PLANE_ANGLE_UNIT ()
   SI_UNIT ($, .RADIAN.)
);
#330 = SHAPE_REPRESENTATION('', (), #325);
#331 = PRODUCT_DEFINITION_SHAPE('', '', #332);
#332 = PRODUCT_DEFINITION('', '', #335, #339);
#333 = APPLICATION_CONTEXT('configuration controlled 3D designs of mechanical parts and assemblies');
#334 = APPLICATION_PROTOCOL_DEFINITION('International Standard', 'automotive_design', 2002, #333);
#335 = PRODUCT_DEFINITION_FORMATION_WITH_SPECIFIED_SOURCE('', '', #336, .NOT_KNOWN.);
#336 = PRODUCT('pr98046CF45Auwbe', '2P370-2500-PB       1740', '', (#337));
#337 = PRODUCT_CONTEXT('', #333, 'mechanical');
#338 = PRODUCT_RELATED_PRODUCT_CATEGORY('detail', '', (#336));
#339 = PRODUCT_DEFINITION_CONTEXT('part definition', #333, 'design');
#340 = SHAPE_DEFINITION_REPRESENTATION(#331, #330);
#341 = CONSTRUCTIVE_GEOMETRY_REPRESENTATION('supplemental geometry', (#312, #316, #320), #325);
#342 = CONSTRUCTIVE_GEOMETRY_REPRESENTATION_RELATIONSHIP('', '', #330, #341);
#343 = SHAPE_REPRESENTATION_RELATIONSHIP('', '', #330, #344);
#344 = SHAPE_REPRESENTATION('', (#281), #325);
#345 = SHAPE_REPRESENTATION_RELATIONSHIP('', '', #330, #346);
#346 = ADVANCED_BREP_SHAPE_REPRESENTATION('', (#1, #116), #325);
ENDSEC;
END-ISO-10303-21;
