ISO-10303-21;
HEADER;
FILE_DESCRIPTION(('STEP'), '1');
FILE_NAME('C:\\Users\\ds2002\\OneDrive - Sandvik\\HomeShare\\Documents\\Batchrepair\\CorSRT2\\NEW_MILSQ_SLD\\Output\\MOD000000000000000020082324800000.stp', '2019-01-02T12:07:58', (''), (''), 'Express v3.0.0.0', 'Express Tool', 'Unknown');
FILE_SCHEMA(('AUTOMOTIVE_DESIGN'));
ENDSEC;

DATA;
#1 = MANIFOLD_SOLID_BREP('NOCUT', #2);
#2 = CLOSED_SHELL('', (#3, #20, #37, #76));
#3 = ADVANCED_FACE('', (#4), #15, .T.);
#4 = FACE_OUTER_BOUND('', #5, .T.);
#5 = EDGE_LOOP('', (#6));
#6 = ORIENTED_EDGE('', *, *, #7, .T.);
#7 = EDGE_CURVE('', #8, #8, #10, .T.);
#8 = VERTEX_POINT('', #9);
#9 = CARTESIAN_POINT('', (-4., 0., -42.));
#10 = CIRCLE('', #11, 4.);
#11 = AXIS2_PLACEMENT_3D('', #12, #13, #14);
#12 = CARTESIAN_POINT('', (2.91433543964104E-16, -1.4432899320127E-15, -42.));
#13 = DIRECTION('', (0., 0., -1.));
#14 = DIRECTION('', (-1., 3.60822483003176E-16, 0.));
#15 = B_SPLINE_SURFACE_WITH_KNOTS('', 1, 1, ((#16, #17), (#18, #19)), .UNSPECIFIED., .F., .F., .U., (2, 2), (2, 2), (-4.001, 4.001), (-8.001, 0.00100000000000033), .UNSPECIFIED.);
#16 = CARTESIAN_POINT('', (4.001, -4.001, -42.));
#17 = CARTESIAN_POINT('', (4.001, 4.001, -42.));
#18 = CARTESIAN_POINT('', (-4.001, -4.001, -42.));
#19 = CARTESIAN_POINT('', (-4.001, 4.001, -42.));
#20 = ADVANCED_FACE('', (#21), #32, .T.);
#21 = FACE_OUTER_BOUND('', #22, .T.);
#22 = EDGE_LOOP('', (#23));
#23 = ORIENTED_EDGE('', *, *, #24, .T.);
#24 = EDGE_CURVE('', #25, #25, #27, .T.);
#25 = VERTEX_POINT('', #26);
#26 = CARTESIAN_POINT('', (-3.4, 0., 0.));
#27 = CIRCLE('', #28, 3.4);
#28 = AXIS2_PLACEMENT_3D('', #29, #30, #31);
#29 = CARTESIAN_POINT('', (-6.80011602582908E-16, 9.43689570931383E-16, 0.));
#30 = DIRECTION('', (0., 0., 1.));
#31 = DIRECTION('', (-1., -2.77555756156289E-16, 0.));
#32 = B_SPLINE_SURFACE_WITH_KNOTS('', 1, 1, ((#33, #34), (#35, #36)), .UNSPECIFIED., .F., .F., .U., (2, 2), (2, 2), (-3.401, 3.401), (-3.40100000000001, 3.401), .UNSPECIFIED.);
#33 = CARTESIAN_POINT('', (-3.401, -3.401, 0.));
#34 = CARTESIAN_POINT('', (-3.401, 3.401, 0.));
#35 = CARTESIAN_POINT('', (3.401, -3.401, 0.));
#36 = CARTESIAN_POINT('', (3.401, 3.401, 0.));
#37 = ADVANCED_FACE('', (#38), #57, .T.);
#38 = FACE_OUTER_BOUND('', #39, .T.);
#39 = EDGE_LOOP('', (#40, #48, #55, #56));
#40 = ORIENTED_EDGE('', *, *, #41, .T.);
#41 = EDGE_CURVE('', #8, #42, #44, .T.);
#42 = VERTEX_POINT('', #43);
#43 = CARTESIAN_POINT('', (-4., 0., -0.6));
#44 = LINE('', #45, #46);
#45 = CARTESIAN_POINT('', (-4., 0., -42.));
#46 = VECTOR('', #47, 41.4);
#47 = DIRECTION('', (0., 0., 41.4));
#48 = ORIENTED_EDGE('', *, *, #49, .T.);
#49 = EDGE_CURVE('', #42, #42, #50, .T.);
#50 = CIRCLE('', #51, 4.);
#51 = AXIS2_PLACEMENT_3D('', #52, #53, #54);
#52 = CARTESIAN_POINT('', (2.91433543964104E-16, -1.4432899320127E-15, -0.6));
#53 = DIRECTION('', (0., 0., -1.));
#54 = DIRECTION('', (-1., 3.60822483003176E-16, 0.));
#55 = ORIENTED_EDGE('', *, *, #41, .F.);
#56 = ORIENTED_EDGE('', *, *, #7, .F.);
#57 = (
   BOUNDED_SURFACE ()
   B_SPLINE_SURFACE (2, 1, ((#58, #59), (#60, #61), (#62, #63), (#64, #65), (#66, #67), (#68, #69), (#70, #71), (#72, #73), (#74, #75)), .UNSPECIFIED., .T., .F., .U.)
   B_SPLINE_SURFACE_WITH_KNOTS ((3, 2, 2, 2, 3), (2, 2), (0., 0.25, 0.5, 0.75, 1.), (0., 1.), .UNSPECIFIED.)
   GEOMETRIC_REPRESENTATION_ITEM ()
   RATIONAL_B_SPLINE_SURFACE (((1., 1.), (0.707106781186548, 0.707106781186548), (1., 1.), (0.707106781186548, 0.707106781186548), (1., 1.), (0.707106781186548, 0.707106781186548), (1., 1.), (0.707106781186548, 0.707106781186548), (1., 1.)))
   REPRESENTATION_ITEM ('')
   SURFACE ()
);
#58 = CARTESIAN_POINT('', (-4., 0., 3.5412));
#59 = CARTESIAN_POINT('', (-4., 0., -46.1412));
#60 = CARTESIAN_POINT('', (-4., 4., 3.5412));
#61 = CARTESIAN_POINT('', (-4., 4., -46.1412));
#62 = CARTESIAN_POINT('', (-1.48005247472496E-15, 4., 3.5412));
#63 = CARTESIAN_POINT('', (-1.48005247472496E-15, 4., -46.1412));
#64 = CARTESIAN_POINT('', (4., 4., 3.5412));
#65 = CARTESIAN_POINT('', (4., 4., -46.1412));
#66 = CARTESIAN_POINT('', (4., 2.71030476890925E-15, 3.5412));
#67 = CARTESIAN_POINT('', (4., 2.71030476890925E-15, -46.1412));
#68 = CARTESIAN_POINT('', (4., -4., 3.5412));
#69 = CARTESIAN_POINT('', (4., -4., -46.1412));
#70 = CARTESIAN_POINT('', (1.72011101384324E-15, -4., 3.5412));
#71 = CARTESIAN_POINT('', (1.72011101384324E-15, -4., -46.1412));
#72 = CARTESIAN_POINT('', (-4., -4., 3.5412));
#73 = CARTESIAN_POINT('', (-4., -4., -46.1412));
#74 = CARTESIAN_POINT('', (-4., 0., 3.5412));
#75 = CARTESIAN_POINT('', (-4., 0., -46.1412));
#76 = ADVANCED_FACE('', (#77), #88, .T.);
#77 = FACE_OUTER_BOUND('', #78, .T.);
#78 = EDGE_LOOP('', (#79, #85, #86, #87));
#79 = ORIENTED_EDGE('', *, *, #80, .T.);
#80 = EDGE_CURVE('', #42, #25, #81, .T.);
#81 = LINE('', #82, #83);
#82 = CARTESIAN_POINT('', (-4., 2.86909999256222E-16, -0.6));
#83 = VECTOR('', #84, 0.848528137423857);
#84 = DIRECTION('', (0.6, -2.86432611570271E-16, 0.6));
#85 = ORIENTED_EDGE('', *, *, #24, .F.);
#86 = ORIENTED_EDGE('', *, *, #80, .F.);
#87 = ORIENTED_EDGE('', *, *, #49, .F.);
#88 = (
   BOUNDED_SURFACE ()
   B_SPLINE_SURFACE (2, 1, ((#89, #90), (#91, #92), (#93, #94), (#95, #96), (#97, #98), (#99, #100), (#101, #102), (#103, #104), (#105, #106)), .UNSPECIFIED., .T., .F., .U.)
   B_SPLINE_SURFACE_WITH_KNOTS ((3, 2, 2, 2, 3), (2, 2), (0., 0.25, 0.5, 0.75, 1.), (0., 1.), .UNSPECIFIED.)
   GEOMETRIC_REPRESENTATION_ITEM ()
   RATIONAL_B_SPLINE_SURFACE (((1., 1.), (0.707106781186548, 0.707106781186548), (1., 1.), (0.707106781186548, 0.707106781186548), (1., 1.), (0.707106781186548, 0.707106781186548), (1., 1.), (0.707106781186548, 0.707106781186548), (1., 1.)))
   REPRESENTATION_ITEM ('')
   SURFACE ()
);
#89 = CARTESIAN_POINT('', (-3.399, 0., 0.00100000000000022));
#90 = CARTESIAN_POINT('', (-4.001, 2.87387386942172E-16, -0.601));
#91 = CARTESIAN_POINT('', (-3.399, 3.399, 0.00100000000000179));
#92 = CARTESIAN_POINT('', (-4.001, 4.001, -0.600999999999998));
#93 = CARTESIAN_POINT('', (-3.46906601593237E-16, 3.399, 0.00100000000000157));
#94 = CARTESIAN_POINT('', (-4.13532196259524E-16, 4.001, -0.600999999999998));
#95 = CARTESIAN_POINT('', (3.399, 3.399, 0.00100000000000134));
#96 = CARTESIAN_POINT('', (4.001, 4.001, -0.600999999999998));
#97 = CARTESIAN_POINT('', (3.399, 3.0523514456767E-16, 0.000999999999999777));
#98 = CARTESIAN_POINT('', (4.001, 6.46683007246746E-16, -0.601));
#99 = CARTESIAN_POINT('', (3.399, -3.399, 0.00099999999999821));
#100 = CARTESIAN_POINT('', (4.001, -4.001, -0.601000000000002));
#101 = CARTESIAN_POINT('', (3.74585990004618E-16, -3.399, 0.000999999999998434));
#102 = CARTESIAN_POINT('', (4.35744608383906E-16, -4.001, -0.601000000000002));
#103 = CARTESIAN_POINT('', (-3.399, -3.399, 0.000999999999998657));
#104 = CARTESIAN_POINT('', (-4.001, -4.001, -0.601000000000002));
#105 = CARTESIAN_POINT('', (-3.399, 0., 0.00100000000000022));
#106 = CARTESIAN_POINT('', (-4.001, 2.87387386942172E-16, -0.601));
#107 = DRAUGHTING_MODEL('', (#115, #239, #286, #291, #296, #301, #306, #311), #325);
#108 = PRESENTATION_STYLE_ASSIGNMENT((#109));
#109 = SURFACE_STYLE_USAGE(.POSITIVE., #110);
#110 = SURFACE_SIDE_STYLE('', (#111));
#111 = SURFACE_STYLE_FILL_AREA(#112);
#112 = FILL_AREA_STYLE('', (#113));
#113 = FILL_AREA_STYLE_COLOUR('', #114);
#114 = COLOUR_RGB('', 0.50196078431373, 0.50196078431373, 0.50196078431373);
#115 = STYLED_ITEM('', (#108), #1);
#116 = MANIFOLD_SOLID_BREP('CUT', #117);
#117 = CLOSED_SHELL('', (#118, #135, #183, #200));
#118 = ADVANCED_FACE('', (#119), #130, .T.);
#119 = FACE_OUTER_BOUND('', #120, .T.);
#120 = EDGE_LOOP('', (#121));
#121 = ORIENTED_EDGE('', *, *, #122, .F.);
#122 = EDGE_CURVE('', #123, #123, #125, .T.);
#123 = VERTEX_POINT('', #124);
#124 = CARTESIAN_POINT('', (-4., 0., -42.));
#125 = CIRCLE('', #126, 4.);
#126 = AXIS2_PLACEMENT_3D('', #127, #128, #129);
#127 = CARTESIAN_POINT('', (2.91433543964104E-16, -1.4432899320127E-15, -42.));
#128 = DIRECTION('', (0., 0., -1.));
#129 = DIRECTION('', (-1., 3.60822483003176E-16, 0.));
#130 = B_SPLINE_SURFACE_WITH_KNOTS('', 1, 1, ((#131, #132), (#133, #134)), .UNSPECIFIED., .F., .F., .U., (2, 2), (2, 2), (-4.001, 4.001), (-4.00099999999999, 4.00100000000001), .UNSPECIFIED.);
#131 = CARTESIAN_POINT('', (-4.001, -4.001, -42.));
#132 = CARTESIAN_POINT('', (-4.001, 4.001, -42.));
#133 = CARTESIAN_POINT('', (4.001, -4.001, -42.));
#134 = CARTESIAN_POINT('', (4.001, 4.001, -42.));
#135 = ADVANCED_FACE('', (#136), #164, .T.);
#136 = FACE_OUTER_BOUND('', #137, .T.);
#137 = EDGE_LOOP('', (#138, #146, #147, #148, #157));
#138 = ORIENTED_EDGE('', *, *, #139, .T.);
#139 = EDGE_CURVE('', #140, #123, #142, .T.);
#140 = VERTEX_POINT('', #141);
#141 = CARTESIAN_POINT('', (-4., 4.89858719658941E-16, -73.9));
#142 = LINE('', #143, #144);
#143 = CARTESIAN_POINT('', (-4., 0., -73.9));
#144 = VECTOR('', #145, 31.9);
#145 = DIRECTION('', (0., 0., 31.9));
#146 = ORIENTED_EDGE('', *, *, #122, .T.);
#147 = ORIENTED_EDGE('', *, *, #139, .F.);
#148 = ORIENTED_EDGE('', *, *, #149, .T.);
#149 = EDGE_CURVE('', #140, #150, #152, .T.);
#150 = VERTEX_POINT('', #151);
#151 = CARTESIAN_POINT('', (4., 0., -73.9));
#152 = CIRCLE('', #153, 4.);
#153 = AXIS2_PLACEMENT_3D('', #154, #155, #156);
#154 = CARTESIAN_POINT('', (-2.91433543964104E-16, -1.4432899320127E-15, -73.9));
#155 = DIRECTION('', (0., 0., 1.));
#156 = DIRECTION('', (1., 3.60822483003176E-16, 0.));
#157 = ORIENTED_EDGE('', *, *, #158, .T.);
#158 = EDGE_CURVE('', #150, #140, #159, .T.);
#159 = CIRCLE('', #160, 4.);
#160 = AXIS2_PLACEMENT_3D('', #161, #162, #163);
#161 = CARTESIAN_POINT('', (-2.91433543964104E-16, -1.4432899320127E-15, -73.9));
#162 = DIRECTION('', (0., 0., 1.));
#163 = DIRECTION('', (1., 3.60822483003176E-16, 0.));
#164 = (
   BOUNDED_SURFACE ()
   B_SPLINE_SURFACE (2, 1, ((#165, #166), (#167, #168), (#169, #170), (#171, #172), (#173, #174), (#175, #176), (#177, #178), (#179, #180), (#181, #182)), .UNSPECIFIED., .T., .F., .U.)
   B_SPLINE_SURFACE_WITH_KNOTS ((3, 2, 2, 2, 3), (2, 2), (0., 0.25, 0.5, 0.75, 1.), (0., 1.), .UNSPECIFIED.)
   GEOMETRIC_REPRESENTATION_ITEM ()
   RATIONAL_B_SPLINE_SURFACE (((1., 1.), (0.707106781186548, 0.707106781186548), (1., 1.), (0.707106781186548, 0.707106781186548), (1., 1.), (0.707106781186548, 0.707106781186548), (1., 1.), (0.707106781186548, 0.707106781186548), (1., 1.)))
   REPRESENTATION_ITEM ('')
   SURFACE ()
);
#165 = CARTESIAN_POINT('', (-4., 0., -38.8088));
#166 = CARTESIAN_POINT('', (-4., 0., -77.0912));
#167 = CARTESIAN_POINT('', (-4., 4., -38.8088));
#168 = CARTESIAN_POINT('', (-4., 4., -77.0912));
#169 = CARTESIAN_POINT('', (-1.48005247472496E-15, 4., -38.8088));
#170 = CARTESIAN_POINT('', (-1.48005247472496E-15, 4., -77.0912));
#171 = CARTESIAN_POINT('', (4., 4., -38.8088));
#172 = CARTESIAN_POINT('', (4., 4., -77.0912));
#173 = CARTESIAN_POINT('', (4., 2.71030476890925E-15, -38.8088));
#174 = CARTESIAN_POINT('', (4., 2.71030476890925E-15, -77.0912));
#175 = CARTESIAN_POINT('', (4., -4., -38.8088));
#176 = CARTESIAN_POINT('', (4., -4., -77.0912));
#177 = CARTESIAN_POINT('', (1.72011101384324E-15, -4., -38.8088));
#178 = CARTESIAN_POINT('', (1.72011101384324E-15, -4., -77.0912));
#179 = CARTESIAN_POINT('', (-4., -4., -38.8088));
#180 = CARTESIAN_POINT('', (-4., -4., -77.0912));
#181 = CARTESIAN_POINT('', (-4., 0., -38.8088));
#182 = CARTESIAN_POINT('', (-4., 0., -77.0912));
#183 = ADVANCED_FACE('', (#184), #195, .T.);
#184 = FACE_OUTER_BOUND('', #185, .T.);
#185 = EDGE_LOOP('', (#186));
#186 = ORIENTED_EDGE('', *, *, #187, .T.);
#187 = EDGE_CURVE('', #188, #188, #190, .T.);
#188 = VERTEX_POINT('', #189);
#189 = CARTESIAN_POINT('', (3.9, 0., -74.));
#190 = CIRCLE('', #191, 3.9);
#191 = AXIS2_PLACEMENT_3D('', #192, #193, #194);
#192 = CARTESIAN_POINT('', (-1.52655665885959E-16, -1.33226762955019E-15, -74.));
#193 = DIRECTION('', (4.23655670683421E-30, -1.24018408840511E-14, -1.));
#194 = DIRECTION('', (1., 3.41607084500048E-16, 0.));
#195 = B_SPLINE_SURFACE_WITH_KNOTS('', 1, 1, ((#196, #197), (#198, #199)), .UNSPECIFIED., .F., .F., .U., (2, 2), (2, 2), (-3.901, 3.901), (-7.901, -0.0989999999999998), .UNSPECIFIED.);
#196 = CARTESIAN_POINT('', (3.901, -3.901, -74.));
#197 = CARTESIAN_POINT('', (3.901, 3.901, -74.));
#198 = CARTESIAN_POINT('', (-3.901, -3.901, -74.));
#199 = CARTESIAN_POINT('', (-3.901, 3.901, -74.));
#200 = ADVANCED_FACE('', (#201), #213, .T.);
#201 = FACE_OUTER_BOUND('', #202, .T.);
#202 = EDGE_LOOP('', (#203, #209, #210, #211, #212));
#203 = ORIENTED_EDGE('', *, *, #204, .T.);
#204 = EDGE_CURVE('', #150, #188, #205, .T.);
#205 = LINE('', #206, #207);
#206 = CARTESIAN_POINT('', (4., 1.93984323620318E-16, -73.9));
#207 = VECTOR('', #208, 0.141421356237302);
#208 = DIRECTION('', (-0.0999999999999956, -1.92063686752779E-16, -0.0999999999999943));
#209 = ORIENTED_EDGE('', *, *, #187, .F.);
#210 = ORIENTED_EDGE('', *, *, #204, .F.);
#211 = ORIENTED_EDGE('', *, *, #149, .F.);
#212 = ORIENTED_EDGE('', *, *, #158, .F.);
#213 = (
   BOUNDED_SURFACE ()
   B_SPLINE_SURFACE (2, 1, ((#214, #215), (#216, #217), (#218, #219), (#220, #221), (#222, #223), (#224, #225), (#226, #227), (#228, #229), (#230, #231)), .UNSPECIFIED., .T., .F., .U.)
   B_SPLINE_SURFACE_WITH_KNOTS ((3, 2, 2, 2, 3), (2, 2), (0., 0.25, 0.5, 0.75, 1.), (0., 1.), .UNSPECIFIED.)
   GEOMETRIC_REPRESENTATION_ITEM ()
   RATIONAL_B_SPLINE_SURFACE (((1., 1.), (0.707106781186548, 0.707106781186548), (1., 1.), (0.707106781186548, 0.707106781186548), (1., 1.), (0.707106781186548, 0.707106781186548), (1., 1.), (0.707106781186548, 0.707106781186548), (1., 1.)))
   REPRESENTATION_ITEM ('')
   SURFACE ()
);
#214 = CARTESIAN_POINT('', (3.89899999999999, 1.97215226305253E-31, -74.001));
#215 = CARTESIAN_POINT('', (4.001, 1.95904960487845E-16, -73.899));
#216 = CARTESIAN_POINT('', (3.89899999999999, 3.89899999999999, -74.001));
#217 = CARTESIAN_POINT('', (4.001, 4.001, -73.899));
#218 = CARTESIAN_POINT('', (4.74667286226622E-16, 3.899, -74.001));
#219 = CARTESIAN_POINT('', (5.0705262933946E-16, 4.001, -73.899));
#220 = CARTESIAN_POINT('', (-3.89899999999999, 3.899, -74.001));
#221 = CARTESIAN_POINT('', (-4.001, 4.001, -73.899));
#222 = CARTESIAN_POINT('', (-3.899, 2.47589123131283E-15, -74.001));
#223 = CARTESIAN_POINT('', (-4.001, 2.73656687802636E-15, -73.899));
#224 = CARTESIAN_POINT('', (-3.899, -3.89899999999999, -74.001));
#225 = CARTESIAN_POINT('', (-4.001, -4.00099999999999, -73.899));
#226 = CARTESIAN_POINT('', (-2.47871373207376E-15, -3.89899999999999, -74.001));
#227 = CARTESIAN_POINT('', (-2.52359047253791E-15, -4.001, -73.899));
#228 = CARTESIAN_POINT('', (3.89899999999999, -3.899, -74.001));
#229 = CARTESIAN_POINT('', (4.00099999999999, -4.001, -73.899));
#230 = CARTESIAN_POINT('', (3.89899999999999, 1.97215226305253E-31, -74.001));
#231 = CARTESIAN_POINT('', (4.001, 1.95904960487845E-16, -73.899));
#232 = PRESENTATION_STYLE_ASSIGNMENT((#233));
#233 = SURFACE_STYLE_USAGE(.POSITIVE., #234);
#234 = SURFACE_SIDE_STYLE('', (#235));
#235 = SURFACE_STYLE_FILL_AREA(#236);
#236 = FILL_AREA_STYLE('', (#237));
#237 = FILL_AREA_STYLE_COLOUR('', #238);
#238 = COLOUR_RGB('', 0.8, 0.8, 0.8);
#239 = STYLED_ITEM('', (#232), #116);
#240 = TRIMMED_CURVE('cutting part line', #241, (#245), (#246), .T., .CARTESIAN.);
#241 = LINE('', #242, #243);
#242 = CARTESIAN_POINT('', (3.89999999999997, 9.87904071760693E-16, -74.));
#243 = VECTOR('', #244, 0.14142135623736);
#244 = DIRECTION('', (0.100000000000034, 2.17657633780665E-16, 0.100000000000037));
#245 = CARTESIAN_POINT('', (3.89999999999997, 9.87904071760693E-16, -74.));
#246 = CARTESIAN_POINT('', (4., 1.20556170554136E-15, -73.9));
#247 = TRIMMED_CURVE('cutting part line', #248, (#252), (#253), .T., .CARTESIAN.);
#248 = LINE('', #249, #250);
#249 = CARTESIAN_POINT('', (4., 0., -73.9));
#250 = VECTOR('', #251, 31.9);
#251 = DIRECTION('', (0., 0., 31.9));
#252 = CARTESIAN_POINT('', (4., 0., -73.9));
#253 = CARTESIAN_POINT('', (4., 0., -42.));
#254 = TRIMMED_CURVE('cutting part line', #255, (#259), (#260), .T., .CARTESIAN.);
#255 = LINE('', #256, #257);
#256 = CARTESIAN_POINT('', (4., 0., -42.));
#257 = VECTOR('', #258, 4.);
#258 = DIRECTION('', (-4., 0., 0.));
#259 = CARTESIAN_POINT('', (4., 0., -42.));
#260 = CARTESIAN_POINT('', (0., 0., -42.));
#261 = TRIMMED_CURVE('cutting part line', #262, (#266), (#267), .T., .CARTESIAN.);
#262 = LINE('', #263, #264);
#263 = CARTESIAN_POINT('', (0., 0., -42.));
#264 = VECTOR('', #265, 32.);
#265 = DIRECTION('', (0., 0., -32.));
#266 = CARTESIAN_POINT('', (0., 0., -42.));
#267 = CARTESIAN_POINT('', (0., 0., -74.));
#268 = TRIMMED_CURVE('cutting part line', #269, (#273), (#274), .T., .CARTESIAN.);
#269 = LINE('', #270, #271);
#270 = CARTESIAN_POINT('', (0., 0., -74.));
#271 = VECTOR('', #272, 3.9);
#272 = DIRECTION('', (3.9, 0., 0.));
#273 = CARTESIAN_POINT('', (0., 0., -74.));
#274 = CARTESIAN_POINT('', (3.9, 0., -74.));
#275 = COMPOSITE_CURVE('cutting part line', (#276, #277, #278, #279, #280), .U.);
#276 = COMPOSITE_CURVE_SEGMENT(.CONTINUOUS., .T., #240);
#277 = COMPOSITE_CURVE_SEGMENT(.CONTINUOUS., .T., #247);
#278 = COMPOSITE_CURVE_SEGMENT(.CONTINUOUS., .T., #254);
#279 = COMPOSITE_CURVE_SEGMENT(.CONTINUOUS., .T., #261);
#280 = COMPOSITE_CURVE_SEGMENT(.CONTINUOUS., .T., #268);
#281 = GEOMETRIC_SET('', (#275, #324));
#282 = PRESENTATION_STYLE_ASSIGNMENT((#283));
#283 = CURVE_STYLE('', #285, POSITIVE_LENGTH_MEASURE(1.E-6), #284);
#284 = COLOUR_RGB('', 0., 0., 1.);
#285 = DRAUGHTING_PRE_DEFINED_CURVE_FONT('continuous');
#286 = STYLED_ITEM('', (#282), #275);
#287 = PRESENTATION_STYLE_ASSIGNMENT((#288));
#288 = CURVE_STYLE('', #290, POSITIVE_LENGTH_MEASURE(1.E-6), #289);
#289 = COLOUR_RGB('', 0., 0., 1.);
#290 = DRAUGHTING_PRE_DEFINED_CURVE_FONT('continuous');
#291 = OVER_RIDING_STYLED_ITEM('', (#287), #240, #286);
#292 = PRESENTATION_STYLE_ASSIGNMENT((#293));
#293 = CURVE_STYLE('', #295, POSITIVE_LENGTH_MEASURE(1.E-6), #294);
#294 = COLOUR_RGB('', 0., 0., 1.);
#295 = DRAUGHTING_PRE_DEFINED_CURVE_FONT('continuous');
#296 = OVER_RIDING_STYLED_ITEM('', (#292), #247, #286);
#297 = PRESENTATION_STYLE_ASSIGNMENT((#298));
#298 = CURVE_STYLE('', #300, POSITIVE_LENGTH_MEASURE(1.E-6), #299);
#299 = COLOUR_RGB('', 0., 0., 1.);
#300 = DRAUGHTING_PRE_DEFINED_CURVE_FONT('continuous');
#301 = OVER_RIDING_STYLED_ITEM('', (#297), #254, #286);
#302 = PRESENTATION_STYLE_ASSIGNMENT((#303));
#303 = CURVE_STYLE('', #305, POSITIVE_LENGTH_MEASURE(1.E-6), #304);
#304 = COLOUR_RGB('', 0., 0., 1.);
#305 = DRAUGHTING_PRE_DEFINED_CURVE_FONT('continuous');
#306 = OVER_RIDING_STYLED_ITEM('', (#302), #261, #286);
#307 = PRESENTATION_STYLE_ASSIGNMENT((#308));
#308 = CURVE_STYLE('', #310, POSITIVE_LENGTH_MEASURE(1.E-6), #309);
#309 = COLOUR_RGB('', 0., 0., 1.);
#310 = DRAUGHTING_PRE_DEFINED_CURVE_FONT('continuous');
#311 = OVER_RIDING_STYLED_ITEM('', (#307), #268, #286);
#312 = AXIS2_PLACEMENT_3D('MCS', #313, #314, #315);
#313 = CARTESIAN_POINT('', (0., 0., -36.));
#314 = DIRECTION('', (0., 0., 1.));
#315 = DIRECTION('', (1., 0., 0.));
#316 = AXIS2_PLACEMENT_3D('PCS', #317, #318, #319);
#317 = CARTESIAN_POINT('', (0., 0., 0.));
#318 = DIRECTION('', (0., 0., 1.));
#319 = DIRECTION('', (1., 0., 0.));
#320 = AXIS2_PLACEMENT_3D('CIP', #321, #322, #323);
#321 = CARTESIAN_POINT('', (0., 0., -74.));
#322 = DIRECTION('', (0., 0., 1.));
#323 = DIRECTION('', (1., 0., 0.));
#324 = CARTESIAN_POINT('CRP', (4., 0., -74.));
#325 = (
   GEOMETRIC_REPRESENTATION_CONTEXT (3)
   GLOBAL_UNCERTAINTY_ASSIGNED_CONTEXT ((#327))
   GLOBAL_UNIT_ASSIGNED_CONTEXT ((#326, #328, #329))
   REPRESENTATION_CONTEXT ('', '3D')
);
#326 = (
   LENGTH_UNIT ()
   NAMED_UNIT (*)
   SI_UNIT (.MILLI., .METRE.)
);
#327 = UNCERTAINTY_MEASURE_WITH_UNIT(LENGTH_MEASURE(1.E-6), #326, 'DISTANCE_ACCURACY_VALUE', '');
#328 = (
   NAMED_UNIT (*)
   SI_UNIT ($, .STERADIAN.)
   SOLID_ANGLE_UNIT ()
);
#329 = (
   NAMED_UNIT (*)
   PLANE_ANGLE_UNIT ()
   SI_UNIT ($, .RADIAN.)
);
#330 = SHAPE_REPRESENTATION('', (), #325);
#331 = PRODUCT_DEFINITION_SHAPE('', '', #332);
#332 = PRODUCT_DEFINITION('', '', #335, #339);
#333 = APPLICATION_CONTEXT('configuration controlled 3D designs of mechanical parts and assemblies');
#334 = APPLICATION_PROTOCOL_DEFINITION('International Standard', 'automotive_design', 2002, #333);
#335 = PRODUCT_DEFINITION_FORMATION_WITH_SPECIFIED_SOURCE('', '', #336, .NOT_KNOWN.);
#336 = PRODUCT('pr98046CF45Auw9b', '2P370-0800-PB       1740', '', (#337));
#337 = PRODUCT_CONTEXT('', #333, 'mechanical');
#338 = PRODUCT_RELATED_PRODUCT_CATEGORY('detail', '', (#336));
#339 = PRODUCT_DEFINITION_CONTEXT('part definition', #333, 'design');
#340 = SHAPE_DEFINITION_REPRESENTATION(#331, #330);
#341 = CONSTRUCTIVE_GEOMETRY_REPRESENTATION('supplemental geometry', (#312, #316, #320), #325);
#342 = CONSTRUCTIVE_GEOMETRY_REPRESENTATION_RELATIONSHIP('', '', #330, #341);
#343 = SHAPE_REPRESENTATION_RELATIONSHIP('', '', #330, #344);
#344 = SHAPE_REPRESENTATION('', (#281), #325);
#345 = SHAPE_REPRESENTATION_RELATIONSHIP('', '', #330, #346);
#346 = ADVANCED_BREP_SHAPE_REPRESENTATION('', (#1, #116), #325);
ENDSEC;
END-ISO-10303-21;
