ISO-10303-21;
HEADER;
FILE_DESCRIPTION(('STEP'), '1');
FILE_NAME('C:\\Users\\ds2002\\OneDrive - Sandvik\\HomeShare\\Documents\\Batchrepair\\CorSRT2\\NEW_MILSQ_SLD\\Output\\MOD000000000000000020082324500000.stp', '2019-01-02T12:07:57', (''), (''), 'Express v3.0.0.0', 'Express Tool', 'Unknown');
FILE_SCHEMA(('AUTOMOTIVE_DESIGN'));
ENDSEC;

DATA;
#1 = MANIFOLD_SOLID_BREP('NOCUT', #2);
#2 = CLOSED_SHELL('', (#3, #20, #37, #76));
#3 = ADVANCED_FACE('', (#4), #15, .T.);
#4 = FACE_OUTER_BOUND('', #5, .T.);
#5 = EDGE_LOOP('', (#6));
#6 = ORIENTED_EDGE('', *, *, #7, .T.);
#7 = EDGE_CURVE('', #8, #8, #10, .T.);
#8 = VERTEX_POINT('', #9);
#9 = CARTESIAN_POINT('', (-3., 0., -42.));
#10 = CIRCLE('', #11, 3.);
#11 = AXIS2_PLACEMENT_3D('', #12, #13, #14);
#12 = CARTESIAN_POINT('', (7.91033905045424E-16, -1.66533453693773E-16, -42.));
#13 = DIRECTION('', (0., 0., -1.));
#14 = DIRECTION('', (-1., 5.55111512312578E-17, 0.));
#15 = B_SPLINE_SURFACE_WITH_KNOTS('', 1, 1, ((#16, #17), (#18, #19)), .UNSPECIFIED., .F., .F., .U., (2, 2), (2, 2), (-3.001, 3.001), (-6.001, 0.00099999999999989), .UNSPECIFIED.);
#16 = CARTESIAN_POINT('', (3.001, -3.001, -42.));
#17 = CARTESIAN_POINT('', (3.001, 3.001, -42.));
#18 = CARTESIAN_POINT('', (-3.001, -3.001, -42.));
#19 = CARTESIAN_POINT('', (-3.001, 3.001, -42.));
#20 = ADVANCED_FACE('', (#21), #32, .T.);
#21 = FACE_OUTER_BOUND('', #22, .T.);
#22 = EDGE_LOOP('', (#23));
#23 = ORIENTED_EDGE('', *, *, #24, .T.);
#24 = EDGE_CURVE('', #25, #25, #27, .T.);
#25 = VERTEX_POINT('', #26);
#26 = CARTESIAN_POINT('', (-2.6, 0., 0.));
#27 = CIRCLE('', #28, 2.6);
#28 = AXIS2_PLACEMENT_3D('', #29, #30, #31);
#29 = CARTESIAN_POINT('', (4.85722573273506E-16, -5.55111512312578E-16, 0.));
#30 = DIRECTION('', (0., 0., 1.));
#31 = DIRECTION('', (-1., 2.1350442781253E-16, 0.));
#32 = B_SPLINE_SURFACE_WITH_KNOTS('', 1, 1, ((#33, #34), (#35, #36)), .UNSPECIFIED., .F., .F., .U., (2, 2), (2, 2), (-2.601, 2.601), (-2.601, 2.601), .UNSPECIFIED.);
#33 = CARTESIAN_POINT('', (-2.601, -2.601, 0.));
#34 = CARTESIAN_POINT('', (-2.601, 2.601, 0.));
#35 = CARTESIAN_POINT('', (2.601, -2.601, 0.));
#36 = CARTESIAN_POINT('', (2.601, 2.601, 0.));
#37 = ADVANCED_FACE('', (#38), #57, .T.);
#38 = FACE_OUTER_BOUND('', #39, .T.);
#39 = EDGE_LOOP('', (#40, #48, #55, #56));
#40 = ORIENTED_EDGE('', *, *, #41, .T.);
#41 = EDGE_CURVE('', #8, #42, #44, .T.);
#42 = VERTEX_POINT('', #43);
#43 = CARTESIAN_POINT('', (-3., 0., -0.4));
#44 = LINE('', #45, #46);
#45 = CARTESIAN_POINT('', (-3., -9.86076131526265E-32, -42.));
#46 = VECTOR('', #47, 41.6);
#47 = DIRECTION('', (0., 0., 41.6));
#48 = ORIENTED_EDGE('', *, *, #49, .T.);
#49 = EDGE_CURVE('', #42, #42, #50, .T.);
#50 = CIRCLE('', #51, 3.);
#51 = AXIS2_PLACEMENT_3D('', #52, #53, #54);
#52 = CARTESIAN_POINT('', (7.91033905045424E-16, -1.66533453693773E-16, -0.4));
#53 = DIRECTION('', (1.85037170770859E-17, -6.01984494166822E-17, -1.));
#54 = DIRECTION('', (-1., 5.55111512312578E-17, -1.85037170770859E-17));
#55 = ORIENTED_EDGE('', *, *, #41, .F.);
#56 = ORIENTED_EDGE('', *, *, #7, .F.);
#57 = (
   BOUNDED_SURFACE ()
   B_SPLINE_SURFACE (2, 1, ((#58, #59), (#60, #61), (#62, #63), (#64, #65), (#66, #67), (#68, #69), (#70, #71), (#72, #73), (#74, #75)), .UNSPECIFIED., .T., .F., .U.)
   B_SPLINE_SURFACE_WITH_KNOTS ((3, 2, 2, 2, 3), (2, 2), (0., 0.25, 0.5, 0.75, 1.), (0., 1.), .UNSPECIFIED.)
   GEOMETRIC_REPRESENTATION_ITEM ()
   RATIONAL_B_SPLINE_SURFACE (((1., 1.), (0.707106781186548, 0.707106781186548), (1., 1.), (0.707106781186548, 0.707106781186548), (1., 1.), (0.707106781186548, 0.707106781186548), (1., 1.), (0.707106781186548, 0.707106781186548), (1., 1.)))
   REPRESENTATION_ITEM ('')
   SURFACE ()
);
#58 = CARTESIAN_POINT('', (-3., -9.86076131526265E-32, 3.7612));
#59 = CARTESIAN_POINT('', (-3., -9.86076131526265E-32, -46.1612));
#60 = CARTESIAN_POINT('', (-3., 3., 3.7612));
#61 = CARTESIAN_POINT('', (-3., 3., -46.1612));
#62 = CARTESIAN_POINT('', (9.12648216945239E-16, 3., 3.7612));
#63 = CARTESIAN_POINT('', (9.12648216945239E-16, 3., -46.1612));
#64 = CARTESIAN_POINT('', (3., 3., 3.7612));
#65 = CARTESIAN_POINT('', (3., 3., -46.1612));
#66 = CARTESIAN_POINT('', (3., -2.98739775030888E-16, 3.7612));
#67 = CARTESIAN_POINT('', (3., -2.98739775030888E-16, -46.1612));
#68 = CARTESIAN_POINT('', (3., -3., 3.7612));
#69 = CARTESIAN_POINT('', (3., -3., -46.1612));
#70 = CARTESIAN_POINT('', (9.81302481658557E-16, -3., 3.7612));
#71 = CARTESIAN_POINT('', (9.81302481658557E-16, -3., -46.1612));
#72 = CARTESIAN_POINT('', (-3., -3., 3.7612));
#73 = CARTESIAN_POINT('', (-3., -3., -46.1612));
#74 = CARTESIAN_POINT('', (-3., -9.86076131526265E-32, 3.7612));
#75 = CARTESIAN_POINT('', (-3., -9.86076131526265E-32, -46.1612));
#76 = ADVANCED_FACE('', (#77), #88, .T.);
#77 = FACE_OUTER_BOUND('', #78, .T.);
#78 = EDGE_LOOP('', (#79, #85, #86, #87));
#79 = ORIENTED_EDGE('', *, *, #80, .T.);
#80 = EDGE_CURVE('', #42, #25, #81, .T.);
#81 = LINE('', #82, #83);
#82 = CARTESIAN_POINT('', (-3., -2.04541578150521E-15, -0.4));
#83 = VECTOR('', #84, 0.565685424949238);
#84 = DIRECTION('', (0.399999999999999, 2.04031499402016E-15, 0.4));
#85 = ORIENTED_EDGE('', *, *, #24, .F.);
#86 = ORIENTED_EDGE('', *, *, #80, .F.);
#87 = ORIENTED_EDGE('', *, *, #49, .F.);
#88 = (
   BOUNDED_SURFACE ()
   B_SPLINE_SURFACE (2, 1, ((#89, #90), (#91, #92), (#93, #94), (#95, #96), (#97, #98), (#99, #100), (#101, #102), (#103, #104), (#105, #106)), .UNSPECIFIED., .T., .F., .U.)
   B_SPLINE_SURFACE_WITH_KNOTS ((3, 2, 2, 2, 3), (2, 2), (0., 0.25, 0.5, 0.75, 1.), (0., 1.), .UNSPECIFIED.)
   GEOMETRIC_REPRESENTATION_ITEM ()
   RATIONAL_B_SPLINE_SURFACE (((1., 1.), (0.707106781186548, 0.707106781186548), (1., 1.), (0.707106781186548, 0.707106781186548), (1., 1.), (0.707106781186548, 0.707106781186548), (1., 1.), (0.707106781186548, 0.707106781186548), (1., 1.)))
   REPRESENTATION_ITEM ('')
   SURFACE ()
);
#89 = CARTESIAN_POINT('', (-2.599, 1.97215226305253E-31, 0.00100000000000012));
#90 = CARTESIAN_POINT('', (-3.001, -2.05051656899026E-15, -0.401));
#91 = CARTESIAN_POINT('', (-2.599, 2.599, 0.000999999999987913));
#92 = CARTESIAN_POINT('', (-3.001, 3.001, -0.401000000000014));
#93 = CARTESIAN_POINT('', (-6.03232061399261E-16, 2.599, 0.000999999999987799));
#94 = CARTESIAN_POINT('', (-8.0866034644623E-16, 3.001, -0.401000000000014));
#95 = CARTESIAN_POINT('', (2.599, 2.599, 0.000999999999987684));
#96 = CARTESIAN_POINT('', (3.001, 3.001, -0.401000000000014));
#97 = CARTESIAN_POINT('', (2.599, 2.42770944988619E-15, 0.000999999999999887));
#98 = CARTESIAN_POINT('', (3.001, 7.52698536476641E-16, -0.401));
#99 = CARTESIAN_POINT('', (2.599, -2.599, 0.00100000000001209));
#100 = CARTESIAN_POINT('', (3.001, -3.001, -0.400999999999986));
#101 = CARTESIAN_POINT('', (2.14276309158533E-15, -2.599, 0.0010000000000122));
#102 = CARTESIAN_POINT('', (2.36207126344479E-15, -3.001, -0.400999999999986));
#103 = CARTESIAN_POINT('', (-2.599, -2.599, 0.00100000000001232));
#104 = CARTESIAN_POINT('', (-3.001, -3.001, -0.400999999999986));
#105 = CARTESIAN_POINT('', (-2.599, 1.97215226305253E-31, 0.00100000000000012));
#106 = CARTESIAN_POINT('', (-3.001, -2.05051656899026E-15, -0.401));
#107 = DRAUGHTING_MODEL('', (#115, #239, #286, #291, #296, #301, #306, #311), #325);
#108 = PRESENTATION_STYLE_ASSIGNMENT((#109));
#109 = SURFACE_STYLE_USAGE(.POSITIVE., #110);
#110 = SURFACE_SIDE_STYLE('', (#111));
#111 = SURFACE_STYLE_FILL_AREA(#112);
#112 = FILL_AREA_STYLE('', (#113));
#113 = FILL_AREA_STYLE_COLOUR('', #114);
#114 = COLOUR_RGB('', 0.50196078431373, 0.50196078431373, 0.50196078431373);
#115 = STYLED_ITEM('', (#108), #1);
#116 = MANIFOLD_SOLID_BREP('CUT', #117);
#117 = CLOSED_SHELL('', (#118, #135, #183, #200));
#118 = ADVANCED_FACE('', (#119), #130, .T.);
#119 = FACE_OUTER_BOUND('', #120, .T.);
#120 = EDGE_LOOP('', (#121));
#121 = ORIENTED_EDGE('', *, *, #122, .F.);
#122 = EDGE_CURVE('', #123, #123, #125, .T.);
#123 = VERTEX_POINT('', #124);
#124 = CARTESIAN_POINT('', (-3., 0., -42.));
#125 = CIRCLE('', #126, 3.);
#126 = AXIS2_PLACEMENT_3D('', #127, #128, #129);
#127 = CARTESIAN_POINT('', (7.91033905045424E-16, -1.66533453693773E-16, -42.));
#128 = DIRECTION('', (0., 0., -1.));
#129 = DIRECTION('', (-1., 5.55111512312578E-17, 0.));
#130 = B_SPLINE_SURFACE_WITH_KNOTS('', 1, 1, ((#131, #132), (#133, #134)), .UNSPECIFIED., .F., .F., .U., (2, 2), (2, 2), (-3.001, 3.001), (-3.00099999999999, 3.00100000000001), .UNSPECIFIED.);
#131 = CARTESIAN_POINT('', (-3.001, -3.001, -42.));
#132 = CARTESIAN_POINT('', (-3.001, 3.001, -42.));
#133 = CARTESIAN_POINT('', (3.001, -3.001, -42.));
#134 = CARTESIAN_POINT('', (3.001, 3.001, -42.));
#135 = ADVANCED_FACE('', (#136), #164, .T.);
#136 = FACE_OUTER_BOUND('', #137, .T.);
#137 = EDGE_LOOP('', (#138, #146, #147, #148, #157));
#138 = ORIENTED_EDGE('', *, *, #139, .T.);
#139 = EDGE_CURVE('', #140, #123, #142, .T.);
#140 = VERTEX_POINT('', #141);
#141 = CARTESIAN_POINT('', (-3., 3.67394039744206E-16, -65.9));
#142 = LINE('', #143, #144);
#143 = CARTESIAN_POINT('', (-3.00000000000006, 6.81598825878461E-30, -65.9));
#144 = VECTOR('', #145, 23.9);
#145 = DIRECTION('', (5.6399329650958E-14, -6.28570933769854E-30, 23.9));
#146 = ORIENTED_EDGE('', *, *, #122, .T.);
#147 = ORIENTED_EDGE('', *, *, #139, .F.);
#148 = ORIENTED_EDGE('', *, *, #149, .T.);
#149 = EDGE_CURVE('', #140, #150, #152, .T.);
#150 = VERTEX_POINT('', #151);
#151 = CARTESIAN_POINT('', (3., 0., -65.9));
#152 = CIRCLE('', #153, 3.);
#153 = AXIS2_PLACEMENT_3D('', #154, #155, #156);
#154 = CARTESIAN_POINT('', (-3.33066907387547E-16, -1.11022302462516E-16, -65.9));
#155 = DIRECTION('', (5.96648402879149E-31, -1.61223931492664E-14, 1.));
#156 = DIRECTION('', (1., 3.70074341541719E-17, 0.));
#157 = ORIENTED_EDGE('', *, *, #158, .T.);
#158 = EDGE_CURVE('', #150, #140, #159, .T.);
#159 = CIRCLE('', #160, 3.);
#160 = AXIS2_PLACEMENT_3D('', #161, #162, #163);
#161 = CARTESIAN_POINT('', (-3.33066907387547E-16, -1.11022302462516E-16, -65.9));
#162 = DIRECTION('', (5.96648402879149E-31, -1.61223931492664E-14, 1.));
#163 = DIRECTION('', (1., 3.70074341541719E-17, 0.));
#164 = (
   BOUNDED_SURFACE ()
   B_SPLINE_SURFACE (2, 1, ((#165, #166), (#167, #168), (#169, #170), (#171, #172), (#173, #174), (#175, #176), (#177, #178), (#179, #180), (#181, #182)), .UNSPECIFIED., .T., .F., .U.)
   B_SPLINE_SURFACE_WITH_KNOTS ((3, 2, 2, 2, 3), (2, 2), (0., 0.25, 0.5, 0.75, 1.), (0., 1.), .UNSPECIFIED.)
   GEOMETRIC_REPRESENTATION_ITEM ()
   RATIONAL_B_SPLINE_SURFACE (((1., 1.), (0.707106781186548, 0.707106781186548), (1., 1.), (0.707106781186548, 0.707106781186548), (1., 1.), (0.707106781186548, 0.707106781186548), (1., 1.), (0.707106781186548, 0.707106781186548), (1., 1.)))
   REPRESENTATION_ITEM ('')
   SURFACE ()
);
#165 = CARTESIAN_POINT('', (-3., -9.86076131526265E-32, -39.6088));
#166 = CARTESIAN_POINT('', (-3.00000000000007, 7.4448747930233E-30, -68.2912));
#167 = CARTESIAN_POINT('', (-3., 3., -39.6088));
#168 = CARTESIAN_POINT('', (-3.00000000000007, 3., -68.2912));
#169 = CARTESIAN_POINT('', (9.12648216945239E-16, 3., -39.6088));
#170 = CARTESIAN_POINT('', (-6.70209216636064E-14, 3., -68.2912));
#171 = CARTESIAN_POINT('', (3., 3., -39.6088));
#172 = CARTESIAN_POINT('', (2.99999999999993, 3., -68.2912));
#173 = CARTESIAN_POINT('', (3., -2.98739775030888E-16, -39.6088));
#174 = CARTESIAN_POINT('', (2.99999999999993, -2.9873977503088E-16, -68.2912));
#175 = CARTESIAN_POINT('', (3., -3., -39.6088));
#176 = CARTESIAN_POINT('', (2.99999999999993, -3., -68.2912));
#177 = CARTESIAN_POINT('', (9.81302481658557E-16, -3., -39.6088));
#178 = CARTESIAN_POINT('', (-6.69522673988931E-14, -3., -68.2912));
#179 = CARTESIAN_POINT('', (-3., -3., -39.6088));
#180 = CARTESIAN_POINT('', (-3.00000000000007, -3., -68.2912));
#181 = CARTESIAN_POINT('', (-3., -9.86076131526265E-32, -39.6088));
#182 = CARTESIAN_POINT('', (-3.00000000000007, 7.4448747930233E-30, -68.2912));
#183 = ADVANCED_FACE('', (#184), #195, .T.);
#184 = FACE_OUTER_BOUND('', #185, .T.);
#185 = EDGE_LOOP('', (#186));
#186 = ORIENTED_EDGE('', *, *, #187, .T.);
#187 = EDGE_CURVE('', #188, #188, #190, .T.);
#188 = VERTEX_POINT('', #189);
#189 = CARTESIAN_POINT('', (2.9, 0., -66.));
#190 = CIRCLE('', #191, 2.9);
#191 = AXIS2_PLACEMENT_3D('', #192, #193, #194);
#192 = CARTESIAN_POINT('', (8.60422844084496E-16, -4.9960036108132E-16, -66.));
#193 = DIRECTION('', (0., 0., -1.));
#194 = DIRECTION('', (1., 1.72275986579766E-16, 0.));
#195 = B_SPLINE_SURFACE_WITH_KNOTS('', 1, 1, ((#196, #197), (#198, #199)), .UNSPECIFIED., .F., .F., .U., (2, 2), (2, 2), (-2.901, 2.901), (-5.901, -0.0989999999999998), .UNSPECIFIED.);
#196 = CARTESIAN_POINT('', (2.901, -2.901, -66.));
#197 = CARTESIAN_POINT('', (2.901, 2.901, -66.));
#198 = CARTESIAN_POINT('', (-2.901, -2.901, -66.));
#199 = CARTESIAN_POINT('', (-2.901, 2.901, -66.));
#200 = ADVANCED_FACE('', (#201), #213, .T.);
#201 = FACE_OUTER_BOUND('', #202, .T.);
#202 = EDGE_LOOP('', (#203, #209, #210, #211, #212));
#203 = ORIENTED_EDGE('', *, *, #204, .T.);
#204 = EDGE_CURVE('', #150, #188, #205, .T.);
#205 = LINE('', #206, #207);
#206 = CARTESIAN_POINT('', (3., -1.77441346664309E-15, -65.9));
#207 = VECTOR('', #208, 0.141421356237302);
#208 = DIRECTION('', (-0.0999999999999956, 1.75684501647822E-15, -0.0999999999999943));
#209 = ORIENTED_EDGE('', *, *, #187, .F.);
#210 = ORIENTED_EDGE('', *, *, #204, .F.);
#211 = ORIENTED_EDGE('', *, *, #149, .F.);
#212 = ORIENTED_EDGE('', *, *, #158, .F.);
#213 = (
   BOUNDED_SURFACE ()
   B_SPLINE_SURFACE (2, 1, ((#214, #215), (#216, #217), (#218, #219), (#220, #221), (#222, #223), (#224, #225), (#226, #227), (#228, #229), (#230, #231)), .UNSPECIFIED., .T., .F., .U.)
   B_SPLINE_SURFACE_WITH_KNOTS ((3, 2, 2, 2, 3), (2, 2), (0., 0.25, 0.5, 0.75, 1.), (0., 1.), .UNSPECIFIED.)
   GEOMETRIC_REPRESENTATION_ITEM ()
   RATIONAL_B_SPLINE_SURFACE (((1., 1.), (0.707106781186548, 0.707106781186548), (1., 1.), (0.707106781186548, 0.707106781186548), (1., 1.), (0.707106781186548, 0.707106781186548), (1., 1.), (0.707106781186548, 0.707106781186548), (1., 1.)))
   REPRESENTATION_ITEM ('')
   SURFACE ()
);
#214 = CARTESIAN_POINT('', (2.899, 0., -66.001));
#215 = CARTESIAN_POINT('', (3.001, -1.79198191680788E-15, -65.899));
#216 = CARTESIAN_POINT('', (2.899, 2.899, -66.0009999999999));
#217 = CARTESIAN_POINT('', (3.001, 3.00099999999999, -65.8989999999999));
#218 = CARTESIAN_POINT('', (4.55068309692698E-16, 2.899, -66.0009999999999));
#219 = CARTESIAN_POINT('', (4.76939085775975E-16, 3.00099999999999, -65.8989999999999));
#220 = CARTESIAN_POINT('', (-2.899, 2.899, -66.0009999999999));
#221 = CARTESIAN_POINT('', (-3.001, 3.001, -65.8989999999999));
#222 = CARTESIAN_POINT('', (-2.899, 1.24320352677294E-15, -66.001));
#223 = CARTESIAN_POINT('', (-3.001, -5.05036837868379E-16, -65.899));
#224 = CARTESIAN_POINT('', (-2.899, -2.89899999999999, -66.0010000000001));
#225 = CARTESIAN_POINT('', (-3.001, -3.001, -65.8990000000001));
#226 = CARTESIAN_POINT('', (-1.14316032415306E-15, -2.89899999999999, -66.0010000000001));
#227 = CARTESIAN_POINT('', (-1.17752249758764E-15, -3.001, -65.8990000000001));
#228 = CARTESIAN_POINT('', (2.89899999999999, -2.899, -66.0010000000001));
#229 = CARTESIAN_POINT('', (3.001, -3.001, -65.8990000000001));
#230 = CARTESIAN_POINT('', (2.899, 0., -66.001));
#231 = CARTESIAN_POINT('', (3.001, -1.79198191680788E-15, -65.899));
#232 = PRESENTATION_STYLE_ASSIGNMENT((#233));
#233 = SURFACE_STYLE_USAGE(.POSITIVE., #234);
#234 = SURFACE_SIDE_STYLE('', (#235));
#235 = SURFACE_STYLE_FILL_AREA(#236);
#236 = FILL_AREA_STYLE('', (#237));
#237 = FILL_AREA_STYLE_COLOUR('', #238);
#238 = COLOUR_RGB('', 0.8, 0.8, 0.8);
#239 = STYLED_ITEM('', (#232), #116);
#240 = TRIMMED_CURVE('cutting part line', #241, (#245), (#246), .T., .CARTESIAN.);
#241 = LINE('', #242, #243);
#242 = CARTESIAN_POINT('', (2.89999999999994, 4.23702552691598E-16, -66.0000000000001));
#243 = VECTOR('', #244, 0.141421356237399);
#244 = DIRECTION('', (0.100000000000061, -1.74126107024579E-15, 0.100000000000065));
#245 = CARTESIAN_POINT('', (2.89999999999994, 4.23702552691598E-16, -66.0000000000001));
#246 = CARTESIAN_POINT('', (3., -1.3175585175542E-15, -65.9));
#247 = TRIMMED_CURVE('cutting part line', #248, (#252), (#253), .T., .CARTESIAN.);
#248 = LINE('', #249, #250);
#249 = CARTESIAN_POINT('', (2.99999999999994, -9.87920889038382E-16, -65.9));
#250 = VECTOR('', #251, 23.9);
#251 = DIRECTION('', (5.6399329650958E-14, 9.87920889038382E-16, 23.9));
#252 = CARTESIAN_POINT('', (2.99999999999994, -9.87920889038382E-16, -65.9));
#253 = CARTESIAN_POINT('', (3., 0., -42.));
#254 = TRIMMED_CURVE('cutting part line', #255, (#259), (#260), .T., .CARTESIAN.);
#255 = LINE('', #256, #257);
#256 = CARTESIAN_POINT('', (3., 0., -42.));
#257 = VECTOR('', #258, 3.);
#258 = DIRECTION('', (-3., 0., -7.105427357601E-15));
#259 = CARTESIAN_POINT('', (3., 0., -42.));
#260 = CARTESIAN_POINT('', (6.93889390390723E-18, 0., -42.));
#261 = TRIMMED_CURVE('cutting part line', #262, (#266), (#267), .T., .CARTESIAN.);
#262 = LINE('', #263, #264);
#263 = CARTESIAN_POINT('', (0., 0., -42.));
#264 = VECTOR('', #265, 24.);
#265 = DIRECTION('', (0., 0., -24.));
#266 = CARTESIAN_POINT('', (0., 0., -42.));
#267 = CARTESIAN_POINT('', (0., 0., -66.));
#268 = TRIMMED_CURVE('cutting part line', #269, (#273), (#274), .T., .CARTESIAN.);
#269 = LINE('', #270, #271);
#270 = CARTESIAN_POINT('', (-1.17961196366423E-16, 0., -66.));
#271 = VECTOR('', #272, 2.9);
#272 = DIRECTION('', (2.9, 0., 0.));
#273 = CARTESIAN_POINT('', (-1.17961196366423E-16, 0., -66.));
#274 = CARTESIAN_POINT('', (2.9, 0., -66.));
#275 = COMPOSITE_CURVE('cutting part line', (#276, #277, #278, #279, #280), .U.);
#276 = COMPOSITE_CURVE_SEGMENT(.CONTINUOUS., .T., #240);
#277 = COMPOSITE_CURVE_SEGMENT(.CONTINUOUS., .T., #247);
#278 = COMPOSITE_CURVE_SEGMENT(.CONTINUOUS., .T., #254);
#279 = COMPOSITE_CURVE_SEGMENT(.CONTINUOUS., .T., #261);
#280 = COMPOSITE_CURVE_SEGMENT(.CONTINUOUS., .T., #268);
#281 = GEOMETRIC_SET('', (#275, #324));
#282 = PRESENTATION_STYLE_ASSIGNMENT((#283));
#283 = CURVE_STYLE('', #285, POSITIVE_LENGTH_MEASURE(1.E-6), #284);
#284 = COLOUR_RGB('', 0., 0., 1.);
#285 = DRAUGHTING_PRE_DEFINED_CURVE_FONT('continuous');
#286 = STYLED_ITEM('', (#282), #275);
#287 = PRESENTATION_STYLE_ASSIGNMENT((#288));
#288 = CURVE_STYLE('', #290, POSITIVE_LENGTH_MEASURE(1.E-6), #289);
#289 = COLOUR_RGB('', 0., 0., 1.);
#290 = DRAUGHTING_PRE_DEFINED_CURVE_FONT('continuous');
#291 = OVER_RIDING_STYLED_ITEM('', (#287), #240, #286);
#292 = PRESENTATION_STYLE_ASSIGNMENT((#293));
#293 = CURVE_STYLE('', #295, POSITIVE_LENGTH_MEASURE(1.E-6), #294);
#294 = COLOUR_RGB('', 0., 0., 1.);
#295 = DRAUGHTING_PRE_DEFINED_CURVE_FONT('continuous');
#296 = OVER_RIDING_STYLED_ITEM('', (#292), #247, #286);
#297 = PRESENTATION_STYLE_ASSIGNMENT((#298));
#298 = CURVE_STYLE('', #300, POSITIVE_LENGTH_MEASURE(1.E-6), #299);
#299 = COLOUR_RGB('', 0., 0., 1.);
#300 = DRAUGHTING_PRE_DEFINED_CURVE_FONT('continuous');
#301 = OVER_RIDING_STYLED_ITEM('', (#297), #254, #286);
#302 = PRESENTATION_STYLE_ASSIGNMENT((#303));
#303 = CURVE_STYLE('', #305, POSITIVE_LENGTH_MEASURE(1.E-6), #304);
#304 = COLOUR_RGB('', 0., 0., 1.);
#305 = DRAUGHTING_PRE_DEFINED_CURVE_FONT('continuous');
#306 = OVER_RIDING_STYLED_ITEM('', (#302), #261, #286);
#307 = PRESENTATION_STYLE_ASSIGNMENT((#308));
#308 = CURVE_STYLE('', #310, POSITIVE_LENGTH_MEASURE(1.E-6), #309);
#309 = COLOUR_RGB('', 0., 0., 1.);
#310 = DRAUGHTING_PRE_DEFINED_CURVE_FONT('continuous');
#311 = OVER_RIDING_STYLED_ITEM('', (#307), #268, #286);
#312 = AXIS2_PLACEMENT_3D('MCS', #313, #314, #315);
#313 = CARTESIAN_POINT('', (0., 0., -36.));
#314 = DIRECTION('', (0., 0., 1.));
#315 = DIRECTION('', (1., 0., 0.));
#316 = AXIS2_PLACEMENT_3D('PCS', #317, #318, #319);
#317 = CARTESIAN_POINT('', (0., 0., 0.));
#318 = DIRECTION('', (0., 0., 1.));
#319 = DIRECTION('', (1., 0., 0.));
#320 = AXIS2_PLACEMENT_3D('CIP', #321, #322, #323);
#321 = CARTESIAN_POINT('', (0., 0., -66.));
#322 = DIRECTION('', (0., 0., 1.));
#323 = DIRECTION('', (1., 0., 0.));
#324 = CARTESIAN_POINT('CRP', (3., 0., -66.0000000000001));
#325 = (
   GEOMETRIC_REPRESENTATION_CONTEXT (3)
   GLOBAL_UNCERTAINTY_ASSIGNED_CONTEXT ((#327))
   GLOBAL_UNIT_ASSIGNED_CONTEXT ((#326, #328, #329))
   REPRESENTATION_CONTEXT ('', '3D')
);
#326 = (
   LENGTH_UNIT ()
   NAMED_UNIT (*)
   SI_UNIT (.MILLI., .METRE.)
);
#327 = UNCERTAINTY_MEASURE_WITH_UNIT(LENGTH_MEASURE(1.E-6), #326, 'DISTANCE_ACCURACY_VALUE', '');
#328 = (
   NAMED_UNIT (*)
   SI_UNIT ($, .STERADIAN.)
   SOLID_ANGLE_UNIT ()
);
#329 = (
   NAMED_UNIT (*)
   PLANE_ANGLE_UNIT ()
   SI_UNIT ($, .RADIAN.)
);
#330 = SHAPE_REPRESENTATION('', (), #325);
#331 = PRODUCT_DEFINITION_SHAPE('', '', #332);
#332 = PRODUCT_DEFINITION('', '', #335, #339);
#333 = APPLICATION_CONTEXT('configuration controlled 3D designs of mechanical parts and assemblies');
#334 = APPLICATION_PROTOCOL_DEFINITION('International Standard', 'automotive_design', 2002, #333);
#335 = PRODUCT_DEFINITION_FORMATION_WITH_SPECIFIED_SOURCE('', '', #336, .NOT_KNOWN.);
#336 = PRODUCT('pr98046CF45Auw8m', '2P370-0600-PB       1740', '', (#337));
#337 = PRODUCT_CONTEXT('', #333, 'mechanical');
#338 = PRODUCT_RELATED_PRODUCT_CATEGORY('detail', '', (#336));
#339 = PRODUCT_DEFINITION_CONTEXT('part definition', #333, 'design');
#340 = SHAPE_DEFINITION_REPRESENTATION(#331, #330);
#341 = CONSTRUCTIVE_GEOMETRY_REPRESENTATION('supplemental geometry', (#312, #316, #320), #325);
#342 = CONSTRUCTIVE_GEOMETRY_REPRESENTATION_RELATIONSHIP('', '', #330, #341);
#343 = SHAPE_REPRESENTATION_RELATIONSHIP('', '', #330, #344);
#344 = SHAPE_REPRESENTATION('', (#281), #325);
#345 = SHAPE_REPRESENTATION_RELATIONSHIP('', '', #330, #346);
#346 = ADVANCED_BREP_SHAPE_REPRESENTATION('', (#1, #116), #325);
ENDSEC;
END-ISO-10303-21;
