ISO-10303-21;
HEADER;
FILE_DESCRIPTION(('STEP'), '1');
FILE_NAME('C:\\Users\\ds2002\\OneDrive - Sandvik\\HomeShare\\Documents\\Batchrepair\\CorSRT2\\NEW_MILSQ_SLD\\Output\\MOD000000000000000020082319400000.stp', '2019-01-02T12:07:37', (''), (''), 'Express v3.0.0.0', 'Express Tool', 'Unknown');
FILE_SCHEMA(('AUTOMOTIVE_DESIGN'));
ENDSEC;

DATA;
#1 = MANIFOLD_SOLID_BREP('NOCUT', #2);
#2 = CLOSED_SHELL('', (#3, #59, #76, #107, #156, #196));
#3 = ADVANCED_FACE('', (#4), #40, .T.);
#4 = FACE_OUTER_BOUND('', #5, .T.);
#5 = EDGE_LOOP('', (#6, #16, #23, #24, #33));
#6 = ORIENTED_EDGE('', *, *, #7, .T.);
#7 = EDGE_CURVE('', #8, #10, #12, .T.);
#8 = VERTEX_POINT('', #9);
#9 = CARTESIAN_POINT('', (-3., 0., -39.9679491924311));
#10 = VERTEX_POINT('', #11);
#11 = CARTESIAN_POINT('', (-3., 0., -0.6));
#12 = LINE('', #13, #14);
#13 = CARTESIAN_POINT('', (-2.99999999999999, -8.2171341199445E-31, -39.9679491924311));
#14 = VECTOR('', #15, 39.3679491924311);
#15 = DIRECTION('', (-6.21724893790088E-15, 6.57350692462635E-31, 39.3679491924311));
#16 = ORIENTED_EDGE('', *, *, #17, .T.);
#17 = EDGE_CURVE('', #10, #10, #18, .T.);
#18 = CIRCLE('', #19, 3.);
#19 = AXIS2_PLACEMENT_3D('', #20, #21, #22);
#20 = CARTESIAN_POINT('', (7.91033905045424E-16, -1.66533453693773E-16, -0.6));
#21 = DIRECTION('', (0., 0., -1.));
#22 = DIRECTION('', (-1., 5.55111512312578E-17, 0.));
#23 = ORIENTED_EDGE('', *, *, #7, .F.);
#24 = ORIENTED_EDGE('', *, *, #25, .F.);
#25 = EDGE_CURVE('', #26, #8, #28, .T.);
#26 = VERTEX_POINT('', #27);
#27 = CARTESIAN_POINT('', (3., 3.67394039744206E-16, -39.9679491924311));
#28 = CIRCLE('', #29, 3.);
#29 = AXIS2_PLACEMENT_3D('', #30, #31, #32);
#30 = CARTESIAN_POINT('', (7.91033905045424E-16, -1.66533453693773E-16, -39.9679491924311));
#31 = DIRECTION('', (0., 0., -1.));
#32 = DIRECTION('', (-1., 5.55111512312578E-17, 0.));
#33 = ORIENTED_EDGE('', *, *, #34, .F.);
#34 = EDGE_CURVE('', #8, #26, #35, .T.);
#35 = CIRCLE('', #36, 3.);
#36 = AXIS2_PLACEMENT_3D('', #37, #38, #39);
#37 = CARTESIAN_POINT('', (7.91033905045424E-16, -1.66533453693773E-16, -39.9679491924311));
#38 = DIRECTION('', (0., 0., -1.));
#39 = DIRECTION('', (-1., 5.55111512312578E-17, 0.));
#40 = (
   BOUNDED_SURFACE ()
   B_SPLINE_SURFACE (2, 1, ((#41, #42), (#43, #44), (#45, #46), (#47, #48), (#49, #50), (#51, #52), (#53, #54), (#55, #56), (#57, #58)), .UNSPECIFIED., .T., .F., .U.)
   B_SPLINE_SURFACE_WITH_KNOTS ((3, 2, 2, 2, 3), (2, 2), (0., 0.25, 0.5, 0.75, 1.), (0., 1.), .UNSPECIFIED.)
   GEOMETRIC_REPRESENTATION_ITEM ()
   RATIONAL_B_SPLINE_SURFACE (((1., 1.), (0.707106781186548, 0.707106781186548), (1., 1.), (0.707106781186548, 0.707106781186548), (1., 1.), (0.707106781186548, 0.707106781186548), (1., 1.), (0.707106781186548, 0.707106781186548), (1., 1.)))
   REPRESENTATION_ITEM ('')
   SURFACE ()
);
#41 = CARTESIAN_POINT('', (-3., -9.86076131526265E-32, 3.33799491924311));
#42 = CARTESIAN_POINT('', (-2.99999999999999, -8.87468518373638E-31, -43.9059441116742));
#43 = CARTESIAN_POINT('', (-3., 3., 3.33799491924311));
#44 = CARTESIAN_POINT('', (-2.99999999999999, 3., -43.9059441116742));
#45 = CARTESIAN_POINT('', (9.12648216945239E-16, 3., 3.33799491924311));
#46 = CARTESIAN_POINT('', (7.90615606842677E-15, 3., -43.9059441116742));
#47 = CARTESIAN_POINT('', (3., 3., 3.33799491924311));
#48 = CARTESIAN_POINT('', (3.00000000000001, 3., -43.9059441116742));
#49 = CARTESIAN_POINT('', (3., -2.98739775030888E-16, 3.33799491924311));
#50 = CARTESIAN_POINT('', (3.00000000000001, -2.98739775030889E-16, -43.9059441116742));
#51 = CARTESIAN_POINT('', (3., -3., 3.33799491924311));
#52 = CARTESIAN_POINT('', (3.00000000000001, -3., -43.9059441116742));
#53 = CARTESIAN_POINT('', (9.81302481658557E-16, -3., 3.33799491924311));
#54 = CARTESIAN_POINT('', (7.97481033314009E-15, -3., -43.9059441116742));
#55 = CARTESIAN_POINT('', (-3., -3., 3.33799491924311));
#56 = CARTESIAN_POINT('', (-2.99999999999999, -3., -43.9059441116742));
#57 = CARTESIAN_POINT('', (-3., -9.86076131526265E-32, 3.33799491924311));
#58 = CARTESIAN_POINT('', (-2.99999999999999, -8.87468518373638E-31, -43.9059441116742));
#59 = ADVANCED_FACE('', (#60), #71, .T.);
#60 = FACE_OUTER_BOUND('', #61, .T.);
#61 = EDGE_LOOP('', (#62));
#62 = ORIENTED_EDGE('', *, *, #63, .T.);
#63 = EDGE_CURVE('', #64, #64, #66, .T.);
#64 = VERTEX_POINT('', #65);
#65 = CARTESIAN_POINT('', (-2.4, 0., 0.));
#66 = CIRCLE('', #67, 2.4);
#67 = AXIS2_PLACEMENT_3D('', #68, #69, #70);
#68 = CARTESIAN_POINT('', (2.77555756156289E-16, 0., 0.));
#69 = DIRECTION('', (0., 0., 1.));
#70 = DIRECTION('', (-1., 0., 0.));
#71 = B_SPLINE_SURFACE_WITH_KNOTS('', 1, 1, ((#72, #73), (#74, #75)), .UNSPECIFIED., .F., .F., .U., (2, 2), (2, 2), (-2.401, 2.401), (-2.401, 2.401), .UNSPECIFIED.);
#72 = CARTESIAN_POINT('', (-2.401, -2.401, 0.));
#73 = CARTESIAN_POINT('', (-2.401, 2.401, 0.));
#74 = CARTESIAN_POINT('', (2.401, -2.401, 0.));
#75 = CARTESIAN_POINT('', (2.401, 2.401, 0.));
#76 = ADVANCED_FACE('', (#77), #88, .T.);
#77 = FACE_OUTER_BOUND('', #78, .T.);
#78 = EDGE_LOOP('', (#79, #85, #86, #87));
#79 = ORIENTED_EDGE('', *, *, #80, .T.);
#80 = EDGE_CURVE('', #10, #64, #81, .T.);
#81 = LINE('', #82, #83);
#82 = CARTESIAN_POINT('', (-3., -2.00982018312763E-15, -0.6));
#83 = VECTOR('', #84, 0.848528137423857);
#84 = DIRECTION('', (0.6, 2.00647605636702E-15, 0.6));
#85 = ORIENTED_EDGE('', *, *, #63, .F.);
#86 = ORIENTED_EDGE('', *, *, #80, .F.);
#87 = ORIENTED_EDGE('', *, *, #17, .F.);
#88 = (
   BOUNDED_SURFACE ()
   B_SPLINE_SURFACE (2, 1, ((#89, #90), (#91, #92), (#93, #94), (#95, #96), (#97, #98), (#99, #100), (#101, #102), (#103, #104), (#105, #106)), .UNSPECIFIED., .T., .F., .U.)
   B_SPLINE_SURFACE_WITH_KNOTS ((3, 2, 2, 2, 3), (2, 2), (0., 0.25, 0.5, 0.75, 1.), (0., 1.), .UNSPECIFIED.)
   GEOMETRIC_REPRESENTATION_ITEM ()
   RATIONAL_B_SPLINE_SURFACE (((1., 1.), (0.707106781186548, 0.707106781186548), (1., 1.), (0.707106781186548, 0.707106781186548), (1., 1.), (0.707106781186548, 0.707106781186548), (1., 1.), (0.707106781186548, 0.707106781186548), (1., 1.)))
   REPRESENTATION_ITEM ('')
   SURFACE ()
);
#89 = CARTESIAN_POINT('', (-2.399, 1.97215226305253E-31, 0.00100000000000016));
#90 = CARTESIAN_POINT('', (-3.001, -2.01316430988824E-15, -0.601));
#91 = CARTESIAN_POINT('', (-2.399, 2.399, 0.00099999999999308));
#92 = CARTESIAN_POINT('', (-3.001, 3.001, -0.601000000000009));
#93 = CARTESIAN_POINT('', (-7.78335728813283E-16, 2.399, 0.000999999999992922));
#94 = CARTESIAN_POINT('', (-1.09161808232033E-15, 3.001, -0.601000000000009));
#95 = CARTESIAN_POINT('', (2.399, 2.399, 0.000999999999992764));
#96 = CARTESIAN_POINT('', (3.001, 3.001, -0.601000000000009));
#97 = CARTESIAN_POINT('', (2.399, 2.18117190897822E-15, 0.000999999999999843));
#98 = CARTESIAN_POINT('', (3.001, 7.15346277374628E-16, -0.601));
#99 = CARTESIAN_POINT('', (2.399, -2.399, 0.00100000000000692));
#100 = CARTESIAN_POINT('', (3.001, -3.001, -0.600999999999991));
#101 = CARTESIAN_POINT('', (1.69662894728038E-15, -2.399, 0.00100000000000708));
#102 = CARTESIAN_POINT('', (2.00440900936666E-15, -3.001, -0.600999999999991));
#103 = CARTESIAN_POINT('', (-2.399, -2.399, 0.00100000000000724));
#104 = CARTESIAN_POINT('', (-3.001, -3.001, -0.600999999999991));
#105 = CARTESIAN_POINT('', (-2.399, 1.97215226305253E-31, 0.00100000000000016));
#106 = CARTESIAN_POINT('', (-3.001, -2.01316430988824E-15, -0.601));
#107 = ADVANCED_FACE('', (#108), #137, .T.);
#108 = FACE_OUTER_BOUND('', #109, .T.);
#109 = EDGE_LOOP('', (#110, #118, #127, #134, #135, #136));
#110 = ORIENTED_EDGE('', *, *, #111, .T.);
#111 = EDGE_CURVE('', #26, #112, #114, .T.);
#112 = VERTEX_POINT('', #113);
#113 = CARTESIAN_POINT('', (2., 2.44929359829471E-16, -41.7));
#114 = LINE('', #115, #116);
#115 = CARTESIAN_POINT('', (3.00000000000002, -1.63723534784545E-15, -39.9679491924311));
#116 = VECTOR('', #117, 2.00000000000003);
#117 = DIRECTION('', (-1.00000000000002, 1.63629063500686E-15, -1.7320508075689));
#118 = ORIENTED_EDGE('', *, *, #119, .F.);
#119 = EDGE_CURVE('', #120, #112, #122, .T.);
#120 = VERTEX_POINT('', #121);
#121 = CARTESIAN_POINT('', (-2., 0., -41.7));
#122 = CIRCLE('', #123, 2.);
#123 = AXIS2_PLACEMENT_3D('', #124, #125, #126);
#124 = CARTESIAN_POINT('', (1.45716771982052E-16, -7.21644966006352E-16, -41.7));
#125 = DIRECTION('', (0., 0., -1.));
#126 = DIRECTION('', (-1., 3.60822483003176E-16, 0.));
#127 = ORIENTED_EDGE('', *, *, #128, .F.);
#128 = EDGE_CURVE('', #112, #120, #129, .T.);
#129 = CIRCLE('', #130, 2.);
#130 = AXIS2_PLACEMENT_3D('', #131, #132, #133);
#131 = CARTESIAN_POINT('', (1.45716771982052E-16, -7.21644966006352E-16, -41.7));
#132 = DIRECTION('', (0., 0., -1.));
#133 = DIRECTION('', (-1., 3.60822483003176E-16, 0.));
#134 = ORIENTED_EDGE('', *, *, #111, .F.);
#135 = ORIENTED_EDGE('', *, *, #25, .T.);
#136 = ORIENTED_EDGE('', *, *, #34, .T.);
#137 = (
   BOUNDED_SURFACE ()
   B_SPLINE_SURFACE (2, 1, ((#138, #139), (#140, #141), (#142, #143), (#144, #145), (#146, #147), (#148, #149), (#150, #151), (#152, #153), (#154, #155)), .UNSPECIFIED., .T., .F., .U.)
   B_SPLINE_SURFACE_WITH_KNOTS ((3, 2, 2, 2, 3), (2, 2), (0., 0.25, 0.5, 0.75, 1.), (0., 1.), .UNSPECIFIED.)
   GEOMETRIC_REPRESENTATION_ITEM ()
   RATIONAL_B_SPLINE_SURFACE (((1., 1.), (0.707106781186548, 0.707106781186548), (1., 1.), (0.707106781186548, 0.707106781186548), (1., 1.), (0.707106781186548, 0.707106781186548), (1., 1.), (0.707106781186548, 0.707106781186548), (1., 1.)))
   REPRESENTATION_ITEM ('')
   SURFACE ()
);
#138 = CARTESIAN_POINT('', (1.99942264973081, 0., -41.701));
#139 = CARTESIAN_POINT('', (3.00057735026921, -1.63818006068405E-15, -39.9669491924311));
#140 = CARTESIAN_POINT('', (1.99942264973081, 1.99942264973081, -41.701));
#141 = CARTESIAN_POINT('', (3.00057735026921, 3.00057735026921, -39.9669491924311));
#142 = CARTESIAN_POINT('', (8.57952081220944E-16, 1.99942264973081, -41.701));
#143 = CARTESIAN_POINT('', (1.3361898597906E-15, 3.00057735026921, -39.9669491924311));
#144 = CARTESIAN_POINT('', (-1.99942264973081, 1.99942264973081, -41.701));
#145 = CARTESIAN_POINT('', (-3.00057735026921, 3.00057735026921, -39.9669491924311));
#146 = CARTESIAN_POINT('', (-1.99942264973081, 1.91019319175129E-15, -41.701));
#147 = CARTESIAN_POINT('', (-3.00057735026921, 1.22848868820656E-15, -39.9669491924311));
#148 = CARTESIAN_POINT('', (-1.99942264973081, -1.99942264973081, -41.701));
#149 = CARTESIAN_POINT('', (-3.00057735026921, -3.00057735026921, -39.9669491924311));
#150 = CARTESIAN_POINT('', (-1.2970997653439E-15, -1.99942264973081, -41.701));
#151 = CARTESIAN_POINT('', (-1.89794363386013E-15, -3.00057735026921, -39.9669491924311));
#152 = CARTESIAN_POINT('', (1.99942264973081, -1.99942264973081, -41.701));
#153 = CARTESIAN_POINT('', (3.00057735026921, -3.00057735026921, -39.9669491924311));
#154 = CARTESIAN_POINT('', (1.99942264973081, 0., -41.701));
#155 = CARTESIAN_POINT('', (3.00057735026921, -1.63818006068405E-15, -39.9669491924311));
#156 = ADVANCED_FACE('', (#157), #177, .T.);
#157 = FACE_OUTER_BOUND('', #158, .T.);
#158 = EDGE_LOOP('', (#159, #167, #168, #169, #170));
#159 = ORIENTED_EDGE('', *, *, #160, .T.);
#160 = EDGE_CURVE('', #161, #120, #163, .T.);
#161 = VERTEX_POINT('', #162);
#162 = CARTESIAN_POINT('', (-2., 0., -46.));
#163 = LINE('', #164, #165);
#164 = CARTESIAN_POINT('', (-2., 0., -46.));
#165 = VECTOR('', #166, 4.3);
#166 = DIRECTION('', (0., 0., 4.3));
#167 = ORIENTED_EDGE('', *, *, #119, .T.);
#168 = ORIENTED_EDGE('', *, *, #128, .T.);
#169 = ORIENTED_EDGE('', *, *, #160, .F.);
#170 = ORIENTED_EDGE('', *, *, #171, .F.);
#171 = EDGE_CURVE('', #161, #161, #172, .T.);
#172 = CIRCLE('', #173, 2.);
#173 = AXIS2_PLACEMENT_3D('', #174, #175, #176);
#174 = CARTESIAN_POINT('', (1.45716771982052E-16, -7.21644966006352E-16, -46.));
#175 = DIRECTION('', (4.36299144605377E-30, 1.20917948619498E-14, -1.));
#176 = DIRECTION('', (-1., 3.60822483003176E-16, 0.));
#177 = (
   BOUNDED_SURFACE ()
   B_SPLINE_SURFACE (2, 1, ((#178, #179), (#180, #181), (#182, #183), (#184, #185), (#186, #187), (#188, #189), (#190, #191), (#192, #193), (#194, #195)), .UNSPECIFIED., .T., .F., .U.)
   B_SPLINE_SURFACE_WITH_KNOTS ((3, 2, 2, 2, 3), (2, 2), (0., 0.25, 0.5, 0.75, 1.), (0., 1.), .UNSPECIFIED.)
   GEOMETRIC_REPRESENTATION_ITEM ()
   RATIONAL_B_SPLINE_SURFACE (((1., 1.), (0.707106781186548, 0.707106781186548), (1., 1.), (0.707106781186548, 0.707106781186548), (1., 1.), (0.707106781186548, 0.707106781186548), (1., 1.), (0.707106781186548, 0.707106781186548), (1., 1.)))
   REPRESENTATION_ITEM ('')
   SURFACE ()
);
#178 = CARTESIAN_POINT('', (-2., 0., -41.2688));
#179 = CARTESIAN_POINT('', (-2., 0., -46.4312));
#180 = CARTESIAN_POINT('', (-2., 2., -41.2688));
#181 = CARTESIAN_POINT('', (-2., 2., -46.4312));
#182 = CARTESIAN_POINT('', (-7.40026237362479E-16, 2., -41.2688));
#183 = CARTESIAN_POINT('', (-7.40026237362479E-16, 2., -46.4312));
#184 = CARTESIAN_POINT('', (2., 2., -41.2688));
#185 = CARTESIAN_POINT('', (2., 2., -46.4312));
#186 = CARTESIAN_POINT('', (2., 1.35515238445463E-15, -41.2688));
#187 = CARTESIAN_POINT('', (2., 1.35515238445463E-15, -46.4312));
#188 = CARTESIAN_POINT('', (2., -2., -41.2688));
#189 = CARTESIAN_POINT('', (2., -2., -46.4312));
#190 = CARTESIAN_POINT('', (8.60055506921619E-16, -2., -41.2688));
#191 = CARTESIAN_POINT('', (8.60055506921619E-16, -2., -46.4312));
#192 = CARTESIAN_POINT('', (-2., -2., -41.2688));
#193 = CARTESIAN_POINT('', (-2., -2., -46.4312));
#194 = CARTESIAN_POINT('', (-2., 0., -41.2688));
#195 = CARTESIAN_POINT('', (-2., 0., -46.4312));
#196 = ADVANCED_FACE('', (#197), #200, .T.);
#197 = FACE_OUTER_BOUND('', #198, .T.);
#198 = EDGE_LOOP('', (#199));
#199 = ORIENTED_EDGE('', *, *, #171, .T.);
#200 = B_SPLINE_SURFACE_WITH_KNOTS('', 1, 1, ((#201, #202), (#203, #204)), .UNSPECIFIED., .F., .F., .U., (2, 2), (2, 2), (-2.001, 2.001), (-4.001, 0.00099999999999989), .UNSPECIFIED.);
#201 = CARTESIAN_POINT('', (2.001, -2.001, -46.));
#202 = CARTESIAN_POINT('', (2.001, 2.001, -46.));
#203 = CARTESIAN_POINT('', (-2.001, -2.001, -46.));
#204 = CARTESIAN_POINT('', (-2.001, 2.001, -46.));
#205 = DRAUGHTING_MODEL('', (#213, #337, #384, #389, #394, #399, #404, #409), #423);
#206 = PRESENTATION_STYLE_ASSIGNMENT((#207));
#207 = SURFACE_STYLE_USAGE(.POSITIVE., #208);
#208 = SURFACE_SIDE_STYLE('', (#209));
#209 = SURFACE_STYLE_FILL_AREA(#210);
#210 = FILL_AREA_STYLE('', (#211));
#211 = FILL_AREA_STYLE_COLOUR('', #212);
#212 = COLOUR_RGB('', 0.50196078431373, 0.50196078431373, 0.50196078431373);
#213 = STYLED_ITEM('', (#206), #1);
#214 = MANIFOLD_SOLID_BREP('CUT', #215);
#215 = CLOSED_SHELL('', (#216, #233, #281, #298));
#216 = ADVANCED_FACE('', (#217), #228, .T.);
#217 = FACE_OUTER_BOUND('', #218, .T.);
#218 = EDGE_LOOP('', (#219));
#219 = ORIENTED_EDGE('', *, *, #220, .F.);
#220 = EDGE_CURVE('', #221, #221, #223, .T.);
#221 = VERTEX_POINT('', #222);
#222 = CARTESIAN_POINT('', (-2., 0., -46.));
#223 = CIRCLE('', #224, 2.);
#224 = AXIS2_PLACEMENT_3D('', #225, #226, #227);
#225 = CARTESIAN_POINT('', (1.45716771982052E-16, -7.21644966006352E-16, -46.));
#226 = DIRECTION('', (4.36299144605377E-30, 1.20917948619498E-14, -1.));
#227 = DIRECTION('', (-1., 3.60822483003176E-16, 0.));
#228 = B_SPLINE_SURFACE_WITH_KNOTS('', 1, 1, ((#229, #230), (#231, #232)), .UNSPECIFIED., .F., .F., .U., (2, 2), (2, 2), (-2.001, 2.001), (-2.001, 2.001), .UNSPECIFIED.);
#229 = CARTESIAN_POINT('', (-2.001, -2.001, -46.));
#230 = CARTESIAN_POINT('', (-2.001, 2.001, -46.));
#231 = CARTESIAN_POINT('', (2.001, -2.001, -46.));
#232 = CARTESIAN_POINT('', (2.001, 2.001, -46.));
#233 = ADVANCED_FACE('', (#234), #262, .T.);
#234 = FACE_OUTER_BOUND('', #235, .T.);
#235 = EDGE_LOOP('', (#236, #244, #245, #246, #255));
#236 = ORIENTED_EDGE('', *, *, #237, .T.);
#237 = EDGE_CURVE('', #238, #221, #240, .T.);
#238 = VERTEX_POINT('', #239);
#239 = CARTESIAN_POINT('', (-2., 2.44929359829471E-16, -56.85));
#240 = LINE('', #241, #242);
#241 = CARTESIAN_POINT('', (-2.00000000000004, -1.17497561873855E-29, -56.85));
#242 = VECTOR('', #243, 10.85);
#243 = DIRECTION('', (3.81916720471054E-14, 1.06805226649296E-29, 10.85));
#244 = ORIENTED_EDGE('', *, *, #220, .T.);
#245 = ORIENTED_EDGE('', *, *, #237, .F.);
#246 = ORIENTED_EDGE('', *, *, #247, .T.);
#247 = EDGE_CURVE('', #238, #248, #250, .T.);
#248 = VERTEX_POINT('', #249);
#249 = CARTESIAN_POINT('', (2., 0., -56.85));
#250 = CIRCLE('', #251, 2.);
#251 = AXIS2_PLACEMENT_3D('', #252, #253, #254);
#252 = CARTESIAN_POINT('', (-1.45716771982052E-16, -7.21644966006352E-16, -56.85));
#253 = DIRECTION('', (3.5527136788005E-15, 1.1558102288003E-14, 1.));
#254 = DIRECTION('', (1., 3.60822483003176E-16, -3.5527136788005E-15));
#255 = ORIENTED_EDGE('', *, *, #256, .T.);
#256 = EDGE_CURVE('', #248, #238, #257, .T.);
#257 = CIRCLE('', #258, 2.);
#258 = AXIS2_PLACEMENT_3D('', #259, #260, #261);
#259 = CARTESIAN_POINT('', (-1.45716771982052E-16, -7.21644966006352E-16, -56.85));
#260 = DIRECTION('', (3.5527136788005E-15, 1.1558102288003E-14, 1.));
#261 = DIRECTION('', (1., 3.60822483003176E-16, -3.5527136788005E-15));
#262 = (
   BOUNDED_SURFACE ()
   B_SPLINE_SURFACE (2, 1, ((#263, #264), (#265, #266), (#267, #268), (#269, #270), (#271, #272), (#273, #274), (#275, #276), (#277, #278), (#279, #280)), .UNSPECIFIED., .T., .F., .U.)
   B_SPLINE_SURFACE_WITH_KNOTS ((3, 2, 2, 2, 3), (2, 2), (0., 0.25, 0.5, 0.75, 1.), (0., 1.), .UNSPECIFIED.)
   GEOMETRIC_REPRESENTATION_ITEM ()
   RATIONAL_B_SPLINE_SURFACE (((1., 1.), (0.707106781186548, 0.707106781186548), (1., 1.), (0.707106781186548, 0.707106781186548), (1., 1.), (0.707106781186548, 0.707106781186548), (1., 1.), (0.707106781186548, 0.707106781186548), (1., 1.)))
   REPRESENTATION_ITEM ('')
   SURFACE ()
);
#263 = CARTESIAN_POINT('', (-2., 0., -44.9138));
#264 = CARTESIAN_POINT('', (-2.00000000000005, -1.28189897098414E-29, -57.9362));
#265 = CARTESIAN_POINT('', (-2., 2., -44.9138));
#266 = CARTESIAN_POINT('', (-2.00000000000005, 2., -57.9362));
#267 = CARTESIAN_POINT('', (-7.40026237362479E-16, 2., -44.9138));
#268 = CARTESIAN_POINT('', (-4.70048848481741E-14, 2., -57.9362));
#269 = CARTESIAN_POINT('', (2., 2., -44.9138));
#270 = CARTESIAN_POINT('', (1.99999999999995, 2., -57.9362));
#271 = CARTESIAN_POINT('', (2., 1.35515238445463E-15, -44.9138));
#272 = CARTESIAN_POINT('', (1.99999999999995, 1.35515238445461E-15, -57.9362));
#273 = CARTESIAN_POINT('', (2., -2., -44.9138));
#274 = CARTESIAN_POINT('', (1.99999999999995, -2., -57.9362));
#275 = CARTESIAN_POINT('', (8.60055506921619E-16, -2., -44.9138));
#276 = CARTESIAN_POINT('', (-4.540480310389E-14, -2., -57.9362));
#277 = CARTESIAN_POINT('', (-2., -2., -44.9138));
#278 = CARTESIAN_POINT('', (-2.00000000000005, -2., -57.9362));
#279 = CARTESIAN_POINT('', (-2., 0., -44.9138));
#280 = CARTESIAN_POINT('', (-2.00000000000005, -1.28189897098414E-29, -57.9362));
#281 = ADVANCED_FACE('', (#282), #293, .T.);
#282 = FACE_OUTER_BOUND('', #283, .T.);
#283 = EDGE_LOOP('', (#284));
#284 = ORIENTED_EDGE('', *, *, #285, .T.);
#285 = EDGE_CURVE('', #286, #286, #288, .T.);
#286 = VERTEX_POINT('', #287);
#287 = CARTESIAN_POINT('', (1.85, 0., -57.));
#288 = CIRCLE('', #289, 1.85);
#289 = AXIS2_PLACEMENT_3D('', #290, #291, #292);
#290 = CARTESIAN_POINT('', (4.92661467177413E-16, -4.9960036108132E-16, -57.));
#291 = DIRECTION('', (0., 0., -1.));
#292 = DIRECTION('', (1., 2.70054249233146E-16, 0.));
#293 = B_SPLINE_SURFACE_WITH_KNOTS('', 1, 1, ((#294, #295), (#296, #297)), .UNSPECIFIED., .F., .F., .U., (2, 2), (2, 2), (-1.851, 1.851), (-3.851, -0.149), .UNSPECIFIED.);
#294 = CARTESIAN_POINT('', (1.851, -1.851, -57.));
#295 = CARTESIAN_POINT('', (1.851, 1.851, -57.));
#296 = CARTESIAN_POINT('', (-1.851, -1.851, -57.));
#297 = CARTESIAN_POINT('', (-1.851, 1.851, -57.));
#298 = ADVANCED_FACE('', (#299), #311, .T.);
#299 = FACE_OUTER_BOUND('', #300, .T.);
#300 = EDGE_LOOP('', (#301, #307, #308, #309, #310));
#301 = ORIENTED_EDGE('', *, *, #302, .T.);
#302 = EDGE_CURVE('', #248, #286, #303, .T.);
#303 = LINE('', #304, #305);
#304 = CARTESIAN_POINT('', (2., 5.14446959187667E-16, -56.85));
#305 = VECTOR('', #306, 0.212132034355961);
#306 = DIRECTION('', (-0.149999999999997, -5.11040025683095E-16, -0.149999999999999));
#307 = ORIENTED_EDGE('', *, *, #285, .F.);
#308 = ORIENTED_EDGE('', *, *, #302, .F.);
#309 = ORIENTED_EDGE('', *, *, #247, .F.);
#310 = ORIENTED_EDGE('', *, *, #256, .F.);
#311 = (
   BOUNDED_SURFACE ()
   B_SPLINE_SURFACE (2, 1, ((#312, #313), (#314, #315), (#316, #317), (#318, #319), (#320, #321), (#322, #323), (#324, #325), (#326, #327), (#328, #329)), .UNSPECIFIED., .T., .F., .U.)
   B_SPLINE_SURFACE_WITH_KNOTS ((3, 2, 2, 2, 3), (2, 2), (0., 0.25, 0.5, 0.75, 1.), (0., 1.), .UNSPECIFIED.)
   GEOMETRIC_REPRESENTATION_ITEM ()
   RATIONAL_B_SPLINE_SURFACE (((1., 1.), (0.707106781186548, 0.707106781186548), (1., 1.), (0.707106781186548, 0.707106781186548), (1., 1.), (0.707106781186548, 0.707106781186548), (1., 1.), (0.707106781186548, 0.707106781186548), (1., 1.)))
   REPRESENTATION_ITEM ('')
   SURFACE ()
);
#312 = CARTESIAN_POINT('', (1.84899999999999, -7.39557098644699E-32, -57.001));
#313 = CARTESIAN_POINT('', (2.00100000000001, 5.17853892692249E-16, -56.849));
#314 = CARTESIAN_POINT('', (1.84899999999999, 1.849, -57.001));
#315 = CARTESIAN_POINT('', (2.001, 2.00100000000001, -56.849));
#316 = CARTESIAN_POINT('', (-5.18220748674362E-16, 1.849, -57.001));
#317 = CARTESIAN_POINT('', (-1.11127997616151E-15, 2.00100000000001, -56.849));
#318 = CARTESIAN_POINT('', (-1.849, 1.84899999999999, -57.001));
#319 = CARTESIAN_POINT('', (-2.00100000000001, 2.00100000000001, -56.849));
#320 = CARTESIAN_POINT('', (-1.849, -2.17652016687717E-16, -57.001));
#321 = CARTESIAN_POINT('', (-2.00100000000001, 2.82309444129711E-16, -56.849));
#322 = CARTESIAN_POINT('', (-1.849, -1.849, -57.001));
#323 = CARTESIAN_POINT('', (-2.00100000000001, -2.00100000000001, -56.849));
#324 = CARTESIAN_POINT('', (-5.27005925149036E-16, -1.849, -57.001));
#325 = CARTESIAN_POINT('', (-1.1207873521084E-15, -2.00100000000001, -56.849));
#326 = CARTESIAN_POINT('', (1.84899999999999, -1.849, -57.001));
#327 = CARTESIAN_POINT('', (2.001, -2.00100000000001, -56.849));
#328 = CARTESIAN_POINT('', (1.84899999999999, -7.39557098644699E-32, -57.001));
#329 = CARTESIAN_POINT('', (2.00100000000001, 5.17853892692249E-16, -56.849));
#330 = PRESENTATION_STYLE_ASSIGNMENT((#331));
#331 = SURFACE_STYLE_USAGE(.POSITIVE., #332);
#332 = SURFACE_SIDE_STYLE('', (#333));
#333 = SURFACE_STYLE_FILL_AREA(#334);
#334 = FILL_AREA_STYLE('', (#335));
#335 = FILL_AREA_STYLE_COLOUR('', #336);
#336 = COLOUR_RGB('', 0.8, 0.8, 0.8);
#337 = STYLED_ITEM('', (#330), #214);
#338 = TRIMMED_CURVE('cutting part line', #339, (#343), (#344), .T., .CARTESIAN.);
#339 = LINE('', #340, #341);
#340 = CARTESIAN_POINT('', (1.85, -2.25936432937705E-16, -57.));
#341 = VECTOR('', #342, 0.212132034356001);
#342 = DIRECTION('', (0.150000000000025, 4.82891538003586E-16, 0.150000000000027));
#343 = CARTESIAN_POINT('', (1.85, -2.25936432937705E-16, -57.));
#344 = CARTESIAN_POINT('', (2.00000000000002, 2.56955105065881E-16, -56.85));
#345 = TRIMMED_CURVE('cutting part line', #346, (#350), (#351), .T., .CARTESIAN.);
#346 = LINE('', #347, #348);
#347 = CARTESIAN_POINT('', (1.99999999999996, -6.72736923393308E-16, -56.85));
#348 = VECTOR('', #349, 10.85);
#349 = DIRECTION('', (3.86357612569554E-14, 6.72736923393308E-16, 10.85));
#350 = CARTESIAN_POINT('', (1.99999999999996, -6.72736923393308E-16, -56.85));
#351 = CARTESIAN_POINT('', (2., 0., -46.));
#352 = TRIMMED_CURVE('cutting part line', #353, (#357), (#358), .T., .CARTESIAN.);
#353 = LINE('', #354, #355);
#354 = CARTESIAN_POINT('', (2., 0., -46.));
#355 = VECTOR('', #356, 2.);
#356 = DIRECTION('', (-2., 0., 0.));
#357 = CARTESIAN_POINT('', (2., 0., -46.));
#358 = CARTESIAN_POINT('', (0., 0., -46.));
#359 = TRIMMED_CURVE('cutting part line', #360, (#364), (#365), .T., .CARTESIAN.);
#360 = LINE('', #361, #362);
#361 = CARTESIAN_POINT('', (0., 0., -46.));
#362 = VECTOR('', #363, 11.);
#363 = DIRECTION('', (0., 0., -11.));
#364 = CARTESIAN_POINT('', (0., 0., -46.));
#365 = CARTESIAN_POINT('', (0., 0., -57.));
#366 = TRIMMED_CURVE('cutting part line', #367, (#371), (#372), .T., .CARTESIAN.);
#367 = LINE('', #368, #369);
#368 = CARTESIAN_POINT('', (1.38777878078145E-17, 0., -57.));
#369 = VECTOR('', #370, 1.85);
#370 = DIRECTION('', (1.85, 0., 7.105427357601E-15));
#371 = CARTESIAN_POINT('', (1.38777878078145E-17, 0., -57.));
#372 = CARTESIAN_POINT('', (1.85, 0., -57.));
#373 = COMPOSITE_CURVE('cutting part line', (#374, #375, #376, #377, #378), .U.);
#374 = COMPOSITE_CURVE_SEGMENT(.CONTINUOUS., .T., #338);
#375 = COMPOSITE_CURVE_SEGMENT(.CONTINUOUS., .T., #345);
#376 = COMPOSITE_CURVE_SEGMENT(.CONTINUOUS., .T., #352);
#377 = COMPOSITE_CURVE_SEGMENT(.CONTINUOUS., .T., #359);
#378 = COMPOSITE_CURVE_SEGMENT(.CONTINUOUS., .T., #366);
#379 = GEOMETRIC_SET('', (#373, #422));
#380 = PRESENTATION_STYLE_ASSIGNMENT((#381));
#381 = CURVE_STYLE('', #383, POSITIVE_LENGTH_MEASURE(1.E-6), #382);
#382 = COLOUR_RGB('', 0., 0., 1.);
#383 = DRAUGHTING_PRE_DEFINED_CURVE_FONT('continuous');
#384 = STYLED_ITEM('', (#380), #373);
#385 = PRESENTATION_STYLE_ASSIGNMENT((#386));
#386 = CURVE_STYLE('', #388, POSITIVE_LENGTH_MEASURE(1.E-6), #387);
#387 = COLOUR_RGB('', 0., 0., 1.);
#388 = DRAUGHTING_PRE_DEFINED_CURVE_FONT('continuous');
#389 = OVER_RIDING_STYLED_ITEM('', (#385), #338, #384);
#390 = PRESENTATION_STYLE_ASSIGNMENT((#391));
#391 = CURVE_STYLE('', #393, POSITIVE_LENGTH_MEASURE(1.E-6), #392);
#392 = COLOUR_RGB('', 0., 0., 1.);
#393 = DRAUGHTING_PRE_DEFINED_CURVE_FONT('continuous');
#394 = OVER_RIDING_STYLED_ITEM('', (#390), #345, #384);
#395 = PRESENTATION_STYLE_ASSIGNMENT((#396));
#396 = CURVE_STYLE('', #398, POSITIVE_LENGTH_MEASURE(1.E-6), #397);
#397 = COLOUR_RGB('', 0., 0., 1.);
#398 = DRAUGHTING_PRE_DEFINED_CURVE_FONT('continuous');
#399 = OVER_RIDING_STYLED_ITEM('', (#395), #352, #384);
#400 = PRESENTATION_STYLE_ASSIGNMENT((#401));
#401 = CURVE_STYLE('', #403, POSITIVE_LENGTH_MEASURE(1.E-6), #402);
#402 = COLOUR_RGB('', 0., 0., 1.);
#403 = DRAUGHTING_PRE_DEFINED_CURVE_FONT('continuous');
#404 = OVER_RIDING_STYLED_ITEM('', (#400), #359, #384);
#405 = PRESENTATION_STYLE_ASSIGNMENT((#406));
#406 = CURVE_STYLE('', #408, POSITIVE_LENGTH_MEASURE(1.E-6), #407);
#407 = COLOUR_RGB('', 0., 0., 1.);
#408 = DRAUGHTING_PRE_DEFINED_CURVE_FONT('continuous');
#409 = OVER_RIDING_STYLED_ITEM('', (#405), #366, #384);
#410 = AXIS2_PLACEMENT_3D('MCS', #411, #412, #413);
#411 = CARTESIAN_POINT('', (0., 0., -34.));
#412 = DIRECTION('', (0., 0., 1.));
#413 = DIRECTION('', (1., 0., 0.));
#414 = AXIS2_PLACEMENT_3D('PCS', #415, #416, #417);
#415 = CARTESIAN_POINT('', (0., 0., 0.));
#416 = DIRECTION('', (0., 0., 1.));
#417 = DIRECTION('', (1., 0., 0.));
#418 = AXIS2_PLACEMENT_3D('CIP', #419, #420, #421);
#419 = CARTESIAN_POINT('', (0., 0., -57.));
#420 = DIRECTION('', (0., 0., 1.));
#421 = DIRECTION('', (1., 0., 0.));
#422 = CARTESIAN_POINT('CRP', (2.00000000000002, 0., -57.));
#423 = (
   GEOMETRIC_REPRESENTATION_CONTEXT (3)
   GLOBAL_UNCERTAINTY_ASSIGNED_CONTEXT ((#425))
   GLOBAL_UNIT_ASSIGNED_CONTEXT ((#424, #426, #427))
   REPRESENTATION_CONTEXT ('', '3D')
);
#424 = (
   LENGTH_UNIT ()
   NAMED_UNIT (*)
   SI_UNIT (.MILLI., .METRE.)
);
#425 = UNCERTAINTY_MEASURE_WITH_UNIT(LENGTH_MEASURE(1.E-6), #424, 'DISTANCE_ACCURACY_VALUE', '');
#426 = (
   NAMED_UNIT (*)
   SI_UNIT ($, .STERADIAN.)
   SOLID_ANGLE_UNIT ()
);
#427 = (
   NAMED_UNIT (*)
   PLANE_ANGLE_UNIT ()
   SI_UNIT ($, .RADIAN.)
);
#428 = SHAPE_REPRESENTATION('', (), #423);
#429 = PRODUCT_DEFINITION_SHAPE('', '', #430);
#430 = PRODUCT_DEFINITION('', '', #433, #437);
#431 = APPLICATION_CONTEXT('configuration controlled 3D designs of mechanical parts and assemblies');
#432 = APPLICATION_PROTOCOL_DEFINITION('International Standard', 'automotive_design', 2002, #431);
#433 = PRODUCT_DEFINITION_FORMATION_WITH_SPECIFIED_SOURCE('', '', #434, .NOT_KNOWN.);
#434 = PRODUCT('titg2CC4kx8m', '2P341-0400-MA       1640', '', (#435));
#435 = PRODUCT_CONTEXT('', #431, 'mechanical');
#436 = PRODUCT_RELATED_PRODUCT_CATEGORY('detail', '', (#434));
#437 = PRODUCT_DEFINITION_CONTEXT('part definition', #431, 'design');
#438 = SHAPE_DEFINITION_REPRESENTATION(#429, #428);
#439 = CONSTRUCTIVE_GEOMETRY_REPRESENTATION('supplemental geometry', (#410, #414, #418), #423);
#440 = CONSTRUCTIVE_GEOMETRY_REPRESENTATION_RELATIONSHIP('', '', #428, #439);
#441 = SHAPE_REPRESENTATION_RELATIONSHIP('', '', #428, #442);
#442 = SHAPE_REPRESENTATION('', (#379), #423);
#443 = SHAPE_REPRESENTATION_RELATIONSHIP('', '', #428, #444);
#444 = ADVANCED_BREP_SHAPE_REPRESENTATION('', (#1, #214), #423);
ENDSEC;
END-ISO-10303-21;
