ISO-10303-21;
HEADER;
FILE_DESCRIPTION(('STEP'), '1');
FILE_NAME('C:\\Users\\ds2002\\OneDrive - Sandvik\\HomeShare\\Documents\\Batchrepair\\CorSRT2\\NEW_MILSQ_SLD\\Output\\MOD000000000000000020082315600000.stp', '2019-01-02T12:06:13', (''), (''), 'Express v3.0.0.0', 'Express Tool', 'Unknown');
FILE_SCHEMA(('AUTOMOTIVE_DESIGN'));
ENDSEC;

DATA;
#1 = MANIFOLD_SOLID_BREP('NOCUT', #2);
#2 = CLOSED_SHELL('', (#3, #50, #89, #98, #137));
#3 = ADVANCED_FACE('', (#4), #31, .T.);
#4 = FACE_OUTER_BOUND('', #5, .T.);
#5 = EDGE_LOOP('', (#6, #16, #23, #24));
#6 = ORIENTED_EDGE('', *, *, #7, .T.);
#7 = EDGE_CURVE('', #8, #10, #12, .T.);
#8 = VERTEX_POINT('', #9);
#9 = CARTESIAN_POINT('', (-9., 3.49024337756996E-15, -48.));
#10 = VERTEX_POINT('', #11);
#11 = CARTESIAN_POINT('', (-9., 6.06200165577939E-16, -0.899999999999999));
#12 = LINE('', #13, #14);
#13 = CARTESIAN_POINT('', (-9., 3.49024337756996E-15, -48.));
#14 = VECTOR('', #15, 47.1);
#15 = DIRECTION('', (0., -2.88404321199202E-15, 47.1));
#16 = ORIENTED_EDGE('', *, *, #17, .T.);
#17 = EDGE_CURVE('', #10, #10, #18, .T.);
#18 = CIRCLE('', #19, 9.);
#19 = AXIS2_PLACEMENT_3D('', #20, #21, #22);
#20 = CARTESIAN_POINT('', (-1.36002320516582E-15, -5.10702591327572E-15, -0.899999999999999));
#21 = DIRECTION('', (1.2335811384724E-17, 4.38384980413081E-17, -1.));
#22 = DIRECTION('', (-1., 6.34802897650407E-16, -1.2335811384724E-17));
#23 = ORIENTED_EDGE('', *, *, #7, .F.);
#24 = ORIENTED_EDGE('', *, *, #25, .F.);
#25 = EDGE_CURVE('', #8, #8, #26, .T.);
#26 = CIRCLE('', #27, 9.);
#27 = AXIS2_PLACEMENT_3D('', #28, #29, #30);
#28 = CARTESIAN_POINT('', (4.413136522885E-15, 2.66453525910038E-15, -48.));
#29 = DIRECTION('', (0., 0., -1.));
#30 = DIRECTION('', (-1., 9.17453464966204E-17, 0.));
#31 = (
   BOUNDED_SURFACE ()
   B_SPLINE_SURFACE (1, 2, ((#32, #33, #34, #35, #36, #37, #38, #39, #40), (#41, #42, #43, #44, #45, #46, #47, #48, #49)), .UNSPECIFIED., .F., .T., .U.)
   B_SPLINE_SURFACE_WITH_KNOTS ((2, 2), (3, 2, 2, 2, 3), (0., 1.), (0., 14.1371669411541, 28.2743338823082, 42.4115008234622, 56.5486677646163), .UNSPECIFIED.)
   GEOMETRIC_REPRESENTATION_ITEM ()
   RATIONAL_B_SPLINE_SURFACE (((1., 0.707106781186548, 1., 0.707106781186548, 1., 0.707106781186548, 1., 0.707106781186548, 1.), (1., 0.707106781186548, 1., 0.707106781186548, 1., 0.707106781186548, 1., 0.707106781186548, 1.)))
   REPRESENTATION_ITEM ('')
   SURFACE ()
);
#32 = CARTESIAN_POINT('', (-9., 3.49278002960335E-15, -48.));
#33 = CARTESIAN_POINT('', (-9., 9.00000000000001, -48.));
#34 = CARTESIAN_POINT('', (4.38312853029204E-15, 9., -48.));
#35 = CARTESIAN_POINT('', (9.00000000000001, 9., -48.));
#36 = CARTESIAN_POINT('', (9., -6.83149000887136E-15, -48.));
#37 = CARTESIAN_POINT('', (9., -9.00000000000001, -48.));
#38 = CARTESIAN_POINT('', (-4.83895938895005E-15, -9.00000000000001, -48.));
#39 = CARTESIAN_POINT('', (-9.00000000000001, -9., -48.));
#40 = CARTESIAN_POINT('', (-9., 3.49278002960335E-15, -48.));
#41 = CARTESIAN_POINT('', (-9., 6.06200165577941E-16, -0.899999999999999));
#42 = CARTESIAN_POINT('', (-9., 9., -0.899999999999998));
#43 = CARTESIAN_POINT('', (3.80211181407154E-15, 9., -0.899999999999998));
#44 = CARTESIAN_POINT('', (9.00000000000001, 8.99999999999999, -0.899999999999998));
#45 = CARTESIAN_POINT('', (9., -9.71806987289676E-15, -0.899999999999999));
#46 = CARTESIAN_POINT('', (9., -9.00000000000001, -0.899999999999999));
#47 = CARTESIAN_POINT('', (-5.41997610517055E-15, -9.00000000000001, -0.899999999999999));
#48 = CARTESIAN_POINT('', (-9.00000000000001, -9., -0.9));
#49 = CARTESIAN_POINT('', (-9., 6.06200165577941E-16, -0.899999999999999));
#50 = ADVANCED_FACE('', (#51), #70, .T.);
#51 = FACE_OUTER_BOUND('', #52, .T.);
#52 = EDGE_LOOP('', (#53, #61, #68, #69));
#53 = ORIENTED_EDGE('', *, *, #54, .T.);
#54 = EDGE_CURVE('', #10, #55, #57, .T.);
#55 = VERTEX_POINT('', #56);
#56 = CARTESIAN_POINT('', (-8.1, 4.95981953654678E-16, 0.));
#57 = LINE('', #58, #59);
#58 = CARTESIAN_POINT('', (-9., 6.06200165577939E-16, -0.899999999999999));
#59 = VECTOR('', #60, 1.27279220613579);
#60 = DIRECTION('', (0.9, -1.10218211923261E-16, 0.899999999999999));
#61 = ORIENTED_EDGE('', *, *, #62, .T.);
#62 = EDGE_CURVE('', #55, #55, #63, .T.);
#63 = CIRCLE('', #64, 8.1);
#64 = AXIS2_PLACEMENT_3D('', #65, #66, #67);
#65 = CARTESIAN_POINT('', (2.4980018054066E-15, 2.22044604925031E-16, 2.46519032881566E-32));
#66 = DIRECTION('', (5.11428742624572E-33, 6.12323399573676E-17, -1.));
#67 = DIRECTION('', (-1., 3.38194257690922E-17, -3.04344485038971E-33));
#68 = ORIENTED_EDGE('', *, *, #54, .F.);
#69 = ORIENTED_EDGE('', *, *, #17, .F.);
#70 = (
   BOUNDED_SURFACE ()
   B_SPLINE_SURFACE (1, 2, ((#71, #72, #73, #74, #75, #76, #77, #78, #79), (#80, #81, #82, #83, #84, #85, #86, #87, #88)), .UNSPECIFIED., .F., .T., .U.)
   B_SPLINE_SURFACE_WITH_KNOTS ((2, 2), (3, 2, 2, 2, 3), (0., 1.), (0., 0.25, 0.5, 0.75, 1.), .UNSPECIFIED.)
   GEOMETRIC_REPRESENTATION_ITEM ()
   RATIONAL_B_SPLINE_SURFACE (((1., 0.707106781186548, 1., 0.707106781186548, 1., 0.707106781186548, 1., 0.707106781186548, 1.), (1., 0.707106781186548, 1., 0.707106781186548, 1., 0.707106781186548, 1., 0.707106781186548, 1.)))
   REPRESENTATION_ITEM ('')
   SURFACE ()
);
#71 = CARTESIAN_POINT('', (-9., 5.26419436846861E-16, -0.899999999999999));
#72 = CARTESIAN_POINT('', (-9., 9., -0.899999999999999));
#73 = CARTESIAN_POINT('', (2.25128557771212E-15, 9., -0.899999999999999));
#74 = CARTESIAN_POINT('', (9., 9., -0.899999999999999));
#75 = CARTESIAN_POINT('', (9., 1.01985189223582E-15, -0.899999999999999));
#76 = CARTESIAN_POINT('', (9., -9., -0.899999999999999));
#77 = CARTESIAN_POINT('', (3.8469001523337E-15, -9., -0.899999999999999));
#78 = CARTESIAN_POINT('', (-9., -9., -0.899999999999999));
#79 = CARTESIAN_POINT('', (-9., 5.26419436846861E-16, -0.899999999999999));
#80 = CARTESIAN_POINT('', (-8.1, 4.95981953654678E-16, 5.47382212626882E-48));
#81 = CARTESIAN_POINT('', (-8.1, 8.1, 6.33607399717552E-31));
#82 = CARTESIAN_POINT('', (2.27595720048157E-15, 8.1, 6.58259303005708E-31));
#83 = CARTESIAN_POINT('', (8.1, 8.1, 6.82911206293865E-31));
#84 = CARTESIAN_POINT('', (8.1, 9.40071163504741E-16, 4.93038065763133E-32));
#85 = CARTESIAN_POINT('', (8.1, -8.1, -5.84303593141239E-31));
#86 = CARTESIAN_POINT('', (3.71201031764099E-15, -8.1, -6.08955496429395E-31));
#87 = CARTESIAN_POINT('', (-8.1, -8.1, -6.33607399717552E-31));
#88 = CARTESIAN_POINT('', (-8.1, 4.95981953654678E-16, 5.47382212626882E-48));
#89 = ADVANCED_FACE('', (#90), #93, .T.);
#90 = FACE_OUTER_BOUND('', #91, .T.);
#91 = EDGE_LOOP('', (#92));
#92 = ORIENTED_EDGE('', *, *, #62, .F.);
#93 = B_SPLINE_SURFACE_WITH_KNOTS('', 1, 1, ((#94, #95), (#96, #97)), .UNSPECIFIED., .F., .F., .U., (2, 2), (2, 2), (0.0454545454545454, 0.954545454545455), (0.0454545454545454, 0.954545454545454), .UNSPECIFIED.);
#94 = CARTESIAN_POINT('', (8.1, -8.1, -4.95981953654678E-16));
#95 = CARTESIAN_POINT('', (-8.1, -8.1, -4.95981953654678E-16));
#96 = CARTESIAN_POINT('', (8.1, 8.1, 4.95981953654678E-16));
#97 = CARTESIAN_POINT('', (-8.1, 8.1, 4.95981953654678E-16));
#98 = ADVANCED_FACE('', (#99), #118, .T.);
#99 = FACE_OUTER_BOUND('', #100, .T.);
#100 = EDGE_LOOP('', (#101, #110, #116, #117));
#101 = ORIENTED_EDGE('', *, *, #102, .F.);
#102 = EDGE_CURVE('', #103, #103, #105, .T.);
#103 = VERTEX_POINT('', #104);
#104 = CARTESIAN_POINT('', (-9., 4.163799117101E-15, -59.));
#105 = CIRCLE('', #106, 9.);
#106 = AXIS2_PLACEMENT_3D('', #107, #108, #109);
#107 = CARTESIAN_POINT('', (2.33146835171283E-15, -2.22044604925031E-16, -59.));
#108 = DIRECTION('', (0., 0., -1.));
#109 = DIRECTION('', (-1., 4.87315969114003E-16, 0.));
#110 = ORIENTED_EDGE('', *, *, #111, .F.);
#111 = EDGE_CURVE('', #8, #103, #112, .T.);
#112 = LINE('', #113, #114);
#113 = CARTESIAN_POINT('', (-9., 3.49024337756996E-15, -48.));
#114 = VECTOR('', #115, 11.);
#115 = DIRECTION('', (0., 6.7355573953104E-16, -11.));
#116 = ORIENTED_EDGE('', *, *, #25, .T.);
#117 = ORIENTED_EDGE('', *, *, #111, .T.);
#118 = (
   BOUNDED_SURFACE ()
   B_SPLINE_SURFACE (2, 1, ((#119, #120), (#121, #122), (#123, #124), (#125, #126), (#127, #128), (#129, #130), (#131, #132), (#133, #134), (#135, #136)), .UNSPECIFIED., .T., .F., .U.)
   B_SPLINE_SURFACE_WITH_KNOTS ((3, 2, 2, 2, 3), (2, 2), (0., 14.1371669411541, 28.2743338823082, 42.4115008234622, 56.5486677646163), (0., 0.250855188141391), .UNSPECIFIED.)
   GEOMETRIC_REPRESENTATION_ITEM ()
   RATIONAL_B_SPLINE_SURFACE (((1., 1.), (0.707106781186548, 0.707106781186548), (1., 1.), (0.707106781186548, 0.707106781186548), (1., 1.), (0.707106781186548, 0.707106781186548), (1., 1.), (0.707106781186548, 0.707106781186548), (1., 1.)))
   REPRESENTATION_ITEM ('')
   SURFACE ()
);
#119 = CARTESIAN_POINT('', (-9., 3.49024337756996E-15, -48.));
#120 = CARTESIAN_POINT('', (-9.00000000000001, 4.15637719234506E-15, -59.));
#121 = CARTESIAN_POINT('', (-8.99999999999999, 9.00000000000001, -48.));
#122 = CARTESIAN_POINT('', (-9., 9.00000000000001, -59.));
#123 = CARTESIAN_POINT('', (7.2135109627605E-15, 9., -48.));
#124 = CARTESIAN_POINT('', (-1.47090025208516E-15, 9., -59.));
#125 = CARTESIAN_POINT('', (9.00000000000001, 8.99999999999999, -48.));
#126 = CARTESIAN_POINT('', (9., 8.99999999999999, -59.));
#127 = CARTESIAN_POINT('', (9., -6.82895335683797E-15, -48.));
#128 = CARTESIAN_POINT('', (8.99999999999999, -6.16281954206287E-15, -59.));
#129 = CARTESIAN_POINT('', (9., -9.00000000000001, -48.));
#130 = CARTESIAN_POINT('', (8.99999999999999, -9.00000000000001, -59.));
#131 = CARTESIAN_POINT('', (-2.00350365241481E-15, -9., -48.));
#132 = CARTESIAN_POINT('', (-1.06879148672605E-14, -9., -59.));
#133 = CARTESIAN_POINT('', (-9., -9., -48.));
#134 = CARTESIAN_POINT('', (-9.00000000000001, -9., -59.));
#135 = CARTESIAN_POINT('', (-9., 3.49024337756996E-15, -48.));
#136 = CARTESIAN_POINT('', (-9.00000000000001, 4.15637719234506E-15, -59.));
#137 = ADVANCED_FACE('', (#138), #141, .T.);
#138 = FACE_OUTER_BOUND('', #139, .T.);
#139 = EDGE_LOOP('', (#140));
#140 = ORIENTED_EDGE('', *, *, #102, .T.);
#141 = B_SPLINE_SURFACE_WITH_KNOTS('', 1, 1, ((#142, #143), (#144, #145)), .UNSPECIFIED., .F., .F., .U., (2, 2), (2, 2), (0.46618092604325, 0.560464411591882), (0.439535588408118, 0.53381907395675), .UNSPECIFIED.);
#142 = CARTESIAN_POINT('', (-9.00000000000001, 9.00000000000003, -59.));
#143 = CARTESIAN_POINT('', (-9.00000000000001, -8.99999999999997, -59.));
#144 = CARTESIAN_POINT('', (8.99999999999999, 9.00000000000003, -59.));
#145 = CARTESIAN_POINT('', (8.99999999999999, -8.99999999999997, -59.));
#146 = DRAUGHTING_MODEL('', (#154, #278, #326, #331, #336, #341, #346, #351), #365);
#147 = PRESENTATION_STYLE_ASSIGNMENT((#148));
#148 = SURFACE_STYLE_USAGE(.POSITIVE., #149);
#149 = SURFACE_SIDE_STYLE('', (#150));
#150 = SURFACE_STYLE_FILL_AREA(#151);
#151 = FILL_AREA_STYLE('', (#152));
#152 = FILL_AREA_STYLE_COLOUR('', #153);
#153 = COLOUR_RGB('', 0.50196078431373, 0.50196078431373, 0.50196078431373);
#154 = STYLED_ITEM('', (#147), #1);
#155 = MANIFOLD_SOLID_BREP('CUT', #156);
#156 = CLOSED_SHELL('', (#157, #174, #213, #262));
#157 = ADVANCED_FACE('', (#158), #169, .T.);
#158 = FACE_OUTER_BOUND('', #159, .T.);
#159 = EDGE_LOOP('', (#160));
#160 = ORIENTED_EDGE('', *, *, #161, .F.);
#161 = EDGE_CURVE('', #162, #162, #164, .T.);
#162 = VERTEX_POINT('', #163);
#163 = CARTESIAN_POINT('', (-9., 4.163799117101E-15, -59.));
#164 = CIRCLE('', #165, 9.);
#165 = AXIS2_PLACEMENT_3D('', #166, #167, #168);
#166 = CARTESIAN_POINT('', (2.33146835171283E-15, -2.22044604925031E-16, -59.));
#167 = DIRECTION('', (0., 0., -1.));
#168 = DIRECTION('', (-1., 4.87315969114003E-16, 0.));
#169 = B_SPLINE_SURFACE_WITH_KNOTS('', 1, 1, ((#170, #171), (#172, #173)), .UNSPECIFIED., .F., .F., .U., (2, 2), (2, 2), (0.439535588408118, 0.53381907395675), (0.46618092604325, 0.560464411591882), .UNSPECIFIED.);
#170 = CARTESIAN_POINT('', (-9., 9., -59.));
#171 = CARTESIAN_POINT('', (9., 9., -59.));
#172 = CARTESIAN_POINT('', (-9., -9., -59.));
#173 = CARTESIAN_POINT('', (9., -9., -59.));
#174 = ADVANCED_FACE('', (#175), #194, .T.);
#175 = FACE_OUTER_BOUND('', #176, .T.);
#176 = EDGE_LOOP('', (#177, #178, #186, #193));
#177 = ORIENTED_EDGE('', *, *, #161, .T.);
#178 = ORIENTED_EDGE('', *, *, #179, .T.);
#179 = EDGE_CURVE('', #162, #180, #182, .T.);
#180 = VERTEX_POINT('', #181);
#181 = CARTESIAN_POINT('', (-9., 6.17528148470053E-15, -91.85));
#182 = LINE('', #183, #184);
#183 = CARTESIAN_POINT('', (-9., 4.163799117101E-15, -59.));
#184 = VECTOR('', #185, 32.85);
#185 = DIRECTION('', (0., 2.01148236759953E-15, -32.85));
#186 = ORIENTED_EDGE('', *, *, #187, .F.);
#187 = EDGE_CURVE('', #180, #180, #188, .T.);
#188 = CIRCLE('', #189, 9.);
#189 = AXIS2_PLACEMENT_3D('', #190, #191, #192);
#190 = CARTESIAN_POINT('', (-1.2490009027033E-15, 1.33226762955019E-15, -91.85));
#191 = DIRECTION('', (0., 0., -1.));
#192 = DIRECTION('', (-1., 5.3811265057226E-16, 0.));
#193 = ORIENTED_EDGE('', *, *, #179, .F.);
#194 = (
   BOUNDED_SURFACE ()
   B_SPLINE_SURFACE (2, 1, ((#195, #196), (#197, #198), (#199, #200), (#201, #202), (#203, #204), (#205, #206), (#207, #208), (#209, #210), (#211, #212)), .UNSPECIFIED., .T., .F., .U.)
   B_SPLINE_SURFACE_WITH_KNOTS ((3, 2, 2, 2, 3), (2, 2), (0., 14.1371669411541, 28.2743338823082, 42.4115008234622, 56.5486677646163), (0.250855188141391, 1.), .UNSPECIFIED.)
   GEOMETRIC_REPRESENTATION_ITEM ()
   RATIONAL_B_SPLINE_SURFACE (((1., 1.), (0.707106781186548, 0.707106781186548), (1., 1.), (0.707106781186548, 0.707106781186548), (1., 1.), (0.707106781186548, 0.707106781186548), (1., 1.), (0.707106781186548, 0.707106781186548), (1., 1.)))
   REPRESENTATION_ITEM ('')
   SURFACE ()
);
#195 = CARTESIAN_POINT('', (-9., 4.163799117101E-15, -59.));
#196 = CARTESIAN_POINT('', (-9., 7.05037898112641E-15, -91.85));
#197 = CARTESIAN_POINT('', (-8.99999999999999, 9.00000000000001, -59.));
#198 = CARTESIAN_POINT('', (-8.99999999999999, 9.00000000000001, -91.85));
#199 = CARTESIAN_POINT('', (7.22093288751645E-15, 9., -59.));
#200 = CARTESIAN_POINT('', (7.22093288751645E-15, 9., -91.85));
#201 = CARTESIAN_POINT('', (9.00000000000001, 8.99999999999999, -59.));
#202 = CARTESIAN_POINT('', (9.00000000000001, 9., -91.85));
#203 = CARTESIAN_POINT('', (9., -6.17024146681882E-15, -59.));
#204 = CARTESIAN_POINT('', (9., -3.28366160279341E-15, -91.85));
#205 = CARTESIAN_POINT('', (9., -9.00000000000001, -59.));
#206 = CARTESIAN_POINT('', (9., -9., -91.85));
#207 = CARTESIAN_POINT('', (-2.01092557717075E-15, -9., -59.));
#208 = CARTESIAN_POINT('', (-2.01092557717075E-15, -9., -91.85));
#209 = CARTESIAN_POINT('', (-9., -9., -59.));
#210 = CARTESIAN_POINT('', (-9., -9., -91.85));
#211 = CARTESIAN_POINT('', (-9., 4.163799117101E-15, -59.));
#212 = CARTESIAN_POINT('', (-9., 7.05037898112641E-15, -91.85));
#213 = ADVANCED_FACE('', (#214), #234, .T.);
#214 = FACE_OUTER_BOUND('', #215, .T.);
#215 = EDGE_LOOP('', (#216, #225, #226, #227));
#216 = ORIENTED_EDGE('', *, *, #217, .F.);
#217 = EDGE_CURVE('', #180, #218, #220, .T.);
#218 = VERTEX_POINT('', #219);
#219 = CARTESIAN_POINT('', (-8.85, 6.17528148470053E-15, -92.));
#220 = CIRCLE('', #221, 0.150000000000069);
#221 = AXIS2_PLACEMENT_3D('', #222, #223, #224);
#222 = CARTESIAN_POINT('', (-8.84999999999993, 6.16609663370692E-15, -91.85));
#223 = DIRECTION('', (-6.12323399573632E-17, -1., -6.12323399573551E-17));
#224 = DIRECTION('', (-1., 6.12323399573806E-17, -2.84217094303915E-13));
#225 = ORIENTED_EDGE('', *, *, #187, .T.);
#226 = ORIENTED_EDGE('', *, *, #217, .T.);
#227 = ORIENTED_EDGE('', *, *, #228, .F.);
#228 = EDGE_CURVE('', #218, #218, #229, .T.);
#229 = CIRCLE('', #230, 8.85);
#230 = AXIS2_PLACEMENT_3D('', #231, #232, #233);
#231 = CARTESIAN_POINT('', (-3.05311331771918E-16, 8.65973959207622E-15, -92.));
#232 = DIRECTION('', (0., 0., -1.));
#233 = DIRECTION('', (-1., -2.80729729646971E-16, 0.));
#234 = (
   BOUNDED_SURFACE ()
   B_SPLINE_SURFACE (2, 2, ((#235, #236, #237), (#238, #239, #240), (#241, #242, #243), (#244, #245, #246), (#247, #248, #249), (#250, #251, #252), (#253, #254, #255), (#256, #257, #258), (#259, #260, #261)), .UNSPECIFIED., .T., .F., .U.)
   B_SPLINE_SURFACE_WITH_KNOTS ((3, 2, 2, 2, 3), (3, 3), (0., 0.25, 0.5, 0.75, 1.), (0., 1.), .UNSPECIFIED.)
   GEOMETRIC_REPRESENTATION_ITEM ()
   RATIONAL_B_SPLINE_SURFACE (((1., 0.70710678118656, 1.), (0.707106781186548, 0.500000000000009, 0.707106781186548), (1., 0.70710678118656, 1.), (0.707106781186548, 0.500000000000009, 0.707106781186548), (1., 0.70710678118656, 1.), (0.707106781186548, 0.500000000000009, 0.707106781186548), (1., 0.70710678118656, 1.), (0.707106781186548, 0.500000000000009, 0.707106781186548), (1., 0.70710678118656, 1.)))
   REPRESENTATION_ITEM ('')
   SURFACE ()
);
#235 = CARTESIAN_POINT('', (-9., 6.17528148470053E-15, -91.85));
#236 = CARTESIAN_POINT('', (-8.99999999999999, 6.18446633569413E-15, -92.));
#237 = CARTESIAN_POINT('', (-8.85, 6.17528148470053E-15, -92.));
#238 = CARTESIAN_POINT('', (-9., 9.00000000000001, -91.85));
#239 = CARTESIAN_POINT('', (-8.99999999999999, 8.99999999999999, -92.));
#240 = CARTESIAN_POINT('', (-8.85, 8.85, -92.));
#241 = CARTESIAN_POINT('', (-3.47963837684206E-15, 9.00000000000001, -91.85));
#242 = CARTESIAN_POINT('', (-3.47045352584846E-15, 9., -92.));
#243 = CARTESIAN_POINT('', (-3.47045352584846E-15, 8.85000000000001, -92.));
#244 = CARTESIAN_POINT('', (9., 9.00000000000001, -91.85));
#245 = CARTESIAN_POINT('', (8.99999999999999, 9., -92.));
#246 = CARTESIAN_POINT('', (8.84999999999999, 8.85000000000001, -92.));
#247 = CARTESIAN_POINT('', (9., 1.40227366580848E-14, -91.85));
#248 = CARTESIAN_POINT('', (8.99999999999999, 1.40135518070912E-14, -92.));
#249 = CARTESIAN_POINT('', (8.85, 1.40043669560976E-14, -92.));
#250 = CARTESIAN_POINT('', (9.00000000000001, -8.99999999999999, -91.85));
#251 = CARTESIAN_POINT('', (8.99999999999999, -8.99999999999998, -92.));
#252 = CARTESIAN_POINT('', (8.85, -8.84999999999999, -92.));
#253 = CARTESIAN_POINT('', (5.46999891577481E-15, -8.99999999999999, -91.85));
#254 = CARTESIAN_POINT('', (5.4608140647812E-15, -8.99999999999998, -92.));
#255 = CARTESIAN_POINT('', (5.44244436279399E-15, -8.84999999999999, -92.));
#256 = CARTESIAN_POINT('', (-8.99999999999999, -9., -91.85));
#257 = CARTESIAN_POINT('', (-8.99999999999998, -8.99999999999999, -92.));
#258 = CARTESIAN_POINT('', (-8.84999999999999, -8.85, -92.));
#259 = CARTESIAN_POINT('', (-9., 6.17528148470053E-15, -91.85));
#260 = CARTESIAN_POINT('', (-8.99999999999999, 6.18446633569413E-15, -92.));
#261 = CARTESIAN_POINT('', (-8.85, 6.17528148470053E-15, -92.));
#262 = ADVANCED_FACE('', (#263), #266, .T.);
#263 = FACE_OUTER_BOUND('', #264, .T.);
#264 = EDGE_LOOP('', (#265));
#265 = ORIENTED_EDGE('', *, *, #228, .T.);
#266 = B_SPLINE_SURFACE_WITH_KNOTS('', 1, 1, ((#267, #268), (#269, #270)), .UNSPECIFIED., .F., .F., .U., (2, 2), (2, 2), (0.0454545454545454, 0.954545454545454), (0.0454545454545454, 0.954545454545454), .UNSPECIFIED.);
#267 = CARTESIAN_POINT('', (8.85, -8.85, -92.));
#268 = CARTESIAN_POINT('', (8.85, 8.85000000000001, -92.));
#269 = CARTESIAN_POINT('', (-8.85, -8.85, -92.));
#270 = CARTESIAN_POINT('', (-8.85, 8.85000000000001, -92.));
#271 = PRESENTATION_STYLE_ASSIGNMENT((#272));
#272 = SURFACE_STYLE_USAGE(.POSITIVE., #273);
#273 = SURFACE_SIDE_STYLE('', (#274));
#274 = SURFACE_STYLE_FILL_AREA(#275);
#275 = FILL_AREA_STYLE('', (#276));
#276 = FILL_AREA_STYLE_COLOUR('', #277);
#277 = COLOUR_RGB('', 0.8, 0.8, 0.8);
#278 = STYLED_ITEM('', (#271), #155);
#279 = TRIMMED_CURVE('cutting part line', #280, (#284), (#285), .T., .CARTESIAN.);
#280 = LINE('', #281, #282);
#281 = CARTESIAN_POINT('', (7.21644966006352E-16, 0., -92.));
#282 = VECTOR('', #283, 8.85);
#283 = DIRECTION('', (8.85, 0., -1.4210854715202E-14));
#284 = CARTESIAN_POINT('', (7.21644966006352E-16, 0., -92.));
#285 = CARTESIAN_POINT('', (8.85, 0., -92.));
#286 = TRIMMED_CURVE('cutting part line', #287, (#292), (#293), .T., .CARTESIAN.);
#287 = CIRCLE('', #288, 0.14999999999999);
#288 = AXIS2_PLACEMENT_3D('', #289, #290, #291);
#289 = CARTESIAN_POINT('', (8.85, 1.18579270190987E-14, -91.85));
#290 = DIRECTION('', (-3.70074341541704E-16, -1., 1.8503717077083E-16));
#291 = DIRECTION('', (-3.5527136788007E-14, -1.85037170770817E-16, -1.));
#292 = CARTESIAN_POINT('', (8.85, 1.18301714434831E-14, -92.));
#293 = CARTESIAN_POINT('', (8.99999999999999, 1.18024158678674E-14, -91.85));
#294 = TRIMMED_CURVE('cutting part line', #295, (#299), (#300), .T., .CARTESIAN.);
#295 = LINE('', #296, #297);
#296 = CARTESIAN_POINT('', (9., 2.88614022393065E-15, -91.85));
#297 = VECTOR('', #298, 32.85);
#298 = DIRECTION('', (0., -2.88614022393065E-15, 32.85));
#299 = CARTESIAN_POINT('', (9., 2.88614022393065E-15, -91.85));
#300 = CARTESIAN_POINT('', (9., 0., -59.));
#301 = TRIMMED_CURVE('cutting part line', #302, (#306), (#307), .T., .CARTESIAN.);
#302 = LINE('', #303, #304);
#303 = CARTESIAN_POINT('', (9., 0., -59.));
#304 = VECTOR('', #305, 9.);
#305 = DIRECTION('', (-9., 0., 7.105427357601E-15));
#306 = CARTESIAN_POINT('', (9., 0., -59.));
#307 = CARTESIAN_POINT('', (0., 0., -59.));
#308 = TRIMMED_CURVE('cutting part line', #309, (#313), (#314), .T., .CARTESIAN.);
#309 = LINE('', #310, #311);
#310 = CARTESIAN_POINT('', (0., 0., -59.));
#311 = VECTOR('', #312, 33.);
#312 = DIRECTION('', (0., 0., -33.));
#313 = CARTESIAN_POINT('', (0., 0., -59.));
#314 = CARTESIAN_POINT('', (0., 0., -92.));
#315 = COMPOSITE_CURVE('cutting part line', (#316, #317, #318, #319, #320), .U.);
#316 = COMPOSITE_CURVE_SEGMENT(.CONTINUOUS., .T., #279);
#317 = COMPOSITE_CURVE_SEGMENT(.CONTINUOUS., .T., #286);
#318 = COMPOSITE_CURVE_SEGMENT(.CONTINUOUS., .T., #294);
#319 = COMPOSITE_CURVE_SEGMENT(.CONTINUOUS., .T., #301);
#320 = COMPOSITE_CURVE_SEGMENT(.CONTINUOUS., .T., #308);
#321 = GEOMETRIC_SET('', (#315, #364));
#322 = PRESENTATION_STYLE_ASSIGNMENT((#323));
#323 = CURVE_STYLE('', #325, POSITIVE_LENGTH_MEASURE(1.E-6), #324);
#324 = COLOUR_RGB('', 0., 0., 1.);
#325 = DRAUGHTING_PRE_DEFINED_CURVE_FONT('continuous');
#326 = STYLED_ITEM('', (#322), #315);
#327 = PRESENTATION_STYLE_ASSIGNMENT((#328));
#328 = CURVE_STYLE('', #330, POSITIVE_LENGTH_MEASURE(1.E-6), #329);
#329 = COLOUR_RGB('', 0., 0., 1.);
#330 = DRAUGHTING_PRE_DEFINED_CURVE_FONT('continuous');
#331 = OVER_RIDING_STYLED_ITEM('', (#327), #279, #326);
#332 = PRESENTATION_STYLE_ASSIGNMENT((#333));
#333 = CURVE_STYLE('', #335, POSITIVE_LENGTH_MEASURE(1.E-6), #334);
#334 = COLOUR_RGB('', 0., 0., 1.);
#335 = DRAUGHTING_PRE_DEFINED_CURVE_FONT('continuous');
#336 = OVER_RIDING_STYLED_ITEM('', (#332), #286, #326);
#337 = PRESENTATION_STYLE_ASSIGNMENT((#338));
#338 = CURVE_STYLE('', #340, POSITIVE_LENGTH_MEASURE(1.E-6), #339);
#339 = COLOUR_RGB('', 0., 0., 1.);
#340 = DRAUGHTING_PRE_DEFINED_CURVE_FONT('continuous');
#341 = OVER_RIDING_STYLED_ITEM('', (#337), #294, #326);
#342 = PRESENTATION_STYLE_ASSIGNMENT((#343));
#343 = CURVE_STYLE('', #345, POSITIVE_LENGTH_MEASURE(1.E-6), #344);
#344 = COLOUR_RGB('', 0., 0., 1.);
#345 = DRAUGHTING_PRE_DEFINED_CURVE_FONT('continuous');
#346 = OVER_RIDING_STYLED_ITEM('', (#342), #301, #326);
#347 = PRESENTATION_STYLE_ASSIGNMENT((#348));
#348 = CURVE_STYLE('', #350, POSITIVE_LENGTH_MEASURE(1.E-6), #349);
#349 = COLOUR_RGB('', 0., 0., 1.);
#350 = DRAUGHTING_PRE_DEFINED_CURVE_FONT('continuous');
#351 = OVER_RIDING_STYLED_ITEM('', (#347), #308, #326);
#352 = AXIS2_PLACEMENT_3D('MCS', #353, #354, #355);
#353 = CARTESIAN_POINT('', (0., 0., -48.));
#354 = DIRECTION('', (0., 0., 1.));
#355 = DIRECTION('', (1., 0., 0.));
#356 = AXIS2_PLACEMENT_3D('PCS', #357, #358, #359);
#357 = CARTESIAN_POINT('', (0., 0., 0.));
#358 = DIRECTION('', (0., 0., 1.));
#359 = DIRECTION('', (1., 0., 0.));
#360 = AXIS2_PLACEMENT_3D('CIP', #361, #362, #363);
#361 = CARTESIAN_POINT('', (0., 0., -92.));
#362 = DIRECTION('', (0., 0., 1.));
#363 = DIRECTION('', (1., 0., 0.));
#364 = CARTESIAN_POINT('CRP', (9., 0., -92.));
#365 = (
   GEOMETRIC_REPRESENTATION_CONTEXT (3)
   GLOBAL_UNCERTAINTY_ASSIGNED_CONTEXT ((#367))
   GLOBAL_UNIT_ASSIGNED_CONTEXT ((#366, #368, #369))
   REPRESENTATION_CONTEXT ('', '3D')
);
#366 = (
   LENGTH_UNIT ()
   NAMED_UNIT (*)
   SI_UNIT (.MILLI., .METRE.)
);
#367 = UNCERTAINTY_MEASURE_WITH_UNIT(LENGTH_MEASURE(1.E-6), #366, 'DISTANCE_ACCURACY_VALUE', '');
#368 = (
   NAMED_UNIT (*)
   SI_UNIT ($, .STERADIAN.)
   SOLID_ANGLE_UNIT ()
);
#369 = (
   NAMED_UNIT (*)
   PLANE_ANGLE_UNIT ()
   SI_UNIT ($, .RADIAN.)
);
#370 = SHAPE_REPRESENTATION('', (), #365);
#371 = PRODUCT_DEFINITION_SHAPE('', '', #372);
#372 = PRODUCT_DEFINITION('', '', #375, #379);
#373 = APPLICATION_CONTEXT('configuration controlled 3D designs of mechanical parts and assemblies');
#374 = APPLICATION_PROTOCOL_DEFINITION('International Standard', 'automotive_design', 2002, #373);
#375 = PRODUCT_DEFINITION_FORMATION_WITH_SPECIFIED_SOURCE('', '', #376, .NOT_KNOWN.);
#376 = PRODUCT('product-name', '2P232-1800-NA       H10F', '', (#377));
#377 = PRODUCT_CONTEXT('', #373, 'mechanical');
#378 = PRODUCT_RELATED_PRODUCT_CATEGORY('detail', '', (#376));
#379 = PRODUCT_DEFINITION_CONTEXT('part definition', #373, 'design');
#380 = SHAPE_DEFINITION_REPRESENTATION(#371, #370);
#381 = CONSTRUCTIVE_GEOMETRY_REPRESENTATION('supplemental geometry', (#352, #356, #360), #365);
#382 = CONSTRUCTIVE_GEOMETRY_REPRESENTATION_RELATIONSHIP('', '', #370, #381);
#383 = SHAPE_REPRESENTATION_RELATIONSHIP('', '', #370, #384);
#384 = SHAPE_REPRESENTATION('', (#321), #365);
#385 = SHAPE_REPRESENTATION_RELATIONSHIP('', '', #370, #386);
#386 = ADVANCED_BREP_SHAPE_REPRESENTATION('', (#1, #155), #365);
ENDSEC;
END-ISO-10303-21;
