ISO-10303-21;
HEADER;
FILE_DESCRIPTION(('STEP'), '1');
FILE_NAME('C:\\Users\\ds2002\\OneDrive - Sandvik\\HomeShare\\Documents\\Batchrepair\\CorSRT2\\NEW_MILSQ_SLD\\Output\\MOD000000000000000020082315400000.stp', '2019-01-02T12:06:09', (''), (''), 'Express v3.0.0.0', 'Express Tool', 'Unknown');
FILE_SCHEMA(('AUTOMOTIVE_DESIGN'));
ENDSEC;

DATA;
#1 = MANIFOLD_SOLID_BREP('NOCUT', #2);
#2 = CLOSED_SHELL('', (#3, #50, #89, #98, #137));
#3 = ADVANCED_FACE('', (#4), #31, .T.);
#4 = FACE_OUTER_BOUND('', #5, .T.);
#5 = EDGE_LOOP('', (#6, #16, #23, #24));
#6 = ORIENTED_EDGE('', *, *, #7, .T.);
#7 = EDGE_CURVE('', #8, #10, #12, .T.);
#8 = VERTEX_POINT('', #9);
#9 = CARTESIAN_POINT('', (-7., 3.18408167778312E-15, -45.));
#10 = VERTEX_POINT('', #11);
#11 = CARTESIAN_POINT('', (-7., 4.71489017671731E-16, -0.700000000000003));
#12 = LINE('', #13, #14);
#13 = CARTESIAN_POINT('', (-7., 3.18408167778312E-15, -45.));
#14 = VECTOR('', #15, 44.3);
#15 = DIRECTION('', (0., -2.71259266011139E-15, 44.3));
#16 = ORIENTED_EDGE('', *, *, #17, .T.);
#17 = EDGE_CURVE('', #10, #10, #18, .T.);
#18 = CIRCLE('', #19, 7.);
#19 = AXIS2_PLACEMENT_3D('', #20, #21, #22);
#20 = CARTESIAN_POINT('', (4.44089209850063E-16, -1.77635683940025E-15, -0.700000000000003));
#21 = DIRECTION('', (1.58603289232165E-17, 2.38255613369127E-18, -1.));
#22 = DIRECTION('', (-1., 3.21120836724569E-16, -1.58603289232165E-17));
#23 = ORIENTED_EDGE('', *, *, #7, .F.);
#24 = ORIENTED_EDGE('', *, *, #25, .F.);
#25 = EDGE_CURVE('', #8, #8, #26, .T.);
#26 = CIRCLE('', #27, 7.);
#27 = AXIS2_PLACEMENT_3D('', #28, #29, #30);
#28 = CARTESIAN_POINT('', (-1.11022302462516E-16, -8.88178419700125E-16, -45.));
#29 = DIRECTION('', (0., 0., -1.));
#30 = DIRECTION('', (-1., 5.81751442497606E-16, 0.));
#31 = (
   BOUNDED_SURFACE ()
   B_SPLINE_SURFACE (1, 2, ((#32, #33, #34, #35, #36, #37, #38, #39, #40), (#41, #42, #43, #44, #45, #46, #47, #48, #49)), .UNSPECIFIED., .F., .T., .U.)
   B_SPLINE_SURFACE_WITH_KNOTS ((2, 2), (3, 2, 2, 2, 3), (0., 1.), (0., 10.9955742875643, 21.9911485751286, 32.9867228626928, 43.9822971502571), .UNSPECIFIED.)
   GEOMETRIC_REPRESENTATION_ITEM ()
   RATIONAL_B_SPLINE_SURFACE (((1., 0.707106781186548, 1., 0.707106781186548, 1., 0.707106781186548, 1., 0.707106781186548, 1.), (1., 0.707106781186548, 1., 0.707106781186548, 1., 0.707106781186548, 1., 0.707106781186548, 1.)))
   REPRESENTATION_ITEM ('')
   SURFACE ()
);
#32 = CARTESIAN_POINT('', (-7., 3.13602427677211E-15, -45.));
#33 = CARTESIAN_POINT('', (-7., 7., -45.));
#34 = CARTESIAN_POINT('', (2.96592125851896E-15, 7., -45.));
#35 = CARTESIAN_POINT('', (7., 7., -45.));
#36 = CARTESIAN_POINT('', (7., -5.02414677968709E-16, -45.));
#37 = CARTESIAN_POINT('', (7., -7., -45.));
#38 = CARTESIAN_POINT('', (1.84735063181295E-16, -7., -45.));
#39 = CARTESIAN_POINT('', (-7., -7., -45.));
#40 = CARTESIAN_POINT('', (-7., 3.13602427677211E-15, -45.));
#41 = CARTESIAN_POINT('', (-7., 4.71489017671731E-16, -0.700000000000003));
#42 = CARTESIAN_POINT('', (-7., 7., -0.700000000000003));
#43 = CARTESIAN_POINT('', (2.26330868722047E-15, 7., -0.700000000000002));
#44 = CARTESIAN_POINT('', (7., 7., -0.700000000000002));
#45 = CARTESIAN_POINT('', (7., -3.16694993706908E-15, -0.700000000000003));
#46 = CARTESIAN_POINT('', (7., -7., -0.700000000000003));
#47 = CARTESIAN_POINT('', (-5.17877508117198E-16, -7., -0.700000000000003));
#48 = CARTESIAN_POINT('', (-7., -7., -0.700000000000003));
#49 = CARTESIAN_POINT('', (-7., 4.71489017671731E-16, -0.700000000000003));
#50 = ADVANCED_FACE('', (#51), #70, .T.);
#51 = FACE_OUTER_BOUND('', #52, .T.);
#52 = EDGE_LOOP('', (#53, #61, #68, #69));
#53 = ORIENTED_EDGE('', *, *, #54, .T.);
#54 = EDGE_CURVE('', #10, #55, #57, .T.);
#55 = VERTEX_POINT('', #56);
#56 = CARTESIAN_POINT('', (-6.3, 3.85763741731416E-16, 0.));
#57 = LINE('', #58, #59);
#58 = CARTESIAN_POINT('', (-7., 4.71489017671731E-16, -0.700000000000003));
#59 = VECTOR('', #60, 0.989949493661169);
#60 = DIRECTION('', (0.7, -8.57252759403149E-17, 0.700000000000003));
#61 = ORIENTED_EDGE('', *, *, #62, .T.);
#62 = EDGE_CURVE('', #55, #55, #63, .T.);
#63 = CIRCLE('', #64, 6.3);
#64 = AXIS2_PLACEMENT_3D('', #65, #66, #67);
#65 = CARTESIAN_POINT('', (-6.93889390390723E-16, -3.44169137633799E-15, -2.2186712959341E-31));
#66 = DIRECTION('', (1.9836354552036E-33, 6.12323399573676E-17, -1.));
#67 = DIRECTION('', (-1., 6.07532558423715E-16, 3.52170046973666E-32));
#68 = ORIENTED_EDGE('', *, *, #54, .F.);
#69 = ORIENTED_EDGE('', *, *, #17, .F.);
#70 = (
   BOUNDED_SURFACE ()
   B_SPLINE_SURFACE (1, 2, ((#71, #72, #73, #74, #75, #76, #77, #78, #79), (#80, #81, #82, #83, #84, #85, #86, #87, #88)), .UNSPECIFIED., .F., .T., .U.)
   B_SPLINE_SURFACE_WITH_KNOTS ((2, 2), (3, 2, 2, 2, 3), (0., 1.), (0., 0.25, 0.5, 0.75, 1.), .UNSPECIFIED.)
   GEOMETRIC_REPRESENTATION_ITEM ()
   RATIONAL_B_SPLINE_SURFACE (((1., 0.707106781186548, 1., 0.707106781186548, 1., 0.707106781186548, 1., 0.707106781186548, 1.), (1., 0.707106781186548, 1., 0.707106781186548, 1., 0.707106781186548, 1., 0.707106781186548, 1.)))
   REPRESENTATION_ITEM ('')
   SURFACE ()
);
#71 = CARTESIAN_POINT('', (-7., -2.1865656338599E-15, -0.700000000000003));
#72 = CARTESIAN_POINT('', (-7., 7., -0.700000000000033));
#73 = CARTESIAN_POINT('', (3.1302121388737E-15, 6.99999999999999, -0.700000000000033));
#74 = CARTESIAN_POINT('', (7., 6.99999999999999, -0.700000000000033));
#75 = CARTESIAN_POINT('', (7., -9.83476869238876E-15, -0.700000000000003));
#76 = CARTESIAN_POINT('', (7., -7.00000000000001, -0.699999999999973));
#77 = CARTESIAN_POINT('', (-3.66073816025201E-15, -7.00000000000001, -0.699999999999973));
#78 = CARTESIAN_POINT('', (-7., -7., -0.699999999999973));
#79 = CARTESIAN_POINT('', (-7., -2.1865656338599E-15, -0.700000000000003));
#80 = CARTESIAN_POINT('', (-6.3, 3.85763741731417E-16, 4.37905770101505E-47));
#81 = CARTESIAN_POINT('', (-6.3, 6.3, -2.69784194983912E-14));
#82 = CARTESIAN_POINT('', (2.74780198594726E-15, 6.3, -2.69784194983912E-14));
#83 = CARTESIAN_POINT('', (6.3, 6.29999999999999, -2.69784194983912E-14));
#84 = CARTESIAN_POINT('', (6.3, -6.49761901094455E-15, -3.74763776766275E-30));
#85 = CARTESIAN_POINT('', (6.3, -6.30000000000001, 2.69784194983912E-14));
#86 = CARTESIAN_POINT('', (-3.36405328326588E-15, -6.3, 2.69784194983912E-14));
#87 = CARTESIAN_POINT('', (-6.3, -6.3, 2.69784194983912E-14));
#88 = CARTESIAN_POINT('', (-6.3, 3.85763741731417E-16, 4.37905770101505E-47));
#89 = ADVANCED_FACE('', (#90), #93, .T.);
#90 = FACE_OUTER_BOUND('', #91, .T.);
#91 = EDGE_LOOP('', (#92));
#92 = ORIENTED_EDGE('', *, *, #62, .F.);
#93 = B_SPLINE_SURFACE_WITH_KNOTS('', 1, 1, ((#94, #95), (#96, #97)), .UNSPECIFIED., .F., .F., .U., (2, 2), (2, 2), (0.0454545454545454, 0.954545454545454), (0.0454545454545454, 0.954545454545454), .UNSPECIFIED.);
#94 = CARTESIAN_POINT('', (6.3, -6.3, -3.85763741731416E-16));
#95 = CARTESIAN_POINT('', (-6.3, -6.3, -3.85763741731416E-16));
#96 = CARTESIAN_POINT('', (6.3, 6.3, 3.85763741731416E-16));
#97 = CARTESIAN_POINT('', (-6.3, 6.3, 3.85763741731416E-16));
#98 = ADVANCED_FACE('', (#99), #118, .T.);
#99 = FACE_OUTER_BOUND('', #100, .T.);
#100 = EDGE_LOOP('', (#101, #110, #116, #117));
#101 = ORIENTED_EDGE('', *, *, #102, .F.);
#102 = EDGE_CURVE('', #103, #103, #105, .T.);
#103 = VERTEX_POINT('', #104);
#104 = CARTESIAN_POINT('', (-7., 3.9801020972289E-15, -58.));
#105 = CIRCLE('', #106, 7.);
#106 = AXIS2_PLACEMENT_3D('', #107, #108, #109);
#107 = CARTESIAN_POINT('', (3.88578058618805E-16, -1.99840144432528E-15, -58.));
#108 = DIRECTION('', (0., 0., -1.));
#109 = DIRECTION('', (-1., 8.5407193450774E-16, 0.));
#110 = ORIENTED_EDGE('', *, *, #111, .F.);
#111 = EDGE_CURVE('', #8, #103, #112, .T.);
#112 = LINE('', #113, #114);
#113 = CARTESIAN_POINT('', (-7., 3.18408167778312E-15, -45.));
#114 = VECTOR('', #115, 13.);
#115 = DIRECTION('', (0., 7.9602041944578E-16, -13.));
#116 = ORIENTED_EDGE('', *, *, #25, .T.);
#117 = ORIENTED_EDGE('', *, *, #111, .T.);
#118 = (
   BOUNDED_SURFACE ()
   B_SPLINE_SURFACE (2, 1, ((#119, #120), (#121, #122), (#123, #124), (#125, #126), (#127, #128), (#129, #130), (#131, #132), (#133, #134), (#135, #136)), .UNSPECIFIED., .T., .F., .U.)
   B_SPLINE_SURFACE_WITH_KNOTS ((3, 2, 2, 2, 3), (2, 2), (0., 10.9955742875643, 21.9911485751286, 32.9867228626928, 43.9822971502571), (0., 0.343461030383091), .UNSPECIFIED.)
   GEOMETRIC_REPRESENTATION_ITEM ()
   RATIONAL_B_SPLINE_SURFACE (((1., 1.), (0.707106781186548, 0.707106781186548), (1., 1.), (0.707106781186548, 0.707106781186548), (1., 1.), (0.707106781186548, 0.707106781186548), (1., 1.), (0.707106781186548, 0.707106781186548), (1., 1.)))
   REPRESENTATION_ITEM ('')
   SURFACE ()
);
#119 = CARTESIAN_POINT('', (-7., 3.18408167778312E-15, -45.));
#120 = CARTESIAN_POINT('', (-7., 3.62817088763318E-15, -58.));
#121 = CARTESIAN_POINT('', (-7., 7., -45.));
#122 = CARTESIAN_POINT('', (-7., 7., -58.));
#123 = CARTESIAN_POINT('', (2.2280993613846E-15, 7., -45.));
#124 = CARTESIAN_POINT('', (2.2280993613846E-15, 7., -58.));
#125 = CARTESIAN_POINT('', (7., 7., -45.));
#126 = CARTESIAN_POINT('', (7., 7., -58.));
#127 = CARTESIAN_POINT('', (7., -5.50472078979722E-16, -45.));
#128 = CARTESIAN_POINT('', (7., -1.0638286912966E-16, -58.));
#129 = CARTESIAN_POINT('', (7., -7., -45.));
#130 = CARTESIAN_POINT('', (7., -7., -58.));
#131 = CARTESIAN_POINT('', (-6.49201635975098E-16, -7., -45.));
#132 = CARTESIAN_POINT('', (-6.49201635975098E-16, -7., -58.));
#133 = CARTESIAN_POINT('', (-7., -7., -45.));
#134 = CARTESIAN_POINT('', (-7., -7., -58.));
#135 = CARTESIAN_POINT('', (-7., 3.18408167778312E-15, -45.));
#136 = CARTESIAN_POINT('', (-7., 3.62817088763318E-15, -58.));
#137 = ADVANCED_FACE('', (#138), #141, .T.);
#138 = FACE_OUTER_BOUND('', #139, .T.);
#139 = EDGE_LOOP('', (#140));
#140 = ORIENTED_EDGE('', *, *, #102, .T.);
#141 = B_SPLINE_SURFACE_WITH_KNOTS('', 1, 1, ((#142, #143), (#144, #145)), .UNSPECIFIED., .F., .F., .U., (2, 2), (2, 2), (0.475290477882668, 0.557326104172457), (0.442673895827542, 0.524709522117331), .UNSPECIFIED.);
#142 = CARTESIAN_POINT('', (-7.00000000000001, 7.00000000000001, -58.));
#143 = CARTESIAN_POINT('', (-7.00000000000001, -6.99999999999999, -58.));
#144 = CARTESIAN_POINT('', (6.99999999999996, 7.00000000000001, -58.));
#145 = CARTESIAN_POINT('', (6.99999999999996, -6.99999999999999, -58.));
#146 = DRAUGHTING_MODEL('', (#154, #278, #326, #331, #336, #341, #346, #351), #365);
#147 = PRESENTATION_STYLE_ASSIGNMENT((#148));
#148 = SURFACE_STYLE_USAGE(.POSITIVE., #149);
#149 = SURFACE_SIDE_STYLE('', (#150));
#150 = SURFACE_STYLE_FILL_AREA(#151);
#151 = FILL_AREA_STYLE('', (#152));
#152 = FILL_AREA_STYLE_COLOUR('', #153);
#153 = COLOUR_RGB('', 0.50196078431373, 0.50196078431373, 0.50196078431373);
#154 = STYLED_ITEM('', (#147), #1);
#155 = MANIFOLD_SOLID_BREP('CUT', #156);
#156 = CLOSED_SHELL('', (#157, #174, #213, #262));
#157 = ADVANCED_FACE('', (#158), #169, .T.);
#158 = FACE_OUTER_BOUND('', #159, .T.);
#159 = EDGE_LOOP('', (#160));
#160 = ORIENTED_EDGE('', *, *, #161, .F.);
#161 = EDGE_CURVE('', #162, #162, #164, .T.);
#162 = VERTEX_POINT('', #163);
#163 = CARTESIAN_POINT('', (-7., 3.9801020972289E-15, -58.));
#164 = CIRCLE('', #165, 7.);
#165 = AXIS2_PLACEMENT_3D('', #166, #167, #168);
#166 = CARTESIAN_POINT('', (3.88578058618805E-16, -1.99840144432528E-15, -58.));
#167 = DIRECTION('', (0., 0., -1.));
#168 = DIRECTION('', (-1., 8.5407193450774E-16, 0.));
#169 = B_SPLINE_SURFACE_WITH_KNOTS('', 1, 1, ((#170, #171), (#172, #173)), .UNSPECIFIED., .F., .F., .U., (2, 2), (2, 2), (0.442673895827543, 0.524709522117331), (0.475290477882669, 0.557326104172457), .UNSPECIFIED.);
#170 = CARTESIAN_POINT('', (-7., 7., -58.));
#171 = CARTESIAN_POINT('', (7., 7., -58.));
#172 = CARTESIAN_POINT('', (-7., -6.99999999999999, -58.));
#173 = CARTESIAN_POINT('', (7., -6.99999999999999, -58.));
#174 = ADVANCED_FACE('', (#175), #194, .T.);
#175 = FACE_OUTER_BOUND('', #176, .T.);
#176 = EDGE_LOOP('', (#177, #178, #186, #193));
#177 = ORIENTED_EDGE('', *, *, #161, .T.);
#178 = ORIENTED_EDGE('', *, *, #179, .T.);
#179 = EDGE_CURVE('', #162, #180, #182, .T.);
#180 = VERTEX_POINT('', #181);
#181 = CARTESIAN_POINT('', (-7., 5.50172574516948E-15, -82.85));
#182 = LINE('', #183, #184);
#183 = CARTESIAN_POINT('', (-7., 3.9801020972289E-15, -58.));
#184 = VECTOR('', #185, 24.85);
#185 = DIRECTION('', (0., 1.52162364794058E-15, -24.85));
#186 = ORIENTED_EDGE('', *, *, #187, .F.);
#187 = EDGE_CURVE('', #180, #180, #188, .T.);
#188 = CIRCLE('', #189, 7.);
#189 = AXIS2_PLACEMENT_3D('', #190, #191, #192);
#190 = CARTESIAN_POINT('', (3.60822483003176E-16, 3.33066907387547E-15, -82.85));
#191 = DIRECTION('', (0., 0., -1.));
#192 = DIRECTION('', (-1., 3.10150953042001E-16, 0.));
#193 = ORIENTED_EDGE('', *, *, #179, .F.);
#194 = (
   BOUNDED_SURFACE ()
   B_SPLINE_SURFACE (2, 1, ((#195, #196), (#197, #198), (#199, #200), (#201, #202), (#203, #204), (#205, #206), (#207, #208), (#209, #210), (#211, #212)), .UNSPECIFIED., .T., .F., .U.)
   B_SPLINE_SURFACE_WITH_KNOTS ((3, 2, 2, 2, 3), (2, 2), (0., 10.9955742875643, 21.9911485751286, 32.9867228626928, 43.9822971502571), (0.343461030383091, 1.), .UNSPECIFIED.)
   GEOMETRIC_REPRESENTATION_ITEM ()
   RATIONAL_B_SPLINE_SURFACE (((1., 1.), (0.707106781186548, 0.707106781186548), (1., 1.), (0.707106781186548, 0.707106781186548), (1., 1.), (0.707106781186548, 0.707106781186548), (1., 1.), (0.707106781186548, 0.707106781186548), (1., 1.)))
   REPRESENTATION_ITEM ('')
   SURFACE ()
);
#195 = CARTESIAN_POINT('', (-7., 3.9801020972289E-15, -58.));
#196 = CARTESIAN_POINT('', (-7., 5.97850354155418E-15, -82.85));
#197 = CARTESIAN_POINT('', (-7., 7., -58.));
#198 = CARTESIAN_POINT('', (-7., 7.00000000000001, -82.85));
#199 = CARTESIAN_POINT('', (2.52451941974906E-15, 7., -58.));
#200 = CARTESIAN_POINT('', (2.52451941974906E-15, 7., -82.85));
#201 = CARTESIAN_POINT('', (7., 7., -58.));
#202 = CARTESIAN_POINT('', (7., 7., -82.85));
#203 = CARTESIAN_POINT('', (7., -4.58314078725377E-16, -58.));
#204 = CARTESIAN_POINT('', (7., 1.5400873655999E-15, -82.85));
#205 = CARTESIAN_POINT('', (7., -7., -58.));
#206 = CARTESIAN_POINT('', (7., -7., -82.85));
#207 = CARTESIAN_POINT('', (-1.05664399680207E-15, -7., -58.));
#208 = CARTESIAN_POINT('', (-1.05664399680207E-15, -7., -82.85));
#209 = CARTESIAN_POINT('', (-7., -7., -58.));
#210 = CARTESIAN_POINT('', (-7., -6.99999999999999, -82.85));
#211 = CARTESIAN_POINT('', (-7., 3.9801020972289E-15, -58.));
#212 = CARTESIAN_POINT('', (-7., 5.97850354155418E-15, -82.85));
#213 = ADVANCED_FACE('', (#214), #234, .T.);
#214 = FACE_OUTER_BOUND('', #215, .T.);
#215 = EDGE_LOOP('', (#216, #225, #226, #227));
#216 = ORIENTED_EDGE('', *, *, #217, .F.);
#217 = EDGE_CURVE('', #180, #218, #220, .T.);
#218 = VERTEX_POINT('', #219);
#219 = CARTESIAN_POINT('', (-6.85, 5.50172574516948E-15, -83.));
#220 = CIRCLE('', #221, 0.15000000000001);
#221 = AXIS2_PLACEMENT_3D('', #222, #223, #224);
#222 = CARTESIAN_POINT('', (-6.84999999999999, 5.49254089417587E-15, -82.85));
#223 = DIRECTION('', (-6.12323399574087E-17, -1., -6.12323399574116E-17));
#224 = DIRECTION('', (-1., 6.12323399574087E-17, 0.));
#225 = ORIENTED_EDGE('', *, *, #187, .T.);
#226 = ORIENTED_EDGE('', *, *, #217, .T.);
#227 = ORIENTED_EDGE('', *, *, #228, .F.);
#228 = EDGE_CURVE('', #218, #218, #229, .T.);
#229 = CIRCLE('', #230, 6.85);
#230 = AXIS2_PLACEMENT_3D('', #231, #232, #233);
#231 = CARTESIAN_POINT('', (-9.43689570931383E-16, 3.77475828372553E-15, -83.));
#232 = DIRECTION('', (-1.78013842203995E-30, -7.06090210916776E-15, -1.));
#233 = DIRECTION('', (-1., 2.52112038167E-16, 0.));
#234 = (
   BOUNDED_SURFACE ()
   B_SPLINE_SURFACE (2, 2, ((#235, #236, #237), (#238, #239, #240), (#241, #242, #243), (#244, #245, #246), (#247, #248, #249), (#250, #251, #252), (#253, #254, #255), (#256, #257, #258), (#259, #260, #261)), .UNSPECIFIED., .T., .F., .U.)
   B_SPLINE_SURFACE_WITH_KNOTS ((3, 2, 2, 2, 3), (3, 3), (0., 0.25, 0.5, 0.75, 1.), (0., 1.), .UNSPECIFIED.)
   GEOMETRIC_REPRESENTATION_ITEM ()
   RATIONAL_B_SPLINE_SURFACE (((1., 0.707106781186562, 1.), (0.707106781186548, 0.50000000000001, 0.707106781186548), (1., 0.707106781186562, 1.), (0.707106781186548, 0.50000000000001, 0.707106781186548), (1., 0.707106781186562, 1.), (0.707106781186548, 0.50000000000001, 0.707106781186548), (1., 0.707106781186562, 1.), (0.707106781186548, 0.50000000000001, 0.707106781186548), (1., 0.707106781186562, 1.)))
   REPRESENTATION_ITEM ('')
   SURFACE ()
);
#235 = CARTESIAN_POINT('', (-7., 5.50172574516948E-15, -82.85));
#236 = CARTESIAN_POINT('', (-6.99999999999999, 5.51091059616309E-15, -83.));
#237 = CARTESIAN_POINT('', (-6.85, 5.50172574516948E-15, -83.));
#238 = CARTESIAN_POINT('', (-7., 7.00000000000001, -82.85));
#239 = CARTESIAN_POINT('', (-6.99999999999999, 7., -83.));
#240 = CARTESIAN_POINT('', (-6.85, 6.85, -83.));
#241 = CARTESIAN_POINT('', (3.40776482853017E-15, 7., -82.85));
#242 = CARTESIAN_POINT('', (3.41694967952378E-15, 6.99999999999999, -83.));
#243 = CARTESIAN_POINT('', (3.41694967952378E-15, 6.85, -83.));
#244 = CARTESIAN_POINT('', (7., 7., -82.85));
#245 = CARTESIAN_POINT('', (6.99999999999999, 6.99999999999999, -83.));
#246 = CARTESIAN_POINT('', (6.85, 6.85, -83.));
#247 = CARTESIAN_POINT('', (7., -1.53584851681589E-15, -82.85));
#248 = CARTESIAN_POINT('', (6.99999999999999, -1.54503336780951E-15, -83.));
#249 = CARTESIAN_POINT('', (6.85, -1.5542182188031E-15, -83.));
#250 = CARTESIAN_POINT('', (7., -7., -82.85));
#251 = CARTESIAN_POINT('', (6.99999999999999, -6.99999999999999, -83.));
#252 = CARTESIAN_POINT('', (6.85, -6.85, -83.));
#253 = CARTESIAN_POINT('', (-2.77255667405206E-15, -7., -82.85));
#254 = CARTESIAN_POINT('', (-2.78174152504567E-15, -6.99999999999999, -83.));
#255 = CARTESIAN_POINT('', (-2.80011122703287E-15, -6.85, -83.));
#256 = CARTESIAN_POINT('', (-7., -7., -82.85));
#257 = CARTESIAN_POINT('', (-6.99999999999999, -6.99999999999999, -83.));
#258 = CARTESIAN_POINT('', (-6.85, -6.85, -83.));
#259 = CARTESIAN_POINT('', (-7., 5.50172574516948E-15, -82.85));
#260 = CARTESIAN_POINT('', (-6.99999999999999, 5.51091059616309E-15, -83.));
#261 = CARTESIAN_POINT('', (-6.85, 5.50172574516948E-15, -83.));
#262 = ADVANCED_FACE('', (#263), #266, .T.);
#263 = FACE_OUTER_BOUND('', #264, .T.);
#264 = EDGE_LOOP('', (#265));
#265 = ORIENTED_EDGE('', *, *, #228, .T.);
#266 = B_SPLINE_SURFACE_WITH_KNOTS('', 1, 1, ((#267, #268), (#269, #270)), .UNSPECIFIED., .F., .F., .U., (2, 2), (2, 2), (0.0454545454545454, 0.954545454545454), (0.0454545454545454, 0.954545454545454), .UNSPECIFIED.);
#267 = CARTESIAN_POINT('', (6.85, -6.85, -83.));
#268 = CARTESIAN_POINT('', (6.85, 6.85000000000001, -83.));
#269 = CARTESIAN_POINT('', (-6.85, -6.85, -83.));
#270 = CARTESIAN_POINT('', (-6.85, 6.85000000000001, -83.));
#271 = PRESENTATION_STYLE_ASSIGNMENT((#272));
#272 = SURFACE_STYLE_USAGE(.POSITIVE., #273);
#273 = SURFACE_SIDE_STYLE('', (#274));
#274 = SURFACE_STYLE_FILL_AREA(#275);
#275 = FILL_AREA_STYLE('', (#276));
#276 = FILL_AREA_STYLE_COLOUR('', #277);
#277 = COLOUR_RGB('', 0.8, 0.8, 0.8);
#278 = STYLED_ITEM('', (#271), #155);
#279 = TRIMMED_CURVE('cutting part line', #280, (#284), (#285), .T., .CARTESIAN.);
#280 = LINE('', #281, #282);
#281 = CARTESIAN_POINT('', (6.38378239159465E-16, 0., -83.));
#282 = VECTOR('', #283, 6.85);
#283 = DIRECTION('', (6.85, 0., 0.));
#284 = CARTESIAN_POINT('', (6.38378239159465E-16, 0., -83.));
#285 = CARTESIAN_POINT('', (6.85, 0., -83.));
#286 = TRIMMED_CURVE('cutting part line', #287, (#292), (#293), .T., .CARTESIAN.);
#287 = CIRCLE('', #288, 0.150000000000001);
#288 = AXIS2_PLACEMENT_3D('', #289, #290, #291);
#289 = CARTESIAN_POINT('', (6.85, 2.87052774058962E-15, -82.85));
#290 = DIRECTION('', (4.62592926927183E-16, -1., 1.85037170770818E-16));
#291 = DIRECTION('', (-3.55271367880037E-14, -1.85037170770834E-16, -1.));
#292 = CARTESIAN_POINT('', (6.85, 2.84277216497399E-15, -83.));
#293 = CARTESIAN_POINT('', (7.00000000000001, 2.9399166796287E-15, -82.85));
#294 = TRIMMED_CURVE('cutting part line', #295, (#299), (#300), .T., .CARTESIAN.);
#295 = LINE('', #296, #297);
#296 = CARTESIAN_POINT('', (7., 1.99809707810584E-15, -82.85));
#297 = VECTOR('', #298, 24.85);
#298 = DIRECTION('', (0., -1.99809707810584E-15, 24.85));
#299 = CARTESIAN_POINT('', (7., 1.99809707810584E-15, -82.85));
#300 = CARTESIAN_POINT('', (7., 0., -58.));
#301 = TRIMMED_CURVE('cutting part line', #302, (#306), (#307), .T., .CARTESIAN.);
#302 = LINE('', #303, #304);
#303 = CARTESIAN_POINT('', (7., 0., -58.));
#304 = VECTOR('', #305, 7.);
#305 = DIRECTION('', (-7., 0., 0.));
#306 = CARTESIAN_POINT('', (7., 0., -58.));
#307 = CARTESIAN_POINT('', (-1.38777878078145E-17, 0., -58.));
#308 = TRIMMED_CURVE('cutting part line', #309, (#313), (#314), .T., .CARTESIAN.);
#309 = LINE('', #310, #311);
#310 = CARTESIAN_POINT('', (0., 0., -58.));
#311 = VECTOR('', #312, 25.);
#312 = DIRECTION('', (0., 0., -25.));
#313 = CARTESIAN_POINT('', (0., 0., -58.));
#314 = CARTESIAN_POINT('', (0., 0., -83.));
#315 = COMPOSITE_CURVE('cutting part line', (#316, #317, #318, #319, #320), .U.);
#316 = COMPOSITE_CURVE_SEGMENT(.CONTINUOUS., .T., #279);
#317 = COMPOSITE_CURVE_SEGMENT(.CONTINUOUS., .T., #286);
#318 = COMPOSITE_CURVE_SEGMENT(.CONTINUOUS., .T., #294);
#319 = COMPOSITE_CURVE_SEGMENT(.CONTINUOUS., .T., #301);
#320 = COMPOSITE_CURVE_SEGMENT(.CONTINUOUS., .T., #308);
#321 = GEOMETRIC_SET('', (#315, #364));
#322 = PRESENTATION_STYLE_ASSIGNMENT((#323));
#323 = CURVE_STYLE('', #325, POSITIVE_LENGTH_MEASURE(1.E-6), #324);
#324 = COLOUR_RGB('', 0., 0., 1.);
#325 = DRAUGHTING_PRE_DEFINED_CURVE_FONT('continuous');
#326 = STYLED_ITEM('', (#322), #315);
#327 = PRESENTATION_STYLE_ASSIGNMENT((#328));
#328 = CURVE_STYLE('', #330, POSITIVE_LENGTH_MEASURE(1.E-6), #329);
#329 = COLOUR_RGB('', 0., 0., 1.);
#330 = DRAUGHTING_PRE_DEFINED_CURVE_FONT('continuous');
#331 = OVER_RIDING_STYLED_ITEM('', (#327), #279, #326);
#332 = PRESENTATION_STYLE_ASSIGNMENT((#333));
#333 = CURVE_STYLE('', #335, POSITIVE_LENGTH_MEASURE(1.E-6), #334);
#334 = COLOUR_RGB('', 0., 0., 1.);
#335 = DRAUGHTING_PRE_DEFINED_CURVE_FONT('continuous');
#336 = OVER_RIDING_STYLED_ITEM('', (#332), #286, #326);
#337 = PRESENTATION_STYLE_ASSIGNMENT((#338));
#338 = CURVE_STYLE('', #340, POSITIVE_LENGTH_MEASURE(1.E-6), #339);
#339 = COLOUR_RGB('', 0., 0., 1.);
#340 = DRAUGHTING_PRE_DEFINED_CURVE_FONT('continuous');
#341 = OVER_RIDING_STYLED_ITEM('', (#337), #294, #326);
#342 = PRESENTATION_STYLE_ASSIGNMENT((#343));
#343 = CURVE_STYLE('', #345, POSITIVE_LENGTH_MEASURE(1.E-6), #344);
#344 = COLOUR_RGB('', 0., 0., 1.);
#345 = DRAUGHTING_PRE_DEFINED_CURVE_FONT('continuous');
#346 = OVER_RIDING_STYLED_ITEM('', (#342), #301, #326);
#347 = PRESENTATION_STYLE_ASSIGNMENT((#348));
#348 = CURVE_STYLE('', #350, POSITIVE_LENGTH_MEASURE(1.E-6), #349);
#349 = COLOUR_RGB('', 0., 0., 1.);
#350 = DRAUGHTING_PRE_DEFINED_CURVE_FONT('continuous');
#351 = OVER_RIDING_STYLED_ITEM('', (#347), #308, #326);
#352 = AXIS2_PLACEMENT_3D('MCS', #353, #354, #355);
#353 = CARTESIAN_POINT('', (0., 0., -45.));
#354 = DIRECTION('', (0., 0., 1.));
#355 = DIRECTION('', (1., 0., 0.));
#356 = AXIS2_PLACEMENT_3D('PCS', #357, #358, #359);
#357 = CARTESIAN_POINT('', (0., 0., 0.));
#358 = DIRECTION('', (0., 0., 1.));
#359 = DIRECTION('', (1., 0., 0.));
#360 = AXIS2_PLACEMENT_3D('CIP', #361, #362, #363);
#361 = CARTESIAN_POINT('', (0., 0., -83.));
#362 = DIRECTION('', (0., 0., 1.));
#363 = DIRECTION('', (1., 0., 0.));
#364 = CARTESIAN_POINT('CRP', (7., 0., -83.));
#365 = (
   GEOMETRIC_REPRESENTATION_CONTEXT (3)
   GLOBAL_UNCERTAINTY_ASSIGNED_CONTEXT ((#367))
   GLOBAL_UNIT_ASSIGNED_CONTEXT ((#366, #368, #369))
   REPRESENTATION_CONTEXT ('', '3D')
);
#366 = (
   LENGTH_UNIT ()
   NAMED_UNIT (*)
   SI_UNIT (.MILLI., .METRE.)
);
#367 = UNCERTAINTY_MEASURE_WITH_UNIT(LENGTH_MEASURE(1.E-6), #366, 'DISTANCE_ACCURACY_VALUE', '');
#368 = (
   NAMED_UNIT (*)
   SI_UNIT ($, .STERADIAN.)
   SOLID_ANGLE_UNIT ()
);
#369 = (
   NAMED_UNIT (*)
   PLANE_ANGLE_UNIT ()
   SI_UNIT ($, .RADIAN.)
);
#370 = SHAPE_REPRESENTATION('', (), #365);
#371 = PRODUCT_DEFINITION_SHAPE('', '', #372);
#372 = PRODUCT_DEFINITION('', '', #375, #379);
#373 = APPLICATION_CONTEXT('configuration controlled 3D designs of mechanical parts and assemblies');
#374 = APPLICATION_PROTOCOL_DEFINITION('International Standard', 'automotive_design', 2002, #373);
#375 = PRODUCT_DEFINITION_FORMATION_WITH_SPECIFIED_SOURCE('', '', #376, .NOT_KNOWN.);
#376 = PRODUCT('product-name', '2P232-1400-NA       H10F', '', (#377));
#377 = PRODUCT_CONTEXT('', #373, 'mechanical');
#378 = PRODUCT_RELATED_PRODUCT_CATEGORY('detail', '', (#376));
#379 = PRODUCT_DEFINITION_CONTEXT('part definition', #373, 'design');
#380 = SHAPE_DEFINITION_REPRESENTATION(#371, #370);
#381 = CONSTRUCTIVE_GEOMETRY_REPRESENTATION('supplemental geometry', (#352, #356, #360), #365);
#382 = CONSTRUCTIVE_GEOMETRY_REPRESENTATION_RELATIONSHIP('', '', #370, #381);
#383 = SHAPE_REPRESENTATION_RELATIONSHIP('', '', #370, #384);
#384 = SHAPE_REPRESENTATION('', (#321), #365);
#385 = SHAPE_REPRESENTATION_RELATIONSHIP('', '', #370, #386);
#386 = ADVANCED_BREP_SHAPE_REPRESENTATION('', (#1, #155), #365);
ENDSEC;
END-ISO-10303-21;
