ISO-10303-21;
HEADER;
FILE_DESCRIPTION(('STEP'), '1');
FILE_NAME('C:\\Users\\ds2002\\OneDrive - Sandvik\\HomeShare\\Documents\\Batchrepair\\CorSRT2\\NEW_MILSQ_SLD\\Output\\MOD000000000000000020082315000000.stp', '2019-01-02T12:06:26', (''), (''), 'Express v3.0.0.0', 'Express Tool', 'Unknown');
FILE_SCHEMA(('AUTOMOTIVE_DESIGN'));
ENDSEC;

DATA;
#1 = MANIFOLD_SOLID_BREP('NOCUT', #2);
#2 = CLOSED_SHELL('', (#3, #50, #89, #98, #137));
#3 = ADVANCED_FACE('', (#4), #31, .T.);
#4 = FACE_OUTER_BOUND('', #5, .T.);
#5 = EDGE_LOOP('', (#6, #16, #23, #24));
#6 = ORIENTED_EDGE('', *, *, #7, .T.);
#7 = EDGE_CURVE('', #8, #10, #12, .T.);
#8 = VERTEX_POINT('', #9);
#9 = CARTESIAN_POINT('', (-4., 2.44929359829471E-15, -36.));
#10 = VERTEX_POINT('', #11);
#11 = CARTESIAN_POINT('', (-4., 2.69422295812418E-16, -0.399999999999999));
#12 = LINE('', #13, #14);
#13 = CARTESIAN_POINT('', (-4., 2.44929359829471E-15, -36.));
#14 = VECTOR('', #15, 35.6);
#15 = DIRECTION('', (0., -2.17987130248229E-15, 35.6));
#16 = ORIENTED_EDGE('', *, *, #17, .T.);
#17 = EDGE_CURVE('', #10, #10, #18, .T.);
#18 = CIRCLE('', #19, 4.);
#19 = AXIS2_PLACEMENT_3D('', #20, #21, #22);
#20 = CARTESIAN_POINT('', (1.08246744900953E-15, -1.22124532708767E-15, -0.399999999999999));
#21 = DIRECTION('', (4.16333634234434E-17, 6.25420985093971E-18, -1.));
#22 = DIRECTION('', (-1., 3.72666905725022E-16, -4.16333634234434E-17));
#23 = ORIENTED_EDGE('', *, *, #7, .F.);
#24 = ORIENTED_EDGE('', *, *, #25, .F.);
#25 = EDGE_CURVE('', #8, #8, #26, .T.);
#26 = CIRCLE('', #27, 4.);
#27 = AXIS2_PLACEMENT_3D('', #28, #29, #30);
#28 = CARTESIAN_POINT('', (4.30211422042248E-16, -5.55111512312578E-16, -36.));
#29 = DIRECTION('', (0., 0., -1.));
#30 = DIRECTION('', (-1., 7.51101277651822E-16, 0.));
#31 = (
   BOUNDED_SURFACE ()
   B_SPLINE_SURFACE (1, 2, ((#32, #33, #34, #35, #36, #37, #38, #39, #40), (#41, #42, #43, #44, #45, #46, #47, #48, #49)), .UNSPECIFIED., .F., .T., .U.)
   B_SPLINE_SURFACE_WITH_KNOTS ((2, 2), (3, 2, 2, 2, 3), (0., 1.), (0., 6.28318530717957, 12.5663706143591, 18.8495559215387, 25.1327412287183), .UNSPECIFIED.)
   GEOMETRIC_REPRESENTATION_ITEM ()
   RATIONAL_B_SPLINE_SURFACE (((1., 0.707106781186548, 1., 0.707106781186548, 1., 0.707106781186548, 1., 0.707106781186548, 1.), (1., 0.707106781186548, 1., 0.707106781186548, 1., 0.707106781186548, 1., 0.707106781186548, 1.)))
   REPRESENTATION_ITEM ('')
   SURFACE ()
);
#32 = CARTESIAN_POINT('', (-4., 8.24533808124995E-16, -36.));
#33 = CARTESIAN_POINT('', (-4., 4., -36.));
#34 = CARTESIAN_POINT('', (3.81035344995473E-15, 4., -36.));
#35 = CARTESIAN_POINT('', (4., 4., -36.));
#36 = CARTESIAN_POINT('', (4., -1.66694271801624E-15, -36.));
#37 = CARTESIAN_POINT('', (4., -4., -36.));
#38 = CARTESIAN_POINT('', (1.80873564347243E-15, -4., -36.));
#39 = CARTESIAN_POINT('', (-4., -4., -36.));
#40 = CARTESIAN_POINT('', (-4., 8.24533808124995E-16, -36.));
#41 = CARTESIAN_POINT('', (-4., 2.69422295812418E-16, -0.399999999999999));
#42 = CARTESIAN_POINT('', (-4., 4., -0.399999999999999));
#43 = CARTESIAN_POINT('', (2.32820571208015E-15, 4., -0.399999999999999));
#44 = CARTESIAN_POINT('', (4., 4., -0.399999999999999));
#45 = CARTESIAN_POINT('', (4., -2.22205423032882E-15, -0.399999999999999));
#46 = CARTESIAN_POINT('', (4., -4., -0.399999999999999));
#47 = CARTESIAN_POINT('', (3.2658790559785E-16, -4., -0.399999999999999));
#48 = CARTESIAN_POINT('', (-4., -4., -0.399999999999999));
#49 = CARTESIAN_POINT('', (-4., 2.69422295812418E-16, -0.399999999999999));
#50 = ADVANCED_FACE('', (#51), #70, .T.);
#51 = FACE_OUTER_BOUND('', #52, .T.);
#52 = EDGE_LOOP('', (#53, #61, #68, #69));
#53 = ORIENTED_EDGE('', *, *, #54, .T.);
#54 = EDGE_CURVE('', #10, #55, #57, .T.);
#55 = VERTEX_POINT('', #56);
#56 = CARTESIAN_POINT('', (-3.6, 2.20436423846524E-16, 0.));
#57 = LINE('', #58, #59);
#58 = CARTESIAN_POINT('', (-4., 2.69422295812418E-16, -0.399999999999999));
#59 = VECTOR('', #60, 0.565685424949237);
#60 = DIRECTION('', (0.4, -4.8985871965894E-17, 0.399999999999999));
#61 = ORIENTED_EDGE('', *, *, #62, .T.);
#62 = EDGE_CURVE('', #55, #55, #63, .T.);
#63 = CIRCLE('', #64, 3.6);
#64 = AXIS2_PLACEMENT_3D('', #65, #66, #67);
#65 = CARTESIAN_POINT('', (-4.16333634234434E-17, -3.33066907387547E-16, -1.84889274661175E-32));
#66 = DIRECTION('', (4.27871574431742E-33, 6.12323399573678E-17, -1.));
#67 = DIRECTION('', (-1., 1.53750925342797E-16, 5.13581318503263E-33));
#68 = ORIENTED_EDGE('', *, *, #54, .F.);
#69 = ORIENTED_EDGE('', *, *, #17, .F.);
#70 = (
   BOUNDED_SURFACE ()
   B_SPLINE_SURFACE (1, 2, ((#71, #72, #73, #74, #75, #76, #77, #78, #79), (#80, #81, #82, #83, #84, #85, #86, #87, #88)), .UNSPECIFIED., .F., .T., .U.)
   B_SPLINE_SURFACE_WITH_KNOTS ((2, 2), (3, 2, 2, 2, 3), (0., 1.), (0., 0.25, 0.5, 0.75, 1.), .UNSPECIFIED.)
   GEOMETRIC_REPRESENTATION_ITEM ()
   RATIONAL_B_SPLINE_SURFACE (((1., 0.707106781186548, 1., 0.707106781186548, 1., 0.707106781186548, 1., 0.707106781186548, 1.), (1., 0.707106781186548, 1., 0.707106781186548, 1., 0.707106781186548, 1., 0.707106781186548, 1.)))
   REPRESENTATION_ITEM ('')
   SURFACE ()
);
#71 = CARTESIAN_POINT('', (-4., -2.04953155772919E-15, -0.399999999999999));
#72 = CARTESIAN_POINT('', (-4., 4., -0.400000000000022));
#73 = CARTESIAN_POINT('', (3.28440978118275E-16, 4., -0.400000000000022));
#74 = CARTESIAN_POINT('', (4., 4., -0.400000000000022));
#75 = CARTESIAN_POINT('', (4., -2.78968024081262E-15, -0.399999999999999));
#76 = CARTESIAN_POINT('', (4., -4., -0.399999999999976));
#77 = CARTESIAN_POINT('', (7.81510146937783E-17, -4., -0.399999999999976));
#78 = CARTESIAN_POINT('', (-4., -4., -0.399999999999976));
#79 = CARTESIAN_POINT('', (-4., -2.04953155772919E-15, -0.399999999999999));
#80 = CARTESIAN_POINT('', (-3.6, 2.20436423846524E-16, 0.));
#81 = CARTESIAN_POINT('', (-3.6, 3.6, -2.09832151654155E-14));
#82 = CARTESIAN_POINT('', (2.91433543964104E-16, 3.6, -2.09832151654155E-14));
#83 = CARTESIAN_POINT('', (3.6, 3.6, -2.09832151654155E-14));
#84 = CARTESIAN_POINT('', (3.6, -4.45697390928571E-16, -2.60668058374687E-30));
#85 = CARTESIAN_POINT('', (3.6, -3.6, 2.09832151654155E-14));
#86 = CARTESIAN_POINT('', (6.61725768820564E-17, -3.6, 2.09832151654155E-14));
#87 = CARTESIAN_POINT('', (-3.6, -3.6, 2.09832151654155E-14));
#88 = CARTESIAN_POINT('', (-3.6, 2.20436423846524E-16, 0.));
#89 = ADVANCED_FACE('', (#90), #93, .T.);
#90 = FACE_OUTER_BOUND('', #91, .T.);
#91 = EDGE_LOOP('', (#92));
#92 = ORIENTED_EDGE('', *, *, #62, .F.);
#93 = B_SPLINE_SURFACE_WITH_KNOTS('', 1, 1, ((#94, #95), (#96, #97)), .UNSPECIFIED., .F., .F., .U., (2, 2), (2, 2), (0.0454545454545454, 0.954545454545455), (0.0454545454545454, 0.954545454545454), .UNSPECIFIED.);
#94 = CARTESIAN_POINT('', (3.6, -3.6, -2.20436423846524E-16));
#95 = CARTESIAN_POINT('', (-3.6, -3.6, -2.20436423846524E-16));
#96 = CARTESIAN_POINT('', (3.6, 3.6, 2.20436423846524E-16));
#97 = CARTESIAN_POINT('', (-3.6, 3.6, 2.20436423846524E-16));
#98 = ADVANCED_FACE('', (#99), #118, .T.);
#99 = FACE_OUTER_BOUND('', #100, .T.);
#100 = EDGE_LOOP('', (#101, #110, #116, #117));
#101 = ORIENTED_EDGE('', *, *, #102, .F.);
#102 = EDGE_CURVE('', #103, #103, #105, .T.);
#103 = VERTEX_POINT('', #104);
#104 = CARTESIAN_POINT('', (-4., 3.00038465791102E-15, -45.));
#105 = CIRCLE('', #106, 4.);
#106 = AXIS2_PLACEMENT_3D('', #107, #108, #109);
#107 = CARTESIAN_POINT('', (5.13478148889135E-16, 9.99200722162641E-16, -45.));
#108 = DIRECTION('', (0., 0., -1.));
#109 = DIRECTION('', (-1., 5.00295983937095E-16, 0.));
#110 = ORIENTED_EDGE('', *, *, #111, .F.);
#111 = EDGE_CURVE('', #8, #103, #112, .T.);
#112 = LINE('', #113, #114);
#113 = CARTESIAN_POINT('', (-4., 2.44929359829471E-15, -36.));
#114 = VECTOR('', #115, 9.);
#115 = DIRECTION('', (0., 5.5109105961631E-16, -9.));
#116 = ORIENTED_EDGE('', *, *, #25, .T.);
#117 = ORIENTED_EDGE('', *, *, #111, .T.);
#118 = (
   BOUNDED_SURFACE ()
   B_SPLINE_SURFACE (2, 1, ((#119, #120), (#121, #122), (#123, #124), (#125, #126), (#127, #128), (#129, #130), (#131, #132), (#133, #134), (#135, #136)), .UNSPECIFIED., .T., .F., .U.)
   B_SPLINE_SURFACE_WITH_KNOTS ((3, 2, 2, 2, 3), (2, 2), (0., 6.28318530717957, 12.5663706143591, 18.8495559215387, 25.1327412287183), (0., 0.335195530726257), .UNSPECIFIED.)
   GEOMETRIC_REPRESENTATION_ITEM ()
   RATIONAL_B_SPLINE_SURFACE (((1., 1.), (0.707106781186548, 0.707106781186548), (1., 1.), (0.707106781186548, 0.707106781186548), (1., 1.), (0.707106781186548, 0.707106781186548), (1., 1.), (0.707106781186548, 0.707106781186548), (1., 1.)))
   REPRESENTATION_ITEM ('')
   SURFACE ()
);
#119 = CARTESIAN_POINT('', (-4., 2.44929359829471E-15, -36.));
#120 = CARTESIAN_POINT('', (-4., 3.00440511060729E-15, -45.));
#121 = CARTESIAN_POINT('', (-4., 4., -36.));
#122 = CARTESIAN_POINT('', (-4., 4., -45.));
#123 = CARTESIAN_POINT('', (4.10562116813582E-15, 4., -36.));
#124 = CARTESIAN_POINT('', (4.10562116813582E-15, 4., -45.));
#125 = CARTESIAN_POINT('', (4., 4., -36.));
#126 = CARTESIAN_POINT('', (4., 4., -45.));
#127 = CARTESIAN_POINT('', (4., -3.29170250818596E-15, -36.));
#128 = CARTESIAN_POINT('', (4., -2.73659099587338E-15, -45.));
#129 = CARTESIAN_POINT('', (4., -4., -36.));
#130 = CARTESIAN_POINT('', (4., -4., -45.));
#131 = CARTESIAN_POINT('', (-1.1455162186859E-15, -4., -36.));
#132 = CARTESIAN_POINT('', (-1.1455162186859E-15, -4., -45.));
#133 = CARTESIAN_POINT('', (-4., -4., -36.));
#134 = CARTESIAN_POINT('', (-4., -4., -45.));
#135 = CARTESIAN_POINT('', (-4., 2.44929359829471E-15, -36.));
#136 = CARTESIAN_POINT('', (-4., 3.00440511060729E-15, -45.));
#137 = ADVANCED_FACE('', (#138), #141, .T.);
#138 = FACE_OUTER_BOUND('', #139, .T.);
#139 = EDGE_LOOP('', (#140));
#140 = ORIENTED_EDGE('', *, *, #102, .T.);
#141 = B_SPLINE_SURFACE_WITH_KNOTS('', 1, 1, ((#142, #143), (#144, #145)), .UNSPECIFIED., .F., .F., .U., (2, 2), (2, 2), (0.482145043793329, 0.544637410975486), (0.455362589024514, 0.517854956206671), .UNSPECIFIED.);
#142 = CARTESIAN_POINT('', (-4.00000000000001, 4.00000000000002, -45.));
#143 = CARTESIAN_POINT('', (-4.00000000000001, -3.99999999999999, -45.));
#144 = CARTESIAN_POINT('', (3.99999999999999, 4.00000000000002, -45.));
#145 = CARTESIAN_POINT('', (3.99999999999999, -3.99999999999999, -45.));
#146 = DRAUGHTING_MODEL('', (#154, #278, #326, #331, #336, #341, #346, #351), #365);
#147 = PRESENTATION_STYLE_ASSIGNMENT((#148));
#148 = SURFACE_STYLE_USAGE(.POSITIVE., #149);
#149 = SURFACE_SIDE_STYLE('', (#150));
#150 = SURFACE_STYLE_FILL_AREA(#151);
#151 = FILL_AREA_STYLE('', (#152));
#152 = FILL_AREA_STYLE_COLOUR('', #153);
#153 = COLOUR_RGB('', 0.50196078431373, 0.50196078431373, 0.50196078431373);
#154 = STYLED_ITEM('', (#147), #1);
#155 = MANIFOLD_SOLID_BREP('CUT', #156);
#156 = CLOSED_SHELL('', (#157, #174, #213, #262));
#157 = ADVANCED_FACE('', (#158), #169, .T.);
#158 = FACE_OUTER_BOUND('', #159, .T.);
#159 = EDGE_LOOP('', (#160));
#160 = ORIENTED_EDGE('', *, *, #161, .F.);
#161 = EDGE_CURVE('', #162, #162, #164, .T.);
#162 = VERTEX_POINT('', #163);
#163 = CARTESIAN_POINT('', (-4., 3.00038465791102E-15, -45.));
#164 = CIRCLE('', #165, 4.);
#165 = AXIS2_PLACEMENT_3D('', #166, #167, #168);
#166 = CARTESIAN_POINT('', (5.13478148889135E-16, 9.99200722162641E-16, -45.));
#167 = DIRECTION('', (0., 0., -1.));
#168 = DIRECTION('', (-1., 5.00295983937095E-16, 0.));
#169 = B_SPLINE_SURFACE_WITH_KNOTS('', 1, 1, ((#170, #171), (#172, #173)), .UNSPECIFIED., .F., .F., .U., (2, 2), (2, 2), (0.455362589024514, 0.517854956206671), (0.482145043793329, 0.544637410975486), .UNSPECIFIED.);
#170 = CARTESIAN_POINT('', (-3.99999999999999, 4., -45.));
#171 = CARTESIAN_POINT('', (4., 4., -45.));
#172 = CARTESIAN_POINT('', (-3.99999999999999, -4.00000000000001, -45.));
#173 = CARTESIAN_POINT('', (4., -4.00000000000001, -45.));
#174 = ADVANCED_FACE('', (#175), #194, .T.);
#175 = FACE_OUTER_BOUND('', #176, .T.);
#176 = EDGE_LOOP('', (#177, #178, #186, #193));
#177 = ORIENTED_EDGE('', *, *, #161, .T.);
#178 = ORIENTED_EDGE('', *, *, #179, .T.);
#179 = EDGE_CURVE('', #162, #180, #182, .T.);
#180 = VERTEX_POINT('', #181);
#181 = CARTESIAN_POINT('', (-4., 4.09338192615003E-15, -62.85));
#182 = LINE('', #183, #184);
#183 = CARTESIAN_POINT('', (-4., 3.00038465791102E-15, -45.));
#184 = VECTOR('', #185, 17.85);
#185 = DIRECTION('', (0., 1.09299726823901E-15, -17.85));
#186 = ORIENTED_EDGE('', *, *, #187, .F.);
#187 = EDGE_CURVE('', #180, #180, #188, .T.);
#188 = CIRCLE('', #189, 4.);
#189 = AXIS2_PLACEMENT_3D('', #190, #191, #192);
#190 = CARTESIAN_POINT('', (1.16573417585641E-15, 9.99200722162641E-16, -62.85));
#191 = DIRECTION('', (-1.77635683940025E-15, 5.77905114400124E-15, -1.));
#192 = DIRECTION('', (-1., 7.73545300996847E-16, 1.77635683940025E-15));
#193 = ORIENTED_EDGE('', *, *, #179, .F.);
#194 = (
   BOUNDED_SURFACE ()
   B_SPLINE_SURFACE (2, 1, ((#195, #196), (#197, #198), (#199, #200), (#201, #202), (#203, #204), (#205, #206), (#207, #208), (#209, #210), (#211, #212)), .UNSPECIFIED., .T., .F., .U.)
   B_SPLINE_SURFACE_WITH_KNOTS ((3, 2, 2, 2, 3), (2, 2), (0., 6.28318530717958, 12.5663706143592, 18.8495559215387, 25.1327412287183), (0.335195530726257, 1.), .UNSPECIFIED.)
   GEOMETRIC_REPRESENTATION_ITEM ()
   RATIONAL_B_SPLINE_SURFACE (((1., 1.), (0.707106781186548, 0.707106781186548), (1., 1.), (0.707106781186548, 0.707106781186548), (1., 1.), (0.707106781186548, 0.707106781186548), (1., 1.), (0.707106781186548, 0.707106781186548), (1., 1.)))
   REPRESENTATION_ITEM ('')
   SURFACE ()
);
#195 = CARTESIAN_POINT('', (-4., 3.00038465791102E-15, -45.));
#196 = CARTESIAN_POINT('', (-4., 4.11060768253618E-15, -62.85));
#197 = CARTESIAN_POINT('', (-4., 4., -45.));
#198 = CARTESIAN_POINT('', (-4., 4., -62.85));
#199 = CARTESIAN_POINT('', (4.05996735201611E-15, 4., -45.));
#200 = CARTESIAN_POINT('', (4.05996735201611E-15, 4., -62.85));
#201 = CARTESIAN_POINT('', (4., 4., -45.));
#202 = CARTESIAN_POINT('', (4., 4., -62.85));
#203 = CARTESIAN_POINT('', (4., -2.73257054317711E-15, -45.));
#204 = CARTESIAN_POINT('', (4., -1.62234751855195E-15, -62.85));
#205 = CARTESIAN_POINT('', (4., -4., -45.));
#206 = CARTESIAN_POINT('', (4., -4., -62.85));
#207 = CARTESIAN_POINT('', (-1.18312912941308E-15, -4., -45.));
#208 = CARTESIAN_POINT('', (-1.18312912941308E-15, -4., -62.85));
#209 = CARTESIAN_POINT('', (-4., -4., -45.));
#210 = CARTESIAN_POINT('', (-4., -4., -62.85));
#211 = CARTESIAN_POINT('', (-4., 3.00038465791102E-15, -45.));
#212 = CARTESIAN_POINT('', (-4., 4.11060768253618E-15, -62.85));
#213 = ADVANCED_FACE('', (#214), #234, .T.);
#214 = FACE_OUTER_BOUND('', #215, .T.);
#215 = EDGE_LOOP('', (#216, #225, #226, #227));
#216 = ORIENTED_EDGE('', *, *, #217, .F.);
#217 = EDGE_CURVE('', #180, #218, #220, .T.);
#218 = VERTEX_POINT('', #219);
#219 = CARTESIAN_POINT('', (-3.85, 4.09338192615003E-15, -63.));
#220 = CIRCLE('', #221, 0.149999999999987);
#221 = AXIS2_PLACEMENT_3D('', #222, #223, #224);
#222 = CARTESIAN_POINT('', (-3.85000000000002, 4.08419707515643E-15, -62.85));
#223 = DIRECTION('', (-6.12323399573432E-17, -1., -6.12323399573402E-17));
#224 = DIRECTION('', (-1., 6.12323399573403E-17, 4.73695157173449E-14));
#225 = ORIENTED_EDGE('', *, *, #187, .T.);
#226 = ORIENTED_EDGE('', *, *, #217, .T.);
#227 = ORIENTED_EDGE('', *, *, #228, .F.);
#228 = EDGE_CURVE('', #218, #218, #229, .T.);
#229 = CIRCLE('', #230, 3.85);
#230 = AXIS2_PLACEMENT_3D('', #231, #232, #233);
#231 = CARTESIAN_POINT('', (-4.9960036108132E-16, 5.55111512312578E-16, -63.));
#232 = DIRECTION('', (0., 0., -1.));
#233 = DIRECTION('', (-1., 9.19031276321416E-16, 0.));
#234 = (
   BOUNDED_SURFACE ()
   B_SPLINE_SURFACE (2, 2, ((#235, #236, #237), (#238, #239, #240), (#241, #242, #243), (#244, #245, #246), (#247, #248, #249), (#250, #251, #252), (#253, #254, #255), (#256, #257, #258), (#259, #260, #261)), .UNSPECIFIED., .T., .F., .U.)
   B_SPLINE_SURFACE_WITH_KNOTS ((3, 2, 2, 2, 3), (3, 3), (0., 0.25, 0.5, 0.75, 1.), (0., 1.), .UNSPECIFIED.)
   GEOMETRIC_REPRESENTATION_ITEM ()
   RATIONAL_B_SPLINE_SURFACE (((1., 0.707106781186547, 1.), (0.707106781186548, 0.5, 0.707106781186548), (1., 0.707106781186547, 1.), (0.707106781186548, 0.5, 0.707106781186548), (1., 0.707106781186547, 1.), (0.707106781186548, 0.5, 0.707106781186548), (1., 0.707106781186547, 1.), (0.707106781186548, 0.5, 0.707106781186548), (1., 0.707106781186547, 1.)))
   REPRESENTATION_ITEM ('')
   SURFACE ()
);
#235 = CARTESIAN_POINT('', (-4., 4.09338192615003E-15, -62.85));
#236 = CARTESIAN_POINT('', (-4., 4.10256677714363E-15, -63.));
#237 = CARTESIAN_POINT('', (-3.85, 4.09338192615003E-15, -63.));
#238 = CARTESIAN_POINT('', (-4., 4., -62.85));
#239 = CARTESIAN_POINT('', (-4., 4., -63.));
#240 = CARTESIAN_POINT('', (-3.85, 3.85, -63.));
#241 = CARTESIAN_POINT('', (1.57249536583899E-15, 4., -62.85));
#242 = CARTESIAN_POINT('', (1.58168021683259E-15, 4., -63.));
#243 = CARTESIAN_POINT('', (1.58168021683259E-15, 3.85, -63.));
#244 = CARTESIAN_POINT('', (4., 4., -62.85));
#245 = CARTESIAN_POINT('', (4., 4., -63.));
#246 = CARTESIAN_POINT('', (3.85, 3.85, -63.));
#247 = CARTESIAN_POINT('', (4., 1.2814581018596E-15, -62.85));
#248 = CARTESIAN_POINT('', (4., 1.272273250866E-15, -63.));
#249 = CARTESIAN_POINT('', (3.85, 1.26308839987239E-15, -63.));
#250 = CARTESIAN_POINT('', (4., -4., -62.85));
#251 = CARTESIAN_POINT('', (4., -4., -63.));
#252 = CARTESIAN_POINT('', (3.85, -3.85, -63.));
#253 = CARTESIAN_POINT('', (-7.495697387925E-16, -4., -62.85));
#254 = CARTESIAN_POINT('', (-7.587545897861E-16, -4., -63.));
#255 = CARTESIAN_POINT('', (-7.77124291773315E-16, -3.85, -63.));
#256 = CARTESIAN_POINT('', (-4., -4., -62.85));
#257 = CARTESIAN_POINT('', (-4., -4., -63.));
#258 = CARTESIAN_POINT('', (-3.85, -3.85, -63.));
#259 = CARTESIAN_POINT('', (-4., 4.09338192615003E-15, -62.85));
#260 = CARTESIAN_POINT('', (-4., 4.10256677714363E-15, -63.));
#261 = CARTESIAN_POINT('', (-3.85, 4.09338192615003E-15, -63.));
#262 = ADVANCED_FACE('', (#263), #266, .T.);
#263 = FACE_OUTER_BOUND('', #264, .T.);
#264 = EDGE_LOOP('', (#265));
#265 = ORIENTED_EDGE('', *, *, #228, .T.);
#266 = B_SPLINE_SURFACE_WITH_KNOTS('', 1, 1, ((#267, #268), (#269, #270)), .UNSPECIFIED., .F., .F., .U., (2, 2), (2, 2), (0.0454545454545455, 0.954545454545455), (0.0454545454545455, 0.954545454545455), .UNSPECIFIED.);
#267 = CARTESIAN_POINT('', (3.85, -3.85, -63.));
#268 = CARTESIAN_POINT('', (3.85, 3.85, -63.));
#269 = CARTESIAN_POINT('', (-3.85, -3.85, -63.));
#270 = CARTESIAN_POINT('', (-3.85, 3.85, -63.));
#271 = PRESENTATION_STYLE_ASSIGNMENT((#272));
#272 = SURFACE_STYLE_USAGE(.POSITIVE., #273);
#273 = SURFACE_SIDE_STYLE('', (#274));
#274 = SURFACE_STYLE_FILL_AREA(#275);
#275 = FILL_AREA_STYLE('', (#276));
#276 = FILL_AREA_STYLE_COLOUR('', #277);
#277 = COLOUR_RGB('', 0.8, 0.8, 0.8);
#278 = STYLED_ITEM('', (#271), #155);
#279 = TRIMMED_CURVE('cutting part line', #280, (#284), (#285), .T., .CARTESIAN.);
#280 = LINE('', #281, #282);
#281 = CARTESIAN_POINT('', (2.77555756156289E-17, 0., -63.));
#282 = VECTOR('', #283, 3.85);
#283 = DIRECTION('', (3.85, 0., 0.));
#284 = CARTESIAN_POINT('', (2.77555756156289E-17, 0., -63.));
#285 = CARTESIAN_POINT('', (3.85, 0., -63.));
#286 = TRIMMED_CURVE('cutting part line', #287, (#292), (#293), .T., .CARTESIAN.);
#287 = CIRCLE('', #288, 0.149999999999991);
#288 = AXIS2_PLACEMENT_3D('', #289, #290, #291);
#289 = CARTESIAN_POINT('', (3.85000000000001, 2.04256921411089E-15, -62.85));
#290 = DIRECTION('', (1.8503717077087E-16, -1., 9.2518585385414E-17));
#291 = DIRECTION('', (-5.62512999143445E-14, -9.25185853854245E-17, -1.));
#292 = CARTESIAN_POINT('', (3.85, 2.02869142630308E-15, -63.));
#293 = CARTESIAN_POINT('', (4., 2.07032478972652E-15, -62.85));
#294 = TRIMMED_CURVE('cutting part line', #295, (#299), (#300), .T., .CARTESIAN.);
#295 = LINE('', #296, #297);
#296 = CARTESIAN_POINT('', (4., 1.11005393228102E-15, -62.85));
#297 = VECTOR('', #298, 17.85);
#298 = DIRECTION('', (0., -1.11005393228102E-15, 17.85));
#299 = CARTESIAN_POINT('', (4., 1.11005393228102E-15, -62.85));
#300 = CARTESIAN_POINT('', (4., 0., -45.));
#301 = TRIMMED_CURVE('cutting part line', #302, (#306), (#307), .T., .CARTESIAN.);
#302 = LINE('', #303, #304);
#303 = CARTESIAN_POINT('', (4., 0., -45.));
#304 = VECTOR('', #305, 4.);
#305 = DIRECTION('', (-4., 0., 0.));
#306 = CARTESIAN_POINT('', (4., 0., -45.));
#307 = CARTESIAN_POINT('', (-1.38777878078145E-17, 0., -45.));
#308 = TRIMMED_CURVE('cutting part line', #309, (#313), (#314), .T., .CARTESIAN.);
#309 = LINE('', #310, #311);
#310 = CARTESIAN_POINT('', (0., 0., -45.));
#311 = VECTOR('', #312, 18.);
#312 = DIRECTION('', (0., 0., -18.));
#313 = CARTESIAN_POINT('', (0., 0., -45.));
#314 = CARTESIAN_POINT('', (0., 0., -63.));
#315 = COMPOSITE_CURVE('cutting part line', (#316, #317, #318, #319, #320), .U.);
#316 = COMPOSITE_CURVE_SEGMENT(.CONTINUOUS., .T., #279);
#317 = COMPOSITE_CURVE_SEGMENT(.CONTINUOUS., .T., #286);
#318 = COMPOSITE_CURVE_SEGMENT(.CONTINUOUS., .T., #294);
#319 = COMPOSITE_CURVE_SEGMENT(.CONTINUOUS., .T., #301);
#320 = COMPOSITE_CURVE_SEGMENT(.CONTINUOUS., .T., #308);
#321 = GEOMETRIC_SET('', (#315, #364));
#322 = PRESENTATION_STYLE_ASSIGNMENT((#323));
#323 = CURVE_STYLE('', #325, POSITIVE_LENGTH_MEASURE(1.E-6), #324);
#324 = COLOUR_RGB('', 0., 0., 1.);
#325 = DRAUGHTING_PRE_DEFINED_CURVE_FONT('continuous');
#326 = STYLED_ITEM('', (#322), #315);
#327 = PRESENTATION_STYLE_ASSIGNMENT((#328));
#328 = CURVE_STYLE('', #330, POSITIVE_LENGTH_MEASURE(1.E-6), #329);
#329 = COLOUR_RGB('', 0., 0., 1.);
#330 = DRAUGHTING_PRE_DEFINED_CURVE_FONT('continuous');
#331 = OVER_RIDING_STYLED_ITEM('', (#327), #279, #326);
#332 = PRESENTATION_STYLE_ASSIGNMENT((#333));
#333 = CURVE_STYLE('', #335, POSITIVE_LENGTH_MEASURE(1.E-6), #334);
#334 = COLOUR_RGB('', 0., 0., 1.);
#335 = DRAUGHTING_PRE_DEFINED_CURVE_FONT('continuous');
#336 = OVER_RIDING_STYLED_ITEM('', (#332), #286, #326);
#337 = PRESENTATION_STYLE_ASSIGNMENT((#338));
#338 = CURVE_STYLE('', #340, POSITIVE_LENGTH_MEASURE(1.E-6), #339);
#339 = COLOUR_RGB('', 0., 0., 1.);
#340 = DRAUGHTING_PRE_DEFINED_CURVE_FONT('continuous');
#341 = OVER_RIDING_STYLED_ITEM('', (#337), #294, #326);
#342 = PRESENTATION_STYLE_ASSIGNMENT((#343));
#343 = CURVE_STYLE('', #345, POSITIVE_LENGTH_MEASURE(1.E-6), #344);
#344 = COLOUR_RGB('', 0., 0., 1.);
#345 = DRAUGHTING_PRE_DEFINED_CURVE_FONT('continuous');
#346 = OVER_RIDING_STYLED_ITEM('', (#342), #301, #326);
#347 = PRESENTATION_STYLE_ASSIGNMENT((#348));
#348 = CURVE_STYLE('', #350, POSITIVE_LENGTH_MEASURE(1.E-6), #349);
#349 = COLOUR_RGB('', 0., 0., 1.);
#350 = DRAUGHTING_PRE_DEFINED_CURVE_FONT('continuous');
#351 = OVER_RIDING_STYLED_ITEM('', (#347), #308, #326);
#352 = AXIS2_PLACEMENT_3D('MCS', #353, #354, #355);
#353 = CARTESIAN_POINT('', (0., 0., -36.));
#354 = DIRECTION('', (0., 0., 1.));
#355 = DIRECTION('', (1., 0., 0.));
#356 = AXIS2_PLACEMENT_3D('PCS', #357, #358, #359);
#357 = CARTESIAN_POINT('', (0., 0., 0.));
#358 = DIRECTION('', (0., 0., 1.));
#359 = DIRECTION('', (1., 0., 0.));
#360 = AXIS2_PLACEMENT_3D('CIP', #361, #362, #363);
#361 = CARTESIAN_POINT('', (0., 0., -63.));
#362 = DIRECTION('', (0., 0., 1.));
#363 = DIRECTION('', (1., 0., 0.));
#364 = CARTESIAN_POINT('CRP', (4., 0., -63.));
#365 = (
   GEOMETRIC_REPRESENTATION_CONTEXT (3)
   GLOBAL_UNCERTAINTY_ASSIGNED_CONTEXT ((#367))
   GLOBAL_UNIT_ASSIGNED_CONTEXT ((#366, #368, #369))
   REPRESENTATION_CONTEXT ('', '3D')
);
#366 = (
   LENGTH_UNIT ()
   NAMED_UNIT (*)
   SI_UNIT (.MILLI., .METRE.)
);
#367 = UNCERTAINTY_MEASURE_WITH_UNIT(LENGTH_MEASURE(1.E-6), #366, 'DISTANCE_ACCURACY_VALUE', '');
#368 = (
   NAMED_UNIT (*)
   SI_UNIT ($, .STERADIAN.)
   SOLID_ANGLE_UNIT ()
);
#369 = (
   NAMED_UNIT (*)
   PLANE_ANGLE_UNIT ()
   SI_UNIT ($, .RADIAN.)
);
#370 = SHAPE_REPRESENTATION('', (), #365);
#371 = PRODUCT_DEFINITION_SHAPE('', '', #372);
#372 = PRODUCT_DEFINITION('', '', #375, #379);
#373 = APPLICATION_CONTEXT('configuration controlled 3D designs of mechanical parts and assemblies');
#374 = APPLICATION_PROTOCOL_DEFINITION('International Standard', 'automotive_design', 2002, #373);
#375 = PRODUCT_DEFINITION_FORMATION_WITH_SPECIFIED_SOURCE('', '', #376, .NOT_KNOWN.);
#376 = PRODUCT('product-name', '2P232-0800-NA       H10F', '', (#377));
#377 = PRODUCT_CONTEXT('', #373, 'mechanical');
#378 = PRODUCT_RELATED_PRODUCT_CATEGORY('detail', '', (#376));
#379 = PRODUCT_DEFINITION_CONTEXT('part definition', #373, 'design');
#380 = SHAPE_DEFINITION_REPRESENTATION(#371, #370);
#381 = CONSTRUCTIVE_GEOMETRY_REPRESENTATION('supplemental geometry', (#352, #356, #360), #365);
#382 = CONSTRUCTIVE_GEOMETRY_REPRESENTATION_RELATIONSHIP('', '', #370, #381);
#383 = SHAPE_REPRESENTATION_RELATIONSHIP('', '', #370, #384);
#384 = SHAPE_REPRESENTATION('', (#321), #365);
#385 = SHAPE_REPRESENTATION_RELATIONSHIP('', '', #370, #386);
#386 = ADVANCED_BREP_SHAPE_REPRESENTATION('', (#1, #155), #365);
ENDSEC;
END-ISO-10303-21;
