ISO-10303-21;
HEADER;
FILE_DESCRIPTION(('STEP'), '1');
FILE_NAME('C:\\Users\\ds2002\\OneDrive - Sandvik\\HomeShare\\Documents\\Batchrepair\\CorSRT2\\NEW_MILSQ_SLD\\Output\\MOD000000000000000020082314900000.stp', '2019-01-02T12:06:24', (''), (''), 'Express v3.0.0.0', 'Express Tool', 'Unknown');
FILE_SCHEMA(('AUTOMOTIVE_DESIGN'));
ENDSEC;

DATA;
#1 = MANIFOLD_SOLID_BREP('NOCUT', #2);
#2 = CLOSED_SHELL('', (#3, #50, #89, #98, #137));
#3 = ADVANCED_FACE('', (#4), #31, .T.);
#4 = FACE_OUTER_BOUND('', #5, .T.);
#5 = EDGE_LOOP('', (#6, #16, #23, #24));
#6 = ORIENTED_EDGE('', *, *, #7, .T.);
#7 = EDGE_CURVE('', #8, #10, #12, .T.);
#8 = VERTEX_POINT('', #9);
#9 = CARTESIAN_POINT('', (-3.5, 2.41867742831602E-15, -36.));
#10 = VERTEX_POINT('', #11);
#11 = CARTESIAN_POINT('', (-3.5, 2.35744508835866E-16, -0.350000000000001));
#12 = LINE('', #13, #14);
#13 = CARTESIAN_POINT('', (-3.5, 2.41867742831602E-15, -36.));
#14 = VECTOR('', #15, 35.65);
#15 = DIRECTION('', (0., -2.18293291948015E-15, 35.65));
#16 = ORIENTED_EDGE('', *, *, #17, .T.);
#17 = EDGE_CURVE('', #10, #10, #18, .T.);
#18 = CIRCLE('', #19, 3.5);
#19 = AXIS2_PLACEMENT_3D('', #20, #21, #22);
#20 = CARTESIAN_POINT('', (5.55111512312578E-16, -8.88178419700125E-16, -0.350000000000001));
#21 = DIRECTION('', (-4.75809867696495E-17, 2.62758466910306E-16, -1.));
#22 = DIRECTION('', (-1., 3.21120836724569E-16, 4.75809867696496E-17));
#23 = ORIENTED_EDGE('', *, *, #7, .F.);
#24 = ORIENTED_EDGE('', *, *, #25, .F.);
#25 = EDGE_CURVE('', #8, #8, #26, .T.);
#26 = CIRCLE('', #27, 3.5);
#27 = AXIS2_PLACEMENT_3D('', #28, #29, #30);
#28 = CARTESIAN_POINT('', (-6.93889390390723E-17, 3.33066907387547E-16, -36.));
#29 = DIRECTION('', (0., 0., -1.));
#30 = DIRECTION('', (-1., 5.95888720265278E-16, 0.));
#31 = (
   BOUNDED_SURFACE ()
   B_SPLINE_SURFACE (1, 2, ((#32, #33, #34, #35, #36, #37, #38, #39, #40), (#41, #42, #43, #44, #45, #46, #47, #48, #49)), .UNSPECIFIED., .F., .T., .U.)
   B_SPLINE_SURFACE_WITH_KNOTS ((2, 2), (3, 2, 2, 2, 3), (0., 1.), (0., 5.49778714378215, 10.9955742875643, 16.4933614313465, 21.9911485751286), .UNSPECIFIED.)
   GEOMETRIC_REPRESENTATION_ITEM ()
   RATIONAL_B_SPLINE_SURFACE (((1., 0.707106781186548, 1., 0.707106781186548, 1., 0.707106781186548, 1., 0.707106781186548, 1.), (1., 0.707106781186548, 1., 0.707106781186548, 1., 0.707106781186548, 1., 0.707106781186548, 1.)))
   REPRESENTATION_ITEM ('')
   SURFACE ()
);
#32 = CARTESIAN_POINT('', (-3.5, 2.45619055808618E-15, -36.));
#33 = CARTESIAN_POINT('', (-3.5, 3.5, -36.));
#34 = CARTESIAN_POINT('', (-2.31540927340223E-16, 3.5, -36.));
#35 = CARTESIAN_POINT('', (3.5, 3.5, -36.));
#36 = CARTESIAN_POINT('', (3.5, 6.36971080715771E-16, -36.));
#37 = CARTESIAN_POINT('', (3.5, -3.5, -36.));
#38 = CARTESIAN_POINT('', (-1.62213402500906E-15, -3.5, -36.));
#39 = CARTESIAN_POINT('', (-3.5, -3.5, -36.));
#40 = CARTESIAN_POINT('', (-3.5, 2.45619055808618E-15, -36.));
#41 = CARTESIAN_POINT('', (-3.5, 2.35744508835866E-16, -0.350000000000001));
#42 = CARTESIAN_POINT('', (-3.5, 3.5, -0.350000000000001));
#43 = CARTESIAN_POINT('', (1.46472125099778E-15, 3.5, -0.350000000000001));
#44 = CARTESIAN_POINT('', (3.5, 3.5, -0.350000000000001));
#45 = CARTESIAN_POINT('', (3.5, -1.58347496853454E-15, -0.350000000000001));
#46 = CARTESIAN_POINT('', (3.5, -3.5, -0.350000000000002));
#47 = CARTESIAN_POINT('', (7.41281533289475E-17, -3.5, -0.350000000000001));
#48 = CARTESIAN_POINT('', (-3.5, -3.5, -0.350000000000001));
#49 = CARTESIAN_POINT('', (-3.5, 2.35744508835866E-16, -0.350000000000001));
#50 = ADVANCED_FACE('', (#51), #70, .T.);
#51 = FACE_OUTER_BOUND('', #52, .T.);
#52 = EDGE_LOOP('', (#53, #61, #68, #69));
#53 = ORIENTED_EDGE('', *, *, #54, .T.);
#54 = EDGE_CURVE('', #10, #55, #57, .T.);
#55 = VERTEX_POINT('', #56);
#56 = CARTESIAN_POINT('', (-3.15, 1.92881870865708E-16, 0.));
#57 = LINE('', #58, #59);
#58 = CARTESIAN_POINT('', (-3.5, 2.35744508835866E-16, -0.350000000000001));
#59 = VECTOR('', #60, 0.494974746830584);
#60 = DIRECTION('', (0.35, -4.2862637970158E-17, 0.350000000000001));
#61 = ORIENTED_EDGE('', *, *, #62, .T.);
#62 = EDGE_CURVE('', #55, #55, #63, .T.);
#63 = CIRCLE('', #64, 3.15);
#64 = AXIS2_PLACEMENT_3D('', #65, #66, #67);
#65 = CARTESIAN_POINT('', (-3.46944695195361E-16, -1.72084568816899E-15, -1.10933564796705E-31));
#66 = DIRECTION('', (1.9836354552036E-33, 6.12323399573676E-17, -1.));
#67 = DIRECTION('', (-1., 6.07532558423715E-16, 3.52170046973666E-32));
#68 = ORIENTED_EDGE('', *, *, #54, .F.);
#69 = ORIENTED_EDGE('', *, *, #17, .F.);
#70 = (
   BOUNDED_SURFACE ()
   B_SPLINE_SURFACE (1, 2, ((#71, #72, #73, #74, #75, #76, #77, #78, #79), (#80, #81, #82, #83, #84, #85, #86, #87, #88)), .UNSPECIFIED., .F., .T., .U.)
   B_SPLINE_SURFACE_WITH_KNOTS ((2, 2), (3, 2, 2, 2, 3), (0., 1.), (0., 0.25, 0.5, 0.75, 1.), .UNSPECIFIED.)
   GEOMETRIC_REPRESENTATION_ITEM ()
   RATIONAL_B_SPLINE_SURFACE (((1., 0.707106781186548, 1., 0.707106781186548, 1., 0.707106781186548, 1., 0.707106781186548, 1.), (1., 0.707106781186548, 1., 0.707106781186548, 1., 0.707106781186548, 1., 0.707106781186548, 1.)))
   REPRESENTATION_ITEM ('')
   SURFACE ()
);
#71 = CARTESIAN_POINT('', (-3.5, -1.09328281692995E-15, -0.350000000000001));
#72 = CARTESIAN_POINT('', (-3.5, 3.5, -0.350000000000016));
#73 = CARTESIAN_POINT('', (1.56510606943685E-15, 3.5, -0.350000000000016));
#74 = CARTESIAN_POINT('', (3.5, 3.5, -0.350000000000016));
#75 = CARTESIAN_POINT('', (3.5, -4.91738434619438E-15, -0.350000000000001));
#76 = CARTESIAN_POINT('', (3.5, -3.5, -0.349999999999986));
#77 = CARTESIAN_POINT('', (-1.830369080126E-15, -3.5, -0.349999999999986));
#78 = CARTESIAN_POINT('', (-3.5, -3.5, -0.349999999999986));
#79 = CARTESIAN_POINT('', (-3.5, -1.09328281692995E-15, -0.350000000000001));
#80 = CARTESIAN_POINT('', (-3.15, 1.92881870865708E-16, 4.37905770101505E-47));
#81 = CARTESIAN_POINT('', (-3.15, 3.15, -1.34892097491956E-14));
#82 = CARTESIAN_POINT('', (1.37390099297363E-15, 3.15, -1.34892097491956E-14));
#83 = CARTESIAN_POINT('', (3.15, 3.15, -1.34892097491956E-14));
#84 = CARTESIAN_POINT('', (3.15, -3.24880950547228E-15, -1.87381888383138E-30));
#85 = CARTESIAN_POINT('', (3.15, -3.15, 1.34892097491956E-14));
#86 = CARTESIAN_POINT('', (-1.68202664163294E-15, -3.15, 1.34892097491956E-14));
#87 = CARTESIAN_POINT('', (-3.15, -3.15, 1.34892097491956E-14));
#88 = CARTESIAN_POINT('', (-3.15, 1.92881870865708E-16, 4.37905770101505E-47));
#89 = ADVANCED_FACE('', (#90), #93, .T.);
#90 = FACE_OUTER_BOUND('', #91, .T.);
#91 = EDGE_LOOP('', (#92));
#92 = ORIENTED_EDGE('', *, *, #62, .F.);
#93 = B_SPLINE_SURFACE_WITH_KNOTS('', 1, 1, ((#94, #95), (#96, #97)), .UNSPECIFIED., .F., .F., .U., (2, 2), (2, 2), (0.0454545454545454, 0.954545454545454), (0.0454545454545454, 0.954545454545454), .UNSPECIFIED.);
#94 = CARTESIAN_POINT('', (3.15, -3.15, -1.92881870865708E-16));
#95 = CARTESIAN_POINT('', (-3.15, -3.15, -1.92881870865708E-16));
#96 = CARTESIAN_POINT('', (3.15, 3.15, 1.92881870865708E-16));
#97 = CARTESIAN_POINT('', (-3.15, 3.15, 1.92881870865708E-16));
#98 = ADVANCED_FACE('', (#99), #118, .T.);
#99 = FACE_OUTER_BOUND('', #100, .T.);
#100 = EDGE_LOOP('', (#101, #110, #116, #117));
#101 = ORIENTED_EDGE('', *, *, #102, .F.);
#102 = EDGE_CURVE('', #103, #103, #105, .T.);
#103 = VERTEX_POINT('', #104);
#104 = CARTESIAN_POINT('', (-3.5, 2.78607146806023E-15, -42.));
#105 = CIRCLE('', #106, 3.5);
#106 = AXIS2_PLACEMENT_3D('', #107, #108, #109);
#107 = CARTESIAN_POINT('', (1.17961196366423E-15, 1.77635683940025E-15, -42.));
#108 = DIRECTION('', (-2.03012210217171E-15, 6.60462987885886E-15, -1.));
#109 = DIRECTION('', (-1., 2.88489893902851E-16, 2.03012210217171E-15));
#110 = ORIENTED_EDGE('', *, *, #111, .F.);
#111 = EDGE_CURVE('', #8, #103, #112, .T.);
#112 = LINE('', #113, #114);
#113 = CARTESIAN_POINT('', (-3.5, 2.41867742831602E-15, -36.));
#114 = VECTOR('', #115, 6.);
#115 = DIRECTION('', (0., 3.6739403974421E-16, -6.));
#116 = ORIENTED_EDGE('', *, *, #25, .T.);
#117 = ORIENTED_EDGE('', *, *, #111, .T.);
#118 = (
   BOUNDED_SURFACE ()
   B_SPLINE_SURFACE (2, 1, ((#119, #120), (#121, #122), (#123, #124), (#125, #126), (#127, #128), (#129, #130), (#131, #132), (#133, #134), (#135, #136)), .UNSPECIFIED., .T., .F., .U.)
   B_SPLINE_SURFACE_WITH_KNOTS ((3, 2, 2, 2, 3), (2, 2), (0., 5.49778714378215, 10.9955742875643, 16.4933614313465, 21.9911485751286), (0., 0.251572327044025), .UNSPECIFIED.)
   GEOMETRIC_REPRESENTATION_ITEM ()
   RATIONAL_B_SPLINE_SURFACE (((1., 1.), (0.707106781186548, 0.707106781186548), (1., 1.), (0.707106781186548, 0.707106781186548), (1., 1.), (0.707106781186548, 0.707106781186548), (1., 1.), (0.707106781186548, 0.707106781186548), (1., 1.)))
   REPRESENTATION_ITEM ('')
   SURFACE ()
);
#119 = CARTESIAN_POINT('', (-3.5, 2.41867742831602E-15, -36.));
#120 = CARTESIAN_POINT('', (-3.5, 6.4232058891577E-16, -42.));
#121 = CARTESIAN_POINT('', (-3.5, 3.5, -36.));
#122 = CARTESIAN_POINT('', (-3.5, 3.5, -42.));
#123 = CARTESIAN_POINT('', (1.33006360657292E-15, 3.5, -36.));
#124 = CARTESIAN_POINT('', (1.33006360657292E-15, 3.5, -42.));
#125 = CARTESIAN_POINT('', (3.5, 3.5, -36.));
#126 = CARTESIAN_POINT('', (3.5, 3.5, -42.));
#127 = CARTESIAN_POINT('', (3.5, 6.74484210485929E-16, -36.));
#128 = CARTESIAN_POINT('', (3.5, -1.10187262891432E-15, -42.));
#129 = CARTESIAN_POINT('', (3.5, -3.5, -36.));
#130 = CARTESIAN_POINT('', (3.5, -3.5, -42.));
#131 = CARTESIAN_POINT('', (1.44967684444053E-17, -3.5, -36.));
#132 = CARTESIAN_POINT('', (1.44967684444049E-17, -3.5, -42.));
#133 = CARTESIAN_POINT('', (-3.5, -3.5, -36.));
#134 = CARTESIAN_POINT('', (-3.5, -3.5, -42.));
#135 = CARTESIAN_POINT('', (-3.5, 2.41867742831602E-15, -36.));
#136 = CARTESIAN_POINT('', (-3.5, 6.4232058891577E-16, -42.));
#137 = ADVANCED_FACE('', (#138), #141, .T.);
#138 = FACE_OUTER_BOUND('', #139, .T.);
#139 = EDGE_LOOP('', (#140));
#140 = ORIENTED_EDGE('', *, *, #102, .T.);
#141 = B_SPLINE_SURFACE_WITH_KNOTS('', 1, 1, ((#142, #143), (#144, #145)), .UNSPECIFIED., .F., .F., .U., (2, 2), (2, 2), (0.482733446256455, 0.540288644769384), (0.459711355230616, 0.517266553743545), .UNSPECIFIED.);
#142 = CARTESIAN_POINT('', (-3.50000000000001, 3.50000000000002, -42.));
#143 = CARTESIAN_POINT('', (-3.50000000000001, -3.49999999999999, -42.));
#144 = CARTESIAN_POINT('', (3.49999999999999, 3.50000000000002, -42.));
#145 = CARTESIAN_POINT('', (3.49999999999999, -3.49999999999999, -42.));
#146 = DRAUGHTING_MODEL('', (#154, #278, #326, #331, #336, #341, #346, #351), #365);
#147 = PRESENTATION_STYLE_ASSIGNMENT((#148));
#148 = SURFACE_STYLE_USAGE(.POSITIVE., #149);
#149 = SURFACE_SIDE_STYLE('', (#150));
#150 = SURFACE_STYLE_FILL_AREA(#151);
#151 = FILL_AREA_STYLE('', (#152));
#152 = FILL_AREA_STYLE_COLOUR('', #153);
#153 = COLOUR_RGB('', 0.50196078431373, 0.50196078431373, 0.50196078431373);
#154 = STYLED_ITEM('', (#147), #1);
#155 = MANIFOLD_SOLID_BREP('CUT', #156);
#156 = CLOSED_SHELL('', (#157, #174, #213, #262));
#157 = ADVANCED_FACE('', (#158), #169, .T.);
#158 = FACE_OUTER_BOUND('', #159, .T.);
#159 = EDGE_LOOP('', (#160));
#160 = ORIENTED_EDGE('', *, *, #161, .F.);
#161 = EDGE_CURVE('', #162, #162, #164, .T.);
#162 = VERTEX_POINT('', #163);
#163 = CARTESIAN_POINT('', (-3.5, 2.78607146806023E-15, -42.));
#164 = CIRCLE('', #165, 3.5);
#165 = AXIS2_PLACEMENT_3D('', #166, #167, #168);
#166 = CARTESIAN_POINT('', (1.17961196366423E-15, 1.77635683940025E-15, -42.));
#167 = DIRECTION('', (-2.03012210217171E-15, 6.60462987885886E-15, -1.));
#168 = DIRECTION('', (-1., 2.88489893902851E-16, 2.03012210217171E-15));
#169 = B_SPLINE_SURFACE_WITH_KNOTS('', 1, 1, ((#170, #171), (#172, #173)), .UNSPECIFIED., .F., .F., .U., (2, 2), (2, 2), (0.459711355230616, 0.517266553743545), (0.482733446256455, 0.540288644769384), .UNSPECIFIED.);
#170 = CARTESIAN_POINT('', (-3.5, 3.5, -42.));
#171 = CARTESIAN_POINT('', (3.5, 3.5, -42.));
#172 = CARTESIAN_POINT('', (-3.5, -3.5, -42.));
#173 = CARTESIAN_POINT('', (3.5, -3.5, -42.));
#174 = ADVANCED_FACE('', (#175), #194, .T.);
#175 = FACE_OUTER_BOUND('', #176, .T.);
#176 = EDGE_LOOP('', (#177, #178, #186, #193));
#177 = ORIENTED_EDGE('', *, *, #161, .T.);
#178 = ORIENTED_EDGE('', *, *, #179, .T.);
#179 = EDGE_CURVE('', #162, #180, #182, .T.);
#180 = VERTEX_POINT('', #181);
#181 = CARTESIAN_POINT('', (-3.5, 3.87906873629924E-15, -59.85));
#182 = LINE('', #183, #184);
#183 = CARTESIAN_POINT('', (-3.5, 2.78607146806023E-15, -42.));
#184 = VECTOR('', #185, 17.85);
#185 = DIRECTION('', (0., 1.09299726823901E-15, -17.85));
#186 = ORIENTED_EDGE('', *, *, #187, .F.);
#187 = EDGE_CURVE('', #180, #180, #188, .T.);
#188 = CIRCLE('', #189, 3.5);
#189 = AXIS2_PLACEMENT_3D('', #190, #191, #192);
#190 = CARTESIAN_POINT('', (1.13797860024079E-15, 8.88178419700125E-16, -59.85));
#191 = DIRECTION('', (-2.03012210217171E-15, 6.60462987885883E-15, -1.));
#192 = DIRECTION('', (-1., 8.5454009045689E-16, 2.03012210217171E-15));
#193 = ORIENTED_EDGE('', *, *, #179, .F.);
#194 = (
   BOUNDED_SURFACE ()
   B_SPLINE_SURFACE (2, 1, ((#195, #196), (#197, #198), (#199, #200), (#201, #202), (#203, #204), (#205, #206), (#207, #208), (#209, #210), (#211, #212)), .UNSPECIFIED., .T., .F., .U.)
   B_SPLINE_SURFACE_WITH_KNOTS ((3, 2, 2, 2, 3), (2, 2), (0., 5.49778714378215, 10.9955742875643, 16.4933614313464, 21.9911485751286), (0.251572327044025, 1.), .UNSPECIFIED.)
   GEOMETRIC_REPRESENTATION_ITEM ()
   RATIONAL_B_SPLINE_SURFACE (((1., 1.), (0.707106781186548, 0.707106781186548), (1., 1.), (0.707106781186548, 0.707106781186548), (1., 1.), (0.707106781186548, 0.707106781186548), (1., 1.), (0.707106781186548, 0.707106781186548), (1., 1.)))
   REPRESENTATION_ITEM ('')
   SURFACE ()
);
#195 = CARTESIAN_POINT('', (-3.5, 2.78607146806023E-15, -42.));
#196 = CARTESIAN_POINT('', (-3.5, 4.11833909761042E-15, -59.85));
#197 = CARTESIAN_POINT('', (-3.5, 3.5, -42.));
#198 = CARTESIAN_POINT('', (-3.5, 3.5, -59.85));
#199 = CARTESIAN_POINT('', (3.75137024187367E-15, 3.5, -42.));
#200 = CARTESIAN_POINT('', (3.75137024187367E-15, 3.5, -59.85));
#201 = CARTESIAN_POINT('', (3.5, 3.5, -42.));
#202 = CARTESIAN_POINT('', (3.5, 3.5, -59.85));
#203 = CARTESIAN_POINT('', (3.5, -3.24562350805878E-15, -42.));
#204 = CARTESIAN_POINT('', (3.5, -1.91335587850859E-15, -59.85));
#205 = CARTESIAN_POINT('', (3.5, -3.5, -42.));
#206 = CARTESIAN_POINT('', (3.5, -3.5, -59.85));
#207 = CARTESIAN_POINT('', (-1.85169835454377E-15, -3.5, -42.));
#208 = CARTESIAN_POINT('', (-1.85169835454376E-15, -3.5, -59.85));
#209 = CARTESIAN_POINT('', (-3.5, -3.5, -42.));
#210 = CARTESIAN_POINT('', (-3.5, -3.5, -59.85));
#211 = CARTESIAN_POINT('', (-3.5, 2.78607146806023E-15, -42.));
#212 = CARTESIAN_POINT('', (-3.5, 4.11833909761042E-15, -59.85));
#213 = ADVANCED_FACE('', (#214), #234, .T.);
#214 = FACE_OUTER_BOUND('', #215, .T.);
#215 = EDGE_LOOP('', (#216, #225, #226, #227));
#216 = ORIENTED_EDGE('', *, *, #217, .F.);
#217 = EDGE_CURVE('', #180, #218, #220, .T.);
#218 = VERTEX_POINT('', #219);
#219 = CARTESIAN_POINT('', (-3.35, 3.87906873629924E-15, -60.));
#220 = CIRCLE('', #221, 0.150000000000016);
#221 = AXIS2_PLACEMENT_3D('', #222, #223, #224);
#222 = CARTESIAN_POINT('', (-3.34999999999999, 3.86988388530563E-15, -59.85));
#223 = DIRECTION('', (-6.12323399574118E-17, -1., -6.12323399574108E-17));
#224 = DIRECTION('', (-1., 6.12323399574176E-17, -9.47390314346711E-14));
#225 = ORIENTED_EDGE('', *, *, #187, .T.);
#226 = ORIENTED_EDGE('', *, *, #217, .T.);
#227 = ORIENTED_EDGE('', *, *, #228, .F.);
#228 = EDGE_CURVE('', #218, #218, #229, .T.);
#229 = CIRCLE('', #230, 3.35);
#230 = AXIS2_PLACEMENT_3D('', #231, #232, #233);
#231 = CARTESIAN_POINT('', (-8.18789480661053E-16, 3.05311331771918E-15, -60.));
#232 = DIRECTION('', (0., 0., -1.));
#233 = DIRECTION('', (-1., 2.46553856292555E-16, 0.));
#234 = (
   BOUNDED_SURFACE ()
   B_SPLINE_SURFACE (2, 2, ((#235, #236, #237), (#238, #239, #240), (#241, #242, #243), (#244, #245, #246), (#247, #248, #249), (#250, #251, #252), (#253, #254, #255), (#256, #257, #258), (#259, #260, #261)), .UNSPECIFIED., .T., .F., .U.)
   B_SPLINE_SURFACE_WITH_KNOTS ((3, 2, 2, 2, 3), (3, 3), (0., 0.25, 0.5, 0.75, 1.), (0., 1.), .UNSPECIFIED.)
   GEOMETRIC_REPRESENTATION_ITEM ()
   RATIONAL_B_SPLINE_SURFACE (((1., 0.707106781186547, 1.), (0.707106781186548, 0.5, 0.707106781186548), (1., 0.707106781186547, 1.), (0.707106781186548, 0.5, 0.707106781186548), (1., 0.707106781186547, 1.), (0.707106781186548, 0.5, 0.707106781186548), (1., 0.707106781186547, 1.), (0.707106781186548, 0.5, 0.707106781186548), (1., 0.707106781186547, 1.)))
   REPRESENTATION_ITEM ('')
   SURFACE ()
);
#235 = CARTESIAN_POINT('', (-3.5, 3.87906873629924E-15, -59.85));
#236 = CARTESIAN_POINT('', (-3.5, 3.88825358729285E-15, -60.));
#237 = CARTESIAN_POINT('', (-3.35, 3.87906873629924E-15, -60.));
#238 = CARTESIAN_POINT('', (-3.5, 3.5, -59.85));
#239 = CARTESIAN_POINT('', (-3.5, 3.5, -60.));
#240 = CARTESIAN_POINT('', (-3.35, 3.35, -60.));
#241 = CARTESIAN_POINT('', (3.80353342452665E-15, 3.5, -59.85));
#242 = CARTESIAN_POINT('', (5.10793107267488E-15, 3.5, -60.));
#243 = CARTESIAN_POINT('', (5.10793107267482E-15, 3.35, -60.));
#244 = CARTESIAN_POINT('', (3.5, 3.5, -59.85));
#245 = CARTESIAN_POINT('', (3.50000000000001, 3.49999999999999, -60.));
#246 = CARTESIAN_POINT('', (3.35000000000001, 3.35, -60.));
#247 = CARTESIAN_POINT('', (3.5, -3.45044235659767E-15, -59.85));
#248 = CARTESIAN_POINT('', (3.5, -5.44101617124899E-15, -60.));
#249 = CARTESIAN_POINT('', (3.35, -5.45020102224251E-15, -60.));
#250 = CARTESIAN_POINT('', (3.5, -3.5, -59.85));
#251 = CARTESIAN_POINT('', (3.5, -3.50000000000001, -60.));
#252 = CARTESIAN_POINT('', (3.35, -3.35000000000001, -60.));
#253 = CARTESIAN_POINT('', (-3.09735128866878E-15, -3.5, -59.85));
#254 = CARTESIAN_POINT('', (-3.79271230616548E-15, -3.5, -60.));
#255 = CARTESIAN_POINT('', (-3.81108200815266E-15, -3.35, -60.));
#256 = CARTESIAN_POINT('', (-3.5, -3.5, -59.85));
#257 = CARTESIAN_POINT('', (-3.5, -3.5, -60.));
#258 = CARTESIAN_POINT('', (-3.35, -3.35, -60.));
#259 = CARTESIAN_POINT('', (-3.5, 3.87906873629924E-15, -59.85));
#260 = CARTESIAN_POINT('', (-3.5, 3.88825358729285E-15, -60.));
#261 = CARTESIAN_POINT('', (-3.35, 3.87906873629924E-15, -60.));
#262 = ADVANCED_FACE('', (#263), #266, .T.);
#263 = FACE_OUTER_BOUND('', #264, .T.);
#264 = EDGE_LOOP('', (#265));
#265 = ORIENTED_EDGE('', *, *, #228, .T.);
#266 = B_SPLINE_SURFACE_WITH_KNOTS('', 1, 1, ((#267, #268), (#269, #270)), .UNSPECIFIED., .F., .F., .U., (2, 2), (2, 2), (0.0454545454545454, 0.954545454545454), (0.0454545454545454, 0.954545454545455), .UNSPECIFIED.);
#267 = CARTESIAN_POINT('', (3.35, -3.35, -60.));
#268 = CARTESIAN_POINT('', (3.35, 3.35, -60.));
#269 = CARTESIAN_POINT('', (-3.35, -3.35, -60.));
#270 = CARTESIAN_POINT('', (-3.35, 3.35, -60.));
#271 = PRESENTATION_STYLE_ASSIGNMENT((#272));
#272 = SURFACE_STYLE_USAGE(.POSITIVE., #273);
#273 = SURFACE_SIDE_STYLE('', (#274));
#274 = SURFACE_STYLE_FILL_AREA(#275);
#275 = FILL_AREA_STYLE('', (#276));
#276 = FILL_AREA_STYLE_COLOUR('', #277);
#277 = COLOUR_RGB('', 0.8, 0.8, 0.8);
#278 = STYLED_ITEM('', (#271), #155);
#279 = TRIMMED_CURVE('cutting part line', #280, (#284), (#285), .T., .CARTESIAN.);
#280 = LINE('', #281, #282);
#281 = CARTESIAN_POINT('', (1.94289029309402E-16, 0., -60.));
#282 = VECTOR('', #283, 3.35);
#283 = DIRECTION('', (3.35, 0., -7.105427357601E-15));
#284 = CARTESIAN_POINT('', (1.94289029309402E-16, 0., -60.));
#285 = CARTESIAN_POINT('', (3.35, 0., -60.));
#286 = TRIMMED_CURVE('cutting part line', #287, (#292), (#293), .T., .CARTESIAN.);
#287 = CIRCLE('', #288, 0.149999999999992);
#288 = AXIS2_PLACEMENT_3D('', #289, #290, #291);
#289 = CARTESIAN_POINT('', (3.35000000000001, 1.75894355530014E-16, -59.85));
#290 = DIRECTION('', (1.11022302462572E-15, -1., 1.3219082617244E-14));
#291 = DIRECTION('', (-6.21724893790123E-14, -1.3219082617244E-14, -1.));
#292 = CARTESIAN_POINT('', (3.35, -1.80696803705648E-15, -60.));
#293 = CARTESIAN_POINT('', (3.5, 3.42427809224021E-16, -59.85));
#294 = TRIMMED_CURVE('cutting part line', #295, (#299), (#300), .T., .CARTESIAN.);
#295 = LINE('', #296, #297);
#296 = CARTESIAN_POINT('', (3.5, 1.33206471873722E-15, -59.85));
#297 = VECTOR('', #298, 17.85);
#298 = DIRECTION('', (0., -1.33206471873722E-15, 17.85));
#299 = CARTESIAN_POINT('', (3.5, 1.33206471873722E-15, -59.85));
#300 = CARTESIAN_POINT('', (3.5, 0., -42.));
#301 = TRIMMED_CURVE('cutting part line', #302, (#306), (#307), .T., .CARTESIAN.);
#302 = LINE('', #303, #304);
#303 = CARTESIAN_POINT('', (3.5, 0., -42.));
#304 = VECTOR('', #305, 3.5);
#305 = DIRECTION('', (-3.5, 0., 0.));
#306 = CARTESIAN_POINT('', (3.5, 0., -42.));
#307 = CARTESIAN_POINT('', (2.08166817117217E-17, 0., -42.));
#308 = TRIMMED_CURVE('cutting part line', #309, (#313), (#314), .T., .CARTESIAN.);
#309 = LINE('', #310, #311);
#310 = CARTESIAN_POINT('', (0., 0., -42.));
#311 = VECTOR('', #312, 18.);
#312 = DIRECTION('', (0., 0., -18.));
#313 = CARTESIAN_POINT('', (0., 0., -42.));
#314 = CARTESIAN_POINT('', (0., 0., -60.));
#315 = COMPOSITE_CURVE('cutting part line', (#316, #317, #318, #319, #320), .U.);
#316 = COMPOSITE_CURVE_SEGMENT(.CONTINUOUS., .T., #279);
#317 = COMPOSITE_CURVE_SEGMENT(.CONTINUOUS., .T., #286);
#318 = COMPOSITE_CURVE_SEGMENT(.CONTINUOUS., .T., #294);
#319 = COMPOSITE_CURVE_SEGMENT(.CONTINUOUS., .T., #301);
#320 = COMPOSITE_CURVE_SEGMENT(.CONTINUOUS., .T., #308);
#321 = GEOMETRIC_SET('', (#315, #364));
#322 = PRESENTATION_STYLE_ASSIGNMENT((#323));
#323 = CURVE_STYLE('', #325, POSITIVE_LENGTH_MEASURE(1.E-6), #324);
#324 = COLOUR_RGB('', 0., 0., 1.);
#325 = DRAUGHTING_PRE_DEFINED_CURVE_FONT('continuous');
#326 = STYLED_ITEM('', (#322), #315);
#327 = PRESENTATION_STYLE_ASSIGNMENT((#328));
#328 = CURVE_STYLE('', #330, POSITIVE_LENGTH_MEASURE(1.E-6), #329);
#329 = COLOUR_RGB('', 0., 0., 1.);
#330 = DRAUGHTING_PRE_DEFINED_CURVE_FONT('continuous');
#331 = OVER_RIDING_STYLED_ITEM('', (#327), #279, #326);
#332 = PRESENTATION_STYLE_ASSIGNMENT((#333));
#333 = CURVE_STYLE('', #335, POSITIVE_LENGTH_MEASURE(1.E-6), #334);
#334 = COLOUR_RGB('', 0., 0., 1.);
#335 = DRAUGHTING_PRE_DEFINED_CURVE_FONT('continuous');
#336 = OVER_RIDING_STYLED_ITEM('', (#332), #286, #326);
#337 = PRESENTATION_STYLE_ASSIGNMENT((#338));
#338 = CURVE_STYLE('', #340, POSITIVE_LENGTH_MEASURE(1.E-6), #339);
#339 = COLOUR_RGB('', 0., 0., 1.);
#340 = DRAUGHTING_PRE_DEFINED_CURVE_FONT('continuous');
#341 = OVER_RIDING_STYLED_ITEM('', (#337), #294, #326);
#342 = PRESENTATION_STYLE_ASSIGNMENT((#343));
#343 = CURVE_STYLE('', #345, POSITIVE_LENGTH_MEASURE(1.E-6), #344);
#344 = COLOUR_RGB('', 0., 0., 1.);
#345 = DRAUGHTING_PRE_DEFINED_CURVE_FONT('continuous');
#346 = OVER_RIDING_STYLED_ITEM('', (#342), #301, #326);
#347 = PRESENTATION_STYLE_ASSIGNMENT((#348));
#348 = CURVE_STYLE('', #350, POSITIVE_LENGTH_MEASURE(1.E-6), #349);
#349 = COLOUR_RGB('', 0., 0., 1.);
#350 = DRAUGHTING_PRE_DEFINED_CURVE_FONT('continuous');
#351 = OVER_RIDING_STYLED_ITEM('', (#347), #308, #326);
#352 = AXIS2_PLACEMENT_3D('MCS', #353, #354, #355);
#353 = CARTESIAN_POINT('', (0., 0., -36.));
#354 = DIRECTION('', (0., 0., 1.));
#355 = DIRECTION('', (1., 0., 0.));
#356 = AXIS2_PLACEMENT_3D('PCS', #357, #358, #359);
#357 = CARTESIAN_POINT('', (0., 0., 0.));
#358 = DIRECTION('', (0., 0., 1.));
#359 = DIRECTION('', (1., 0., 0.));
#360 = AXIS2_PLACEMENT_3D('CIP', #361, #362, #363);
#361 = CARTESIAN_POINT('', (0., 0., -60.));
#362 = DIRECTION('', (0., 0., 1.));
#363 = DIRECTION('', (1., 0., 0.));
#364 = CARTESIAN_POINT('CRP', (3.5, 0., -60.));
#365 = (
   GEOMETRIC_REPRESENTATION_CONTEXT (3)
   GLOBAL_UNCERTAINTY_ASSIGNED_CONTEXT ((#367))
   GLOBAL_UNIT_ASSIGNED_CONTEXT ((#366, #368, #369))
   REPRESENTATION_CONTEXT ('', '3D')
);
#366 = (
   LENGTH_UNIT ()
   NAMED_UNIT (*)
   SI_UNIT (.MILLI., .METRE.)
);
#367 = UNCERTAINTY_MEASURE_WITH_UNIT(LENGTH_MEASURE(1.E-6), #366, 'DISTANCE_ACCURACY_VALUE', '');
#368 = (
   NAMED_UNIT (*)
   SI_UNIT ($, .STERADIAN.)
   SOLID_ANGLE_UNIT ()
);
#369 = (
   NAMED_UNIT (*)
   PLANE_ANGLE_UNIT ()
   SI_UNIT ($, .RADIAN.)
);
#370 = SHAPE_REPRESENTATION('', (), #365);
#371 = PRODUCT_DEFINITION_SHAPE('', '', #372);
#372 = PRODUCT_DEFINITION('', '', #375, #379);
#373 = APPLICATION_CONTEXT('configuration controlled 3D designs of mechanical parts and assemblies');
#374 = APPLICATION_PROTOCOL_DEFINITION('International Standard', 'automotive_design', 2002, #373);
#375 = PRODUCT_DEFINITION_FORMATION_WITH_SPECIFIED_SOURCE('', '', #376, .NOT_KNOWN.);
#376 = PRODUCT('product-name', '2P232-0700-NA       H10F', '', (#377));
#377 = PRODUCT_CONTEXT('', #373, 'mechanical');
#378 = PRODUCT_RELATED_PRODUCT_CATEGORY('detail', '', (#376));
#379 = PRODUCT_DEFINITION_CONTEXT('part definition', #373, 'design');
#380 = SHAPE_DEFINITION_REPRESENTATION(#371, #370);
#381 = CONSTRUCTIVE_GEOMETRY_REPRESENTATION('supplemental geometry', (#352, #356, #360), #365);
#382 = CONSTRUCTIVE_GEOMETRY_REPRESENTATION_RELATIONSHIP('', '', #370, #381);
#383 = SHAPE_REPRESENTATION_RELATIONSHIP('', '', #370, #384);
#384 = SHAPE_REPRESENTATION('', (#321), #365);
#385 = SHAPE_REPRESENTATION_RELATIONSHIP('', '', #370, #386);
#386 = ADVANCED_BREP_SHAPE_REPRESENTATION('', (#1, #155), #365);
ENDSEC;
END-ISO-10303-21;
