ISO-10303-21;
HEADER;
FILE_DESCRIPTION(('STEP'), '1');
FILE_NAME('C:\\Users\\ds2002\\OneDrive - Sandvik\\HomeShare\\Documents\\Batchrepair\\CorSRT2\\NEW_MILSQ_SLD\\Output\\MOD000000000000000020082314500000.stp', '2019-01-02T12:06:19', (''), (''), 'Express v3.0.0.0', 'Express Tool', 'Unknown');
FILE_SCHEMA(('AUTOMOTIVE_DESIGN'));
ENDSEC;

DATA;
#1 = MANIFOLD_SOLID_BREP('NOCUT', #2);
#2 = CLOSED_SHELL('', (#3, #50, #89, #98, #137));
#3 = ADVANCED_FACE('', (#4), #31, .T.);
#4 = FACE_OUTER_BOUND('', #5, .T.);
#5 = EDGE_LOOP('', (#6, #16, #23, #24));
#6 = ORIENTED_EDGE('', *, *, #7, .T.);
#7 = EDGE_CURVE('', #8, #10, #12, .T.);
#8 = VERTEX_POINT('', #9);
#9 = CARTESIAN_POINT('', (-1.5, 1.80635402874235E-15, -28.));
#10 = VERTEX_POINT('', #11);
#11 = CARTESIAN_POINT('', (-1.5, 1.01033360929657E-16, -0.149999999999999));
#12 = LINE('', #13, #14);
#13 = CARTESIAN_POINT('', (-1.5, 1.80635402874235E-15, -28.));
#14 = VECTOR('', #15, 27.85);
#15 = DIRECTION('', (0., -1.70532066781269E-15, 27.85));
#16 = ORIENTED_EDGE('', *, *, #17, .T.);
#17 = EDGE_CURVE('', #10, #10, #18, .T.);
#18 = CIRCLE('', #19, 1.5);
#19 = AXIS2_PLACEMENT_3D('', #20, #21, #22);
#20 = CARTESIAN_POINT('', (1.52655665885959E-16, -3.60822483003176E-16, -0.149999999999999));
#21 = DIRECTION('', (0., 0., -1.));
#22 = DIRECTION('', (-1., 3.07903895955222E-16, 0.));
#23 = ORIENTED_EDGE('', *, *, #7, .F.);
#24 = ORIENTED_EDGE('', *, *, #25, .F.);
#25 = EDGE_CURVE('', #8, #8, #26, .T.);
#26 = CIRCLE('', #27, 1.5);
#27 = AXIS2_PLACEMENT_3D('', #28, #29, #30);
#28 = CARTESIAN_POINT('', (4.09394740330526E-16, 9.43689570931383E-16, -28.));
#29 = DIRECTION('', (2.368475785867E-15, -7.7054015253353E-15, -1.));
#30 = DIRECTION('', (-1., 5.75109638540645E-16, -2.368475785867E-15));
#31 = (
   BOUNDED_SURFACE ()
   B_SPLINE_SURFACE (1, 2, ((#32, #33, #34, #35, #36, #37, #38, #39, #40), (#41, #42, #43, #44, #45, #46, #47, #48, #49)), .UNSPECIFIED., .F., .T., .U.)
   B_SPLINE_SURFACE_WITH_KNOTS ((2, 2), (3, 2, 2, 2, 3), (0., 1.), (0., 2.35619449019235, 4.71238898038469, 7.06858347057704, 9.42477796076938), .UNSPECIFIED.)
   GEOMETRIC_REPRESENTATION_ITEM ()
   RATIONAL_B_SPLINE_SURFACE (((1., 0.707106781186548, 1., 0.707106781186548, 1., 0.707106781186548, 1., 0.707106781186548, 1.), (1., 0.707106781186548, 1., 0.707106781186548, 1., 0.707106781186548, 1., 0.707106781186548, 1.)))
   REPRESENTATION_ITEM ('')
   SURFACE ()
);
#32 = CARTESIAN_POINT('', (-1.5, 1.01696735624541E-15, -28.));
#33 = CARTESIAN_POINT('', (-1.5, 1.5, -28.));
#34 = CARTESIAN_POINT('', (5.22662999882741E-16, 1.5, -28.));
#35 = CARTESIAN_POINT('', (1.5, 1.5, -28.));
#36 = CARTESIAN_POINT('', (1.5, 2.76952688251848E-16, -28.));
#37 = CARTESIAN_POINT('', (1.5, -1.5, -28.));
#38 = CARTESIAN_POINT('', (-3.36546482387189E-17, -1.5, -28.));
#39 = CARTESIAN_POINT('', (-1.5, -1.5, -28.));
#40 = CARTESIAN_POINT('', (-1.5, 1.01696735624541E-15, -28.));
#41 = CARTESIAN_POINT('', (-1.5, 1.01033360929657E-16, -0.149999999999999));
#42 = CARTESIAN_POINT('', (-1.5, 1.5, -0.149999999999999));
#43 = CARTESIAN_POINT('', (5.2266299988274E-16, 1.5, -0.149999999999999));
#44 = CARTESIAN_POINT('', (1.5, 1.5, -0.149999999999999));
#45 = CARTESIAN_POINT('', (1.5, -6.38981307063906E-16, -0.149999999999999));
#46 = CARTESIAN_POINT('', (1.5, -1.5, -0.149999999999999));
#47 = CARTESIAN_POINT('', (-3.36546482387192E-17, -1.5, -0.149999999999999));
#48 = CARTESIAN_POINT('', (-1.5, -1.5, -0.149999999999999));
#49 = CARTESIAN_POINT('', (-1.5, 1.01033360929657E-16, -0.149999999999999));
#50 = ADVANCED_FACE('', (#51), #70, .T.);
#51 = FACE_OUTER_BOUND('', #52, .T.);
#52 = EDGE_LOOP('', (#53, #61, #68, #69));
#53 = ORIENTED_EDGE('', *, *, #54, .T.);
#54 = EDGE_CURVE('', #10, #55, #57, .T.);
#55 = VERTEX_POINT('', #56);
#56 = CARTESIAN_POINT('', (-1.35, 8.26636589424463E-17, 0.));
#57 = LINE('', #58, #59);
#58 = CARTESIAN_POINT('', (-1.5, 1.01033360929657E-16, -0.149999999999999));
#59 = VECTOR('', #60, 0.212132034355963);
#60 = DIRECTION('', (0.15, -1.83697019872107E-17, 0.149999999999999));
#61 = ORIENTED_EDGE('', *, *, #62, .T.);
#62 = EDGE_CURVE('', #55, #55, #63, .T.);
#63 = CIRCLE('', #64, 1.35);
#64 = AXIS2_PLACEMENT_3D('', #65, #66, #67);
#65 = CARTESIAN_POINT('', (4.61436444609831E-16, -6.38378239159465E-16, -7.7875102531819E-16));
#66 = DIRECTION('', (-5.76852611346806E-16, 1.6649441676109E-15, -1.));
#67 = DIRECTION('', (-1., 5.34105109705119E-16, 5.76852611346807E-16));
#68 = ORIENTED_EDGE('', *, *, #54, .F.);
#69 = ORIENTED_EDGE('', *, *, #17, .F.);
#70 = (
   BOUNDED_SURFACE ()
   B_SPLINE_SURFACE (1, 2, ((#71, #72, #73, #74, #75, #76, #77, #78, #79), (#80, #81, #82, #83, #84, #85, #86, #87, #88)), .UNSPECIFIED., .F., .T., .U.)
   B_SPLINE_SURFACE_WITH_KNOTS ((2, 2), (3, 2, 2, 2, 3), (0., 1.), (0., 0.25, 0.5, 0.75, 1.), .UNSPECIFIED.)
   GEOMETRIC_REPRESENTATION_ITEM ()
   RATIONAL_B_SPLINE_SURFACE (((1., 0.707106781186548, 1., 0.707106781186548, 1., 0.707106781186548, 1., 0.707106781186548, 1.), (1., 0.707106781186548, 1., 0.707106781186548, 1., 0.707106781186548, 1., 0.707106781186548, 1.)))
   REPRESENTATION_ITEM ('')
   SURFACE ()
);
#71 = CARTESIAN_POINT('', (-1.5, 7.45646513326421E-16, -0.149999999999998));
#72 = CARTESIAN_POINT('', (-1.5, 1.5, -0.149999999999992));
#73 = CARTESIAN_POINT('', (1.08421770752944E-15, 1.5, -0.149999999999993));
#74 = CARTESIAN_POINT('', (1.5, 1.5, -0.149999999999994));
#75 = CARTESIAN_POINT('', (1.5, -6.72971795916834E-16, -0.15));
#76 = CARTESIAN_POINT('', (1.5, -1.5, -0.150000000000006));
#77 = CARTESIAN_POINT('', (-1.50703581841717E-16, -1.5, -0.150000000000005));
#78 = CARTESIAN_POINT('', (-1.5, -1.5, -0.150000000000004));
#79 = CARTESIAN_POINT('', (-1.5, 7.45646513326421E-16, -0.149999999999998));
#80 = CARTESIAN_POINT('', (-1.35, 8.2663658942446E-17, -2.95822839457879E-31));
#81 = CARTESIAN_POINT('', (-1.35, 1.35, 5.24580379135393E-15));
#82 = CARTESIAN_POINT('', (1.0998146837693E-15, 1.35, 4.46705276603574E-15));
#83 = CARTESIAN_POINT('', (1.35, 1.35, 3.68830174071755E-15));
#84 = CARTESIAN_POINT('', (1.35, -1.19409281937648E-15, -1.55750205063638E-15));
#85 = CARTESIAN_POINT('', (1.35, -1.35, -6.80330584199031E-15));
#86 = CARTESIAN_POINT('', (-1.16144766647444E-17, -1.35, -6.02455481667212E-15));
#87 = CARTESIAN_POINT('', (-1.35, -1.35, -5.24580379135393E-15));
#88 = CARTESIAN_POINT('', (-1.35, 8.2663658942446E-17, -2.95822839457879E-31));
#89 = ADVANCED_FACE('', (#90), #93, .T.);
#90 = FACE_OUTER_BOUND('', #91, .T.);
#91 = EDGE_LOOP('', (#92));
#92 = ORIENTED_EDGE('', *, *, #62, .F.);
#93 = B_SPLINE_SURFACE_WITH_KNOTS('', 1, 1, ((#94, #95), (#96, #97)), .UNSPECIFIED., .F., .F., .U., (2, 2), (2, 2), (0.0454545454545454, 0.954545454545454), (0.0454545454545454, 0.954545454545454), .UNSPECIFIED.);
#94 = CARTESIAN_POINT('', (1.35, -1.35, -8.26636589424464E-17));
#95 = CARTESIAN_POINT('', (-1.35, -1.35, -8.26636589424463E-17));
#96 = CARTESIAN_POINT('', (1.35, 1.35, 8.26636589424463E-17));
#97 = CARTESIAN_POINT('', (-1.35, 1.35, 8.26636589424464E-17));
#98 = ADVANCED_FACE('', (#99), #118, .T.);
#99 = FACE_OUTER_BOUND('', #100, .T.);
#100 = EDGE_LOOP('', (#101, #110, #116, #117));
#101 = ORIENTED_EDGE('', *, *, #102, .F.);
#102 = EDGE_CURVE('', #103, #103, #105, .T.);
#103 = VERTEX_POINT('', #104);
#104 = CARTESIAN_POINT('', (-1.5, 2.11251572852918E-15, -33.));
#105 = CIRCLE('', #106, 1.5);
#106 = AXIS2_PLACEMENT_3D('', #107, #108, #109);
#107 = CARTESIAN_POINT('', (2.4980018054066E-16, 4.9960036108132E-16, -33.));
#108 = DIRECTION('', (0., 0., -1.));
#109 = DIRECTION('', (-1., 1.07527691163191E-15, 0.));
#110 = ORIENTED_EDGE('', *, *, #111, .F.);
#111 = EDGE_CURVE('', #8, #103, #112, .T.);
#112 = LINE('', #113, #114);
#113 = CARTESIAN_POINT('', (-1.5, 1.80635402874235E-15, -28.));
#114 = VECTOR('', #115, 5.);
#115 = DIRECTION('', (0., 3.0616169978683E-16, -5.));
#116 = ORIENTED_EDGE('', *, *, #25, .T.);
#117 = ORIENTED_EDGE('', *, *, #111, .T.);
#118 = (
   BOUNDED_SURFACE ()
   B_SPLINE_SURFACE (2, 1, ((#119, #120), (#121, #122), (#123, #124), (#125, #126), (#127, #128), (#129, #130), (#131, #132), (#133, #134), (#135, #136)), .UNSPECIFIED., .T., .F., .U.)
   B_SPLINE_SURFACE_WITH_KNOTS ((3, 2, 2, 2, 3), (2, 2), (0., 2.35619449019235, 4.71238898038469, 7.06858347057704, 9.42477796076938), (0., 0.50761421319797), .UNSPECIFIED.)
   GEOMETRIC_REPRESENTATION_ITEM ()
   RATIONAL_B_SPLINE_SURFACE (((1., 1.), (0.707106781186548, 0.707106781186548), (1., 1.), (0.707106781186548, 0.707106781186548), (1., 1.), (0.707106781186548, 0.707106781186548), (1., 1.), (0.707106781186548, 0.707106781186548), (1., 1.)))
   REPRESENTATION_ITEM ('')
   SURFACE ()
);
#119 = CARTESIAN_POINT('', (-1.5, 1.80635402874235E-15, -28.));
#120 = CARTESIAN_POINT('', (-1.5, 2.16717651174553E-15, -33.));
#121 = CARTESIAN_POINT('', (-1.5, 1.5, -28.));
#122 = CARTESIAN_POINT('', (-1.5, 1.5, -33.));
#123 = CARTESIAN_POINT('', (9.02654932049153E-16, 1.5, -28.));
#124 = CARTESIAN_POINT('', (9.02654932049153E-16, 1.5, -33.));
#125 = CARTESIAN_POINT('', (1.5, 1.5, -28.));
#126 = CARTESIAN_POINT('', (1.5, 1.5, -33.));
#127 = CARTESIAN_POINT('', (1.5, -5.12433984245091E-16, -28.));
#128 = CARTESIAN_POINT('', (1.5, -1.51611501241915E-16, -33.));
#129 = CARTESIAN_POINT('', (1.5, -1.5, -28.));
#130 = CARTESIAN_POINT('', (1.5, -1.5, -33.));
#131 = CARTESIAN_POINT('', (-1.23243606106619E-15, -1.5, -28.));
#132 = CARTESIAN_POINT('', (-1.23243606106618E-15, -1.5, -33.));
#133 = CARTESIAN_POINT('', (-1.5, -1.5, -28.));
#134 = CARTESIAN_POINT('', (-1.5, -1.5, -33.));
#135 = CARTESIAN_POINT('', (-1.5, 1.80635402874235E-15, -28.));
#136 = CARTESIAN_POINT('', (-1.5, 2.16717651174553E-15, -33.));
#137 = ADVANCED_FACE('', (#138), #141, .T.);
#138 = FACE_OUTER_BOUND('', #139, .T.);
#139 = EDGE_LOOP('', (#140));
#140 = ORIENTED_EDGE('', *, *, #102, .T.);
#141 = B_SPLINE_SURFACE_WITH_KNOTS('', 1, 1, ((#142, #143), (#144, #145)), .UNSPECIFIED., .F., .F., .U., (2, 2), (2, 2), (0.49483818500606, 0.534068113855887), (0.465931886144113, 0.50516181499394), .UNSPECIFIED.);
#142 = CARTESIAN_POINT('', (-1.50000000000001, 1.50000000000001, -33.));
#143 = CARTESIAN_POINT('', (-1.50000000000001, -1.49999999999999, -33.));
#144 = CARTESIAN_POINT('', (1.49999999999999, 1.50000000000001, -33.));
#145 = CARTESIAN_POINT('', (1.49999999999999, -1.49999999999999, -33.));
#146 = DRAUGHTING_MODEL('', (#154, #278, #326, #331, #336, #341, #346, #351), #365);
#147 = PRESENTATION_STYLE_ASSIGNMENT((#148));
#148 = SURFACE_STYLE_USAGE(.POSITIVE., #149);
#149 = SURFACE_SIDE_STYLE('', (#150));
#150 = SURFACE_STYLE_FILL_AREA(#151);
#151 = FILL_AREA_STYLE('', (#152));
#152 = FILL_AREA_STYLE_COLOUR('', #153);
#153 = COLOUR_RGB('', 0.50196078431373, 0.50196078431373, 0.50196078431373);
#154 = STYLED_ITEM('', (#147), #1);
#155 = MANIFOLD_SOLID_BREP('CUT', #156);
#156 = CLOSED_SHELL('', (#157, #174, #213, #262));
#157 = ADVANCED_FACE('', (#158), #169, .T.);
#158 = FACE_OUTER_BOUND('', #159, .T.);
#159 = EDGE_LOOP('', (#160));
#160 = ORIENTED_EDGE('', *, *, #161, .F.);
#161 = EDGE_CURVE('', #162, #162, #164, .T.);
#162 = VERTEX_POINT('', #163);
#163 = CARTESIAN_POINT('', (-1.5, 2.11251572852918E-15, -33.));
#164 = CIRCLE('', #165, 1.5);
#165 = AXIS2_PLACEMENT_3D('', #166, #167, #168);
#166 = CARTESIAN_POINT('', (2.4980018054066E-16, 4.9960036108132E-16, -33.));
#167 = DIRECTION('', (0., 0., -1.));
#168 = DIRECTION('', (-1., 1.07527691163191E-15, 0.));
#169 = B_SPLINE_SURFACE_WITH_KNOTS('', 1, 1, ((#170, #171), (#172, #173)), .UNSPECIFIED., .F., .F., .U., (2, 2), (2, 2), (0.465931886144113, 0.50516181499394), (0.49483818500606, 0.534068113855887), .UNSPECIFIED.);
#170 = CARTESIAN_POINT('', (-1.50000000000001, 1.5, -33.));
#171 = CARTESIAN_POINT('', (1.5, 1.5, -33.));
#172 = CARTESIAN_POINT('', (-1.50000000000001, -1.50000000000001, -33.));
#173 = CARTESIAN_POINT('', (1.5, -1.50000000000001, -33.));
#174 = ADVANCED_FACE('', (#175), #194, .T.);
#175 = FACE_OUTER_BOUND('', #176, .T.);
#176 = EDGE_LOOP('', (#177, #178, #186, #193));
#177 = ORIENTED_EDGE('', *, *, #161, .T.);
#178 = ORIENTED_EDGE('', *, *, #179, .T.);
#179 = EDGE_CURVE('', #162, #180, #182, .T.);
#180 = VERTEX_POINT('', #181);
#181 = CARTESIAN_POINT('', (-1.5, 2.40949257732242E-15, -37.85));
#182 = LINE('', #183, #184);
#183 = CARTESIAN_POINT('', (-1.5, 2.11251572852918E-15, -33.));
#184 = VECTOR('', #185, 4.85);
#185 = DIRECTION('', (0., 2.9697684879324E-16, -4.85));
#186 = ORIENTED_EDGE('', *, *, #187, .F.);
#187 = EDGE_CURVE('', #180, #180, #188, .T.);
#188 = CIRCLE('', #189, 1.5);
#189 = AXIS2_PLACEMENT_3D('', #190, #191, #192);
#190 = CARTESIAN_POINT('', (-2.84494650060196E-16, 1.19348975147204E-15, -37.85));
#191 = DIRECTION('', (0., 0., -1.));
#192 = DIRECTION('', (-1., 8.10668550566918E-16, 0.));
#193 = ORIENTED_EDGE('', *, *, #179, .F.);
#194 = (
   BOUNDED_SURFACE ()
   B_SPLINE_SURFACE (2, 1, ((#195, #196), (#197, #198), (#199, #200), (#201, #202), (#203, #204), (#205, #206), (#207, #208), (#209, #210), (#211, #212)), .UNSPECIFIED., .T., .F., .U.)
   B_SPLINE_SURFACE_WITH_KNOTS ((3, 2, 2, 2, 3), (2, 2), (0., 2.35619449019235, 4.71238898038469, 7.06858347057704, 9.42477796076938), (0.50761421319797, 1.), .UNSPECIFIED.)
   GEOMETRIC_REPRESENTATION_ITEM ()
   RATIONAL_B_SPLINE_SURFACE (((1., 1.), (0.707106781186548, 0.707106781186548), (1., 1.), (0.707106781186548, 0.707106781186548), (1., 1.), (0.707106781186548, 0.707106781186548), (1., 1.), (0.707106781186548, 0.707106781186548), (1., 1.)))
   REPRESENTATION_ITEM ('')
   SURFACE ()
);
#195 = CARTESIAN_POINT('', (-1.5, 2.11251572852918E-15, -33.));
#196 = CARTESIAN_POINT('', (-1.5, 2.39007148468547E-15, -37.85));
#197 = CARTESIAN_POINT('', (-1.5, 1.5, -33.));
#198 = CARTESIAN_POINT('', (-1.5, 1.5, -37.85));
#199 = CARTESIAN_POINT('', (1.05616096595002E-15, 1.5, -33.));
#200 = CARTESIAN_POINT('', (1.05616096595002E-15, 1.5, -37.85));
#201 = CARTESIAN_POINT('', (1.5, 1.5, -33.));
#202 = CARTESIAN_POINT('', (1.5, 1.5, -37.85));
#203 = CARTESIAN_POINT('', (1.5, -9.69507180255689E-17, -33.));
#204 = CARTESIAN_POINT('', (1.5, 1.8060503813072E-16, -37.85));
#205 = CARTESIAN_POINT('', (1.5, -1.5, -33.));
#206 = CARTESIAN_POINT('', (1.5, -1.5, -37.85));
#207 = CARTESIAN_POINT('', (-9.69608460732622E-16, -1.5, -33.));
#208 = CARTESIAN_POINT('', (-9.69608460732622E-16, -1.5, -37.85));
#209 = CARTESIAN_POINT('', (-1.5, -1.5, -33.));
#210 = CARTESIAN_POINT('', (-1.5, -1.5, -37.85));
#211 = CARTESIAN_POINT('', (-1.5, 2.11251572852918E-15, -33.));
#212 = CARTESIAN_POINT('', (-1.5, 2.39007148468547E-15, -37.85));
#213 = ADVANCED_FACE('', (#214), #234, .T.);
#214 = FACE_OUTER_BOUND('', #215, .T.);
#215 = EDGE_LOOP('', (#216, #225, #226, #227));
#216 = ORIENTED_EDGE('', *, *, #217, .F.);
#217 = EDGE_CURVE('', #180, #218, #220, .T.);
#218 = VERTEX_POINT('', #219);
#219 = CARTESIAN_POINT('', (-1.35, 2.40949257732242E-15, -38.));
#220 = CIRCLE('', #221, 0.149999999999994);
#221 = AXIS2_PLACEMENT_3D('', #222, #223, #224);
#222 = CARTESIAN_POINT('', (-1.35, 2.40030772632882E-15, -37.85));
#223 = DIRECTION('', (-6.12323399573478E-17, -1., -6.12323399573419E-17));
#224 = DIRECTION('', (-1., 6.12323399573449E-17, 4.73695157173404E-14));
#225 = ORIENTED_EDGE('', *, *, #187, .T.);
#226 = ORIENTED_EDGE('', *, *, #217, .T.);
#227 = ORIENTED_EDGE('', *, *, #228, .F.);
#228 = EDGE_CURVE('', #218, #218, #229, .T.);
#229 = CIRCLE('', #230, 1.35);
#230 = AXIS2_PLACEMENT_3D('', #231, #232, #233);
#231 = CARTESIAN_POINT('', (4.82253126321552E-16, 8.60422844084496E-16, -38.));
#232 = DIRECTION('', (0., 0., -1.));
#233 = DIRECTION('', (-1., 1.14745906165772E-15, 0.));
#234 = (
   BOUNDED_SURFACE ()
   B_SPLINE_SURFACE (2, 2, ((#235, #236, #237), (#238, #239, #240), (#241, #242, #243), (#244, #245, #246), (#247, #248, #249), (#250, #251, #252), (#253, #254, #255), (#256, #257, #258), (#259, #260, #261)), .UNSPECIFIED., .T., .F., .U.)
   B_SPLINE_SURFACE_WITH_KNOTS ((3, 2, 2, 2, 3), (3, 3), (0., 0.25, 0.5, 0.75, 1.), (0., 1.), .UNSPECIFIED.)
   GEOMETRIC_REPRESENTATION_ITEM ()
   RATIONAL_B_SPLINE_SURFACE (((1., 0.707106781186544, 1.), (0.707106781186548, 0.499999999999998, 0.707106781186548), (1., 0.707106781186544, 1.), (0.707106781186548, 0.499999999999998, 0.707106781186548), (1., 0.707106781186544, 1.), (0.707106781186548, 0.499999999999998, 0.707106781186548), (1., 0.707106781186544, 1.), (0.707106781186548, 0.499999999999998, 0.707106781186548), (1., 0.707106781186544, 1.)))
   REPRESENTATION_ITEM ('')
   SURFACE ()
);
#235 = CARTESIAN_POINT('', (-1.5, 2.40949257732242E-15, -37.85));
#236 = CARTESIAN_POINT('', (-1.5, 2.41867742831602E-15, -38.));
#237 = CARTESIAN_POINT('', (-1.35, 2.40949257732242E-15, -38.));
#238 = CARTESIAN_POINT('', (-1.5, 1.5, -37.85));
#239 = CARTESIAN_POINT('', (-1.5, 1.5, -38.));
#240 = CARTESIAN_POINT('', (-1.35, 1.35, -38.));
#241 = CARTESIAN_POINT('', (1.70008250993862E-15, 1.5, -37.85));
#242 = CARTESIAN_POINT('', (1.70926736093223E-15, 1.5, -38.));
#243 = CARTESIAN_POINT('', (1.70926736093223E-15, 1.35, -38.));
#244 = CARTESIAN_POINT('', (1.5, 1.5, -37.85));
#245 = CARTESIAN_POINT('', (1.5, 1.5, -38.));
#246 = CARTESIAN_POINT('', (1.35, 1.35, -38.));
#247 = CARTESIAN_POINT('', (1.5, -4.49438718050066E-16, -37.85));
#248 = CARTESIAN_POINT('', (1.5, -4.58623569043666E-16, -38.));
#249 = CARTESIAN_POINT('', (1.35, -4.67808420037277E-16, -38.));
#250 = CARTESIAN_POINT('', (1.5, -1.5, -37.85));
#251 = CARTESIAN_POINT('', (1.5, -1.5, -38.));
#252 = CARTESIAN_POINT('', (1.35, -1.35, -38.));
#253 = CARTESIAN_POINT('', (-9.75151765561758E-16, -1.5, -37.85));
#254 = CARTESIAN_POINT('', (-9.84336616555358E-16, -1.5, -38.));
#255 = CARTESIAN_POINT('', (-1.00270631854257E-15, -1.35, -38.));
#256 = CARTESIAN_POINT('', (-1.5, -1.5, -37.85));
#257 = CARTESIAN_POINT('', (-1.5, -1.5, -38.));
#258 = CARTESIAN_POINT('', (-1.35, -1.35, -38.));
#259 = CARTESIAN_POINT('', (-1.5, 2.40949257732242E-15, -37.85));
#260 = CARTESIAN_POINT('', (-1.5, 2.41867742831602E-15, -38.));
#261 = CARTESIAN_POINT('', (-1.35, 2.40949257732242E-15, -38.));
#262 = ADVANCED_FACE('', (#263), #266, .T.);
#263 = FACE_OUTER_BOUND('', #264, .T.);
#264 = EDGE_LOOP('', (#265));
#265 = ORIENTED_EDGE('', *, *, #228, .T.);
#266 = B_SPLINE_SURFACE_WITH_KNOTS('', 1, 1, ((#267, #268), (#269, #270)), .UNSPECIFIED., .F., .F., .U., (2, 2), (2, 2), (0.0454545454545454, 0.954545454545454), (0.0454545454545454, 0.954545454545454), .UNSPECIFIED.);
#267 = CARTESIAN_POINT('', (1.35, -1.35, -38.));
#268 = CARTESIAN_POINT('', (1.35, 1.35, -38.));
#269 = CARTESIAN_POINT('', (-1.35, -1.35, -38.));
#270 = CARTESIAN_POINT('', (-1.35, 1.35, -38.));
#271 = PRESENTATION_STYLE_ASSIGNMENT((#272));
#272 = SURFACE_STYLE_USAGE(.POSITIVE., #273);
#273 = SURFACE_SIDE_STYLE('', (#274));
#274 = SURFACE_STYLE_FILL_AREA(#275);
#275 = FILL_AREA_STYLE('', (#276));
#276 = FILL_AREA_STYLE_COLOUR('', #277);
#277 = COLOUR_RGB('', 0.8, 0.8, 0.8);
#278 = STYLED_ITEM('', (#271), #155);
#279 = TRIMMED_CURVE('cutting part line', #280, (#284), (#285), .T., .CARTESIAN.);
#280 = LINE('', #281, #282);
#281 = CARTESIAN_POINT('', (2.0122792321331E-16, 0., -38.));
#282 = VECTOR('', #283, 1.35);
#283 = DIRECTION('', (1.35, 0., 0.));
#284 = CARTESIAN_POINT('', (2.0122792321331E-16, 0., -38.));
#285 = CARTESIAN_POINT('', (1.35, 0., -38.));
#286 = TRIMMED_CURVE('cutting part line', #287, (#292), (#293), .T., .CARTESIAN.);
#287 = CIRCLE('', #288, 0.150000000000012);
#288 = AXIS2_PLACEMENT_3D('', #289, #290, #291);
#289 = CARTESIAN_POINT('', (1.34999999999999, 1.01072725766004E-15, -37.85));
#290 = DIRECTION('', (1.15648231731787E-15, -1., 6.93889390390734E-17));
#291 = DIRECTION('', (4.58892183511692E-14, -6.93889390390204E-17, -1.));
#292 = CARTESIAN_POINT('', (1.35, 1.00031891680419E-15, -38.));
#293 = CARTESIAN_POINT('', (1.50000000000001, 1.18419960525774E-15, -37.85));
#294 = TRIMMED_CURVE('cutting part line', #295, (#299), (#300), .T., .CARTESIAN.);
#295 = LINE('', #296, #297);
#296 = CARTESIAN_POINT('', (1.5, 2.77513483070255E-16, -37.85));
#297 = VECTOR('', #298, 4.85);
#298 = DIRECTION('', (0., -2.77513483070255E-16, 4.85));
#299 = CARTESIAN_POINT('', (1.5, 2.77513483070255E-16, -37.85));
#300 = CARTESIAN_POINT('', (1.5, 0., -33.));
#301 = TRIMMED_CURVE('cutting part line', #302, (#306), (#307), .T., .CARTESIAN.);
#302 = LINE('', #303, #304);
#303 = CARTESIAN_POINT('', (1.5, 0., -33.));
#304 = VECTOR('', #305, 1.5);
#305 = DIRECTION('', (-1.5, 0., -7.105427357601E-15));
#306 = CARTESIAN_POINT('', (1.5, 0., -33.));
#307 = CARTESIAN_POINT('', (-6.93889390390723E-18, 0., -33.));
#308 = TRIMMED_CURVE('cutting part line', #309, (#313), (#314), .T., .CARTESIAN.);
#309 = LINE('', #310, #311);
#310 = CARTESIAN_POINT('', (0., 0., -33.));
#311 = VECTOR('', #312, 5.);
#312 = DIRECTION('', (0., 0., -5.));
#313 = CARTESIAN_POINT('', (0., 0., -33.));
#314 = CARTESIAN_POINT('', (0., 0., -38.));
#315 = COMPOSITE_CURVE('cutting part line', (#316, #317, #318, #319, #320), .U.);
#316 = COMPOSITE_CURVE_SEGMENT(.CONTINUOUS., .T., #279);
#317 = COMPOSITE_CURVE_SEGMENT(.CONTINUOUS., .T., #286);
#318 = COMPOSITE_CURVE_SEGMENT(.CONTINUOUS., .T., #294);
#319 = COMPOSITE_CURVE_SEGMENT(.CONTINUOUS., .T., #301);
#320 = COMPOSITE_CURVE_SEGMENT(.CONTINUOUS., .T., #308);
#321 = GEOMETRIC_SET('', (#315, #364));
#322 = PRESENTATION_STYLE_ASSIGNMENT((#323));
#323 = CURVE_STYLE('', #325, POSITIVE_LENGTH_MEASURE(1.E-6), #324);
#324 = COLOUR_RGB('', 0., 0., 1.);
#325 = DRAUGHTING_PRE_DEFINED_CURVE_FONT('continuous');
#326 = STYLED_ITEM('', (#322), #315);
#327 = PRESENTATION_STYLE_ASSIGNMENT((#328));
#328 = CURVE_STYLE('', #330, POSITIVE_LENGTH_MEASURE(1.E-6), #329);
#329 = COLOUR_RGB('', 0., 0., 1.);
#330 = DRAUGHTING_PRE_DEFINED_CURVE_FONT('continuous');
#331 = OVER_RIDING_STYLED_ITEM('', (#327), #279, #326);
#332 = PRESENTATION_STYLE_ASSIGNMENT((#333));
#333 = CURVE_STYLE('', #335, POSITIVE_LENGTH_MEASURE(1.E-6), #334);
#334 = COLOUR_RGB('', 0., 0., 1.);
#335 = DRAUGHTING_PRE_DEFINED_CURVE_FONT('continuous');
#336 = OVER_RIDING_STYLED_ITEM('', (#332), #286, #326);
#337 = PRESENTATION_STYLE_ASSIGNMENT((#338));
#338 = CURVE_STYLE('', #340, POSITIVE_LENGTH_MEASURE(1.E-6), #339);
#339 = COLOUR_RGB('', 0., 0., 1.);
#340 = DRAUGHTING_PRE_DEFINED_CURVE_FONT('continuous');
#341 = OVER_RIDING_STYLED_ITEM('', (#337), #294, #326);
#342 = PRESENTATION_STYLE_ASSIGNMENT((#343));
#343 = CURVE_STYLE('', #345, POSITIVE_LENGTH_MEASURE(1.E-6), #344);
#344 = COLOUR_RGB('', 0., 0., 1.);
#345 = DRAUGHTING_PRE_DEFINED_CURVE_FONT('continuous');
#346 = OVER_RIDING_STYLED_ITEM('', (#342), #301, #326);
#347 = PRESENTATION_STYLE_ASSIGNMENT((#348));
#348 = CURVE_STYLE('', #350, POSITIVE_LENGTH_MEASURE(1.E-6), #349);
#349 = COLOUR_RGB('', 0., 0., 1.);
#350 = DRAUGHTING_PRE_DEFINED_CURVE_FONT('continuous');
#351 = OVER_RIDING_STYLED_ITEM('', (#347), #308, #326);
#352 = AXIS2_PLACEMENT_3D('MCS', #353, #354, #355);
#353 = CARTESIAN_POINT('', (0., 0., -28.));
#354 = DIRECTION('', (0., 0., 1.));
#355 = DIRECTION('', (1., 0., 0.));
#356 = AXIS2_PLACEMENT_3D('PCS', #357, #358, #359);
#357 = CARTESIAN_POINT('', (0., 0., 0.));
#358 = DIRECTION('', (0., 0., 1.));
#359 = DIRECTION('', (1., 0., 0.));
#360 = AXIS2_PLACEMENT_3D('CIP', #361, #362, #363);
#361 = CARTESIAN_POINT('', (0., 0., -38.));
#362 = DIRECTION('', (0., 0., 1.));
#363 = DIRECTION('', (1., 0., 0.));
#364 = CARTESIAN_POINT('CRP', (1.5, 0., -38.));
#365 = (
   GEOMETRIC_REPRESENTATION_CONTEXT (3)
   GLOBAL_UNCERTAINTY_ASSIGNED_CONTEXT ((#367))
   GLOBAL_UNIT_ASSIGNED_CONTEXT ((#366, #368, #369))
   REPRESENTATION_CONTEXT ('', '3D')
);
#366 = (
   LENGTH_UNIT ()
   NAMED_UNIT (*)
   SI_UNIT (.MILLI., .METRE.)
);
#367 = UNCERTAINTY_MEASURE_WITH_UNIT(LENGTH_MEASURE(1.E-6), #366, 'DISTANCE_ACCURACY_VALUE', '');
#368 = (
   NAMED_UNIT (*)
   SI_UNIT ($, .STERADIAN.)
   SOLID_ANGLE_UNIT ()
);
#369 = (
   NAMED_UNIT (*)
   PLANE_ANGLE_UNIT ()
   SI_UNIT ($, .RADIAN.)
);
#370 = SHAPE_REPRESENTATION('', (), #365);
#371 = PRODUCT_DEFINITION_SHAPE('', '', #372);
#372 = PRODUCT_DEFINITION('', '', #375, #379);
#373 = APPLICATION_CONTEXT('configuration controlled 3D designs of mechanical parts and assemblies');
#374 = APPLICATION_PROTOCOL_DEFINITION('International Standard', 'automotive_design', 2002, #373);
#375 = PRODUCT_DEFINITION_FORMATION_WITH_SPECIFIED_SOURCE('', '', #376, .NOT_KNOWN.);
#376 = PRODUCT('product-name', '2P232-0300-NA       H10F', '', (#377));
#377 = PRODUCT_CONTEXT('', #373, 'mechanical');
#378 = PRODUCT_RELATED_PRODUCT_CATEGORY('detail', '', (#376));
#379 = PRODUCT_DEFINITION_CONTEXT('part definition', #373, 'design');
#380 = SHAPE_DEFINITION_REPRESENTATION(#371, #370);
#381 = CONSTRUCTIVE_GEOMETRY_REPRESENTATION('supplemental geometry', (#352, #356, #360), #365);
#382 = CONSTRUCTIVE_GEOMETRY_REPRESENTATION_RELATIONSHIP('', '', #370, #381);
#383 = SHAPE_REPRESENTATION_RELATIONSHIP('', '', #370, #384);
#384 = SHAPE_REPRESENTATION('', (#321), #365);
#385 = SHAPE_REPRESENTATION_RELATIONSHIP('', '', #370, #386);
#386 = ADVANCED_BREP_SHAPE_REPRESENTATION('', (#1, #155), #365);
ENDSEC;
END-ISO-10303-21;
