ISO-10303-21;
HEADER;
FILE_DESCRIPTION(('STEP'), '1');
FILE_NAME('C:\\Users\\ds2002\\OneDrive - Sandvik\\HomeShare\\Documents\\Batchrepair\\CorSRT2\\NEW_MILSQ_SLD\\Output\\MOD000000000000000020082313000000.stp', '2019-01-02T12:05:51', (''), (''), 'Express v3.0.0.0', 'Express Tool', 'Unknown');
FILE_SCHEMA(('AUTOMOTIVE_DESIGN'));
ENDSEC;

DATA;
#1 = MANIFOLD_SOLID_BREP('NOCUT', #2);
#2 = CLOSED_SHELL('', (#3, #50, #89, #128, #167, #206, #215));
#3 = ADVANCED_FACE('', (#4), #31, .T.);
#4 = FACE_OUTER_BOUND('', #5, .T.);
#5 = EDGE_LOOP('', (#6, #16, #23, #24));
#6 = ORIENTED_EDGE('', *, *, #7, .F.);
#7 = EDGE_CURVE('', #8, #10, #12, .T.);
#8 = VERTEX_POINT('', #9);
#9 = CARTESIAN_POINT('', (-0.38, 3.64638584446124E-15, -59.17));
#10 = VERTEX_POINT('', #11);
#11 = CARTESIAN_POINT('', (-0.4, 3.64944746145911E-15, -59.2));
#12 = LINE('', #13, #14);
#13 = CARTESIAN_POINT('', (-0.38, 3.64638584446124E-15, -59.17));
#14 = VECTOR('', #15, 0.0360555127546408);
#15 = DIRECTION('', (-0.02, 3.06161699787011E-18, -0.0300000000000011));
#16 = ORIENTED_EDGE('', *, *, #17, .T.);
#17 = EDGE_CURVE('', #8, #8, #18, .T.);
#18 = CIRCLE('', #19, 0.38);
#19 = AXIS2_PLACEMENT_3D('', #20, #21, #22);
#20 = CARTESIAN_POINT('', (2.42861286636753E-17, 3.57353036051222E-15, -59.17));
#21 = DIRECTION('', (-1.22015729429306E-29, -6.36410255892093E-14, -1.));
#22 = DIRECTION('', (-1., 1.91724957760572E-16, 0.));
#23 = ORIENTED_EDGE('', *, *, #7, .T.);
#24 = ORIENTED_EDGE('', *, *, #25, .F.);
#25 = EDGE_CURVE('', #10, #10, #26, .T.);
#26 = CIRCLE('', #27, 0.4);
#27 = AXIS2_PLACEMENT_3D('', #28, #29, #30);
#28 = CARTESIAN_POINT('', (2.08166817117217E-17, 3.72618602639818E-15, -59.2));
#29 = DIRECTION('', (0., 0., -1.));
#30 = DIRECTION('', (-1., -1.91846412347679E-16, 0.));
#31 = (
   BOUNDED_SURFACE ()
   B_SPLINE_SURFACE (2, 1, ((#32, #33), (#34, #35), (#36, #37), (#38, #39), (#40, #41), (#42, #43), (#44, #45), (#46, #47), (#48, #49)), .UNSPECIFIED., .T., .F., .U.)
   B_SPLINE_SURFACE_WITH_KNOTS ((3, 2, 2, 2, 3), (2, 2), (0., 0.25, 0.5, 0.75, 1.), (0., 1.), .UNSPECIFIED.)
   GEOMETRIC_REPRESENTATION_ITEM ()
   RATIONAL_B_SPLINE_SURFACE (((1., 1.), (0.707106781186548, 0.707106781186548), (1., 1.), (0.707106781186548, 0.707106781186548), (1., 1.), (0.707106781186548, 0.707106781186548), (1., 1.), (0.707106781186548, 0.707106781186548), (1., 1.)))
   REPRESENTATION_ITEM ('')
   SURFACE ()
);
#32 = CARTESIAN_POINT('', (-0.38, 3.64638584446124E-15, -59.17));
#33 = CARTESIAN_POINT('', (-0.4, 3.45958336373016E-15, -59.2));
#34 = CARTESIAN_POINT('', (-0.38, 0.380000000000004, -59.17));
#35 = CARTESIAN_POINT('', (-0.4, 0.400000000000004, -59.2));
#36 = CARTESIAN_POINT('', (-2.24499114439118E-16, 0.380000000000004, -59.17));
#37 = CARTESIAN_POINT('', (-2.39053894371666E-16, 0.400000000000004, -59.2));
#38 = CARTESIAN_POINT('', (0.38, 0.380000000000004, -59.17));
#39 = CARTESIAN_POINT('', (0.4, 0.400000000000004, -59.2));
#40 = CARTESIAN_POINT('', (0.38, 4.19946748189808E-15, -59.17));
#41 = CARTESIAN_POINT('', (0.4, 4.0417745610321E-15, -59.2));
#42 = CARTESIAN_POINT('', (0.38, -0.379999999999996, -59.17));
#43 = CARTESIAN_POINT('', (0.4, -0.399999999999996, -59.2));
#44 = CARTESIAN_POINT('', (3.75119101365326E-16, -0.379999999999996, -59.17));
#45 = CARTESIAN_POINT('', (3.92123174896169E-16, -0.399999999999996, -59.2));
#46 = CARTESIAN_POINT('', (-0.38, -0.379999999999996, -59.17));
#47 = CARTESIAN_POINT('', (-0.4, -0.399999999999997, -59.2));
#48 = CARTESIAN_POINT('', (-0.38, 3.64638584446124E-15, -59.17));
#49 = CARTESIAN_POINT('', (-0.4, 3.45958336373016E-15, -59.2));
#50 = ADVANCED_FACE('', (#51), #70, .T.);
#51 = FACE_OUTER_BOUND('', #52, .T.);
#52 = EDGE_LOOP('', (#53, #61, #68, #69));
#53 = ORIENTED_EDGE('', *, *, #54, .F.);
#54 = EDGE_CURVE('', #55, #8, #57, .T.);
#55 = VERTEX_POINT('', #56);
#56 = CARTESIAN_POINT('', (-0.379999999999999, 3.45227932679639E-15, -56.));
#57 = LINE('', #58, #59);
#58 = CARTESIAN_POINT('', (-0.38, 3.45227932679639E-15, -56.));
#59 = VECTOR('', #60, 3.17);
#60 = DIRECTION('', (0., 1.9410651766485E-16, -3.17));
#61 = ORIENTED_EDGE('', *, *, #62, .T.);
#62 = EDGE_CURVE('', #55, #55, #63, .T.);
#63 = CIRCLE('', #64, 0.38);
#64 = AXIS2_PLACEMENT_3D('', #65, #66, #67);
#65 = CARTESIAN_POINT('', (-1.56125112837913E-17, 3.54577478489659E-15, -56.));
#66 = DIRECTION('', (-1.56582811616578E-29, 6.36410255892098E-14, -1.));
#67 = DIRECTION('', (-1., -2.46040679211062E-16, 0.));
#68 = ORIENTED_EDGE('', *, *, #54, .T.);
#69 = ORIENTED_EDGE('', *, *, #17, .F.);
#70 = (
   BOUNDED_SURFACE ()
   B_SPLINE_SURFACE (2, 1, ((#71, #72), (#73, #74), (#75, #76), (#77, #78), (#79, #80), (#81, #82), (#83, #84), (#85, #86), (#87, #88)), .UNSPECIFIED., .T., .F., .U.)
   B_SPLINE_SURFACE_WITH_KNOTS ((3, 2, 2, 2, 3), (2, 2), (0., 0.59690260418206, 1.19380520836412, 1.79070781254618, 2.38761041672824), (0., 1.), .UNSPECIFIED.)
   GEOMETRIC_REPRESENTATION_ITEM ()
   RATIONAL_B_SPLINE_SURFACE (((1., 1.), (0.707106781186548, 0.707106781186548), (1., 1.), (0.707106781186548, 0.707106781186548), (1., 1.), (0.707106781186548, 0.707106781186548), (1., 1.), (0.707106781186548, 0.707106781186548), (1., 1.)))
   REPRESENTATION_ITEM ('')
   SURFACE ()
);
#71 = CARTESIAN_POINT('', (-0.38, 3.45227932679639E-15, -56.));
#72 = CARTESIAN_POINT('', (-0.38, 4.13922982328321E-15, -59.17));
#73 = CARTESIAN_POINT('', (-0.379999999999999, 0.380000000000003, -56.));
#74 = CARTESIAN_POINT('', (-0.379999999999999, 0.380000000000004, -59.17));
#75 = CARTESIAN_POINT('', (6.11820112626256E-16, 0.380000000000003, -56.));
#76 = CARTESIAN_POINT('', (6.11820112626256E-16, 0.380000000000004, -59.17));
#77 = CARTESIAN_POINT('', (0.380000000000001, 0.380000000000002, -56.));
#78 = CARTESIAN_POINT('', (0.380000000000001, 0.380000000000003, -59.17));
#79 = CARTESIAN_POINT('', (0.38, 2.36741697962202E-15, -56.));
#80 = CARTESIAN_POINT('', (0.38, 3.05436747610884E-15, -59.17));
#81 = CARTESIAN_POINT('', (0.38, -0.379999999999998, -56.));
#82 = CARTESIAN_POINT('', (0.38, -0.379999999999997, -59.17));
#83 = CARTESIAN_POINT('', (-4.26505656180512E-16, -0.379999999999997, -56.));
#84 = CARTESIAN_POINT('', (-4.2650565618051E-16, -0.379999999999996, -59.17));
#85 = CARTESIAN_POINT('', (-0.38, -0.379999999999997, -56.));
#86 = CARTESIAN_POINT('', (-0.38, -0.379999999999996, -59.17));
#87 = CARTESIAN_POINT('', (-0.38, 3.45227932679639E-15, -56.));
#88 = CARTESIAN_POINT('', (-0.38, 4.13922982328321E-15, -59.17));
#89 = ADVANCED_FACE('', (#90), #109, .T.);
#90 = FACE_OUTER_BOUND('', #91, .T.);
#91 = EDGE_LOOP('', (#92, #100, #107, #108));
#92 = ORIENTED_EDGE('', *, *, #93, .F.);
#93 = EDGE_CURVE('', #94, #55, #96, .T.);
#94 = VERTEX_POINT('', #95);
#95 = CARTESIAN_POINT('', (-1.5, 3.39839486763391E-15, -54.));
#96 = LINE('', #97, #98);
#97 = CARTESIAN_POINT('', (-1.5, 3.39839486763391E-15, -54.));
#98 = VECTOR('', #99, 2.2922478051031);
#99 = DIRECTION('', (1.12, 5.38844591624802E-17, -2.));
#100 = ORIENTED_EDGE('', *, *, #101, .T.);
#101 = EDGE_CURVE('', #94, #94, #102, .T.);
#102 = CIRCLE('', #103, 1.5);
#103 = AXIS2_PLACEMENT_3D('', #104, #105, #106);
#104 = CARTESIAN_POINT('', (3.33066907387547E-16, 1.11022302462516E-15, -54.));
#105 = DIRECTION('', (0., 0., -1.));
#106 = DIRECTION('', (-1., 1.52544789533917E-15, 0.));
#107 = ORIENTED_EDGE('', *, *, #93, .T.);
#108 = ORIENTED_EDGE('', *, *, #62, .F.);
#109 = (
   BOUNDED_SURFACE ()
   B_SPLINE_SURFACE (2, 1, ((#110, #111), (#112, #113), (#114, #115), (#116, #117), (#118, #119), (#120, #121), (#122, #123), (#124, #125), (#126, #127)), .UNSPECIFIED., .T., .F., .U.)
   B_SPLINE_SURFACE_WITH_KNOTS ((3, 2, 2, 2, 3), (2, 2), (0., 0.25, 0.5, 0.75, 1.), (0., 1.), .UNSPECIFIED.)
   GEOMETRIC_REPRESENTATION_ITEM ()
   RATIONAL_B_SPLINE_SURFACE (((1., 1.), (0.707106781186548, 0.707106781186548), (1., 1.), (0.707106781186548, 0.707106781186548), (1., 1.), (0.707106781186548, 0.707106781186548), (1., 1.), (0.707106781186548, 0.707106781186548), (1., 1.)))
   REPRESENTATION_ITEM ('')
   SURFACE ()
);
#110 = CARTESIAN_POINT('', (-1.5, 3.39839486763391E-15, -54.));
#111 = CARTESIAN_POINT('', (-0.379999999999999, 4.12544498512548E-15, -56.));
#112 = CARTESIAN_POINT('', (-1.5, 1.5, -54.));
#113 = CARTESIAN_POINT('', (-0.379999999999999, 0.380000000000004, -56.));
#114 = CARTESIAN_POINT('', (2.52939024046025E-15, 1.5, -54.));
#115 = CARTESIAN_POINT('', (8.89468818432635E-16, 0.380000000000003, -56.));
#116 = CARTESIAN_POINT('', (1.5, 1.5, -54.));
#117 = CARTESIAN_POINT('', (0.38, 0.380000000000003, -56.));
#118 = CARTESIAN_POINT('', (1.5, -9.94251798511493E-16, -54.));
#119 = CARTESIAN_POINT('', (0.38, 3.01264116303531E-15, -56.));
#120 = CARTESIAN_POINT('', (1.5, -1.5, -54.));
#121 = CARTESIAN_POINT('', (0.379999999999999, -0.379999999999997, -56.));
#122 = CARTESIAN_POINT('', (-1.67955940581305E-15, -1.5, -54.));
#123 = CARTESIAN_POINT('', (-1.76798425289934E-16, -0.379999999999996, -56.));
#124 = CARTESIAN_POINT('', (-1.5, -1.5, -54.));
#125 = CARTESIAN_POINT('', (-0.38, -0.379999999999996, -56.));
#126 = CARTESIAN_POINT('', (-1.5, 3.39839486763391E-15, -54.));
#127 = CARTESIAN_POINT('', (-0.379999999999999, 4.12544498512548E-15, -56.));
#128 = ADVANCED_FACE('', (#129), #148, .T.);
#129 = FACE_OUTER_BOUND('', #130, .T.);
#130 = EDGE_LOOP('', (#131, #139, #146, #147));
#131 = ORIENTED_EDGE('', *, *, #132, .T.);
#132 = EDGE_CURVE('', #94, #133, #135, .T.);
#133 = VERTEX_POINT('', #134);
#134 = CARTESIAN_POINT('', (-1.5, 1.01033360929657E-16, -0.149999999999999));
#135 = LINE('', #136, #137);
#136 = CARTESIAN_POINT('', (-1.5, 3.39839486763391E-15, -54.));
#137 = VECTOR('', #138, 53.85);
#138 = DIRECTION('', (0., -3.29736150670425E-15, 53.85));
#139 = ORIENTED_EDGE('', *, *, #140, .T.);
#140 = EDGE_CURVE('', #133, #133, #141, .T.);
#141 = CIRCLE('', #142, 1.5);
#142 = AXIS2_PLACEMENT_3D('', #143, #144, #145);
#143 = CARTESIAN_POINT('', (1.52655665885959E-16, -3.60822483003176E-16, -0.149999999999999));
#144 = DIRECTION('', (0., 0., -1.));
#145 = DIRECTION('', (-1., 3.07903895955222E-16, 0.));
#146 = ORIENTED_EDGE('', *, *, #132, .F.);
#147 = ORIENTED_EDGE('', *, *, #101, .F.);
#148 = (
   BOUNDED_SURFACE ()
   B_SPLINE_SURFACE (1, 2, ((#149, #150, #151, #152, #153, #154, #155, #156, #157), (#158, #159, #160, #161, #162, #163, #164, #165, #166)), .UNSPECIFIED., .F., .T., .U.)
   B_SPLINE_SURFACE_WITH_KNOTS ((2, 2), (3, 2, 2, 2, 3), (0., 1.), (0., 2.35619449019235, 4.71238898038469, 7.06858347057704, 9.42477796076938), .UNSPECIFIED.)
   GEOMETRIC_REPRESENTATION_ITEM ()
   RATIONAL_B_SPLINE_SURFACE (((1., 0.707106781186548, 1., 0.707106781186548, 1., 0.707106781186548, 1., 0.707106781186548, 1.), (1., 0.707106781186548, 1., 0.707106781186548, 1., 0.707106781186548, 1., 0.707106781186548, 1.)))
   REPRESENTATION_ITEM ('')
   SURFACE ()
);
#149 = CARTESIAN_POINT('', (-1.5, 2.07167922963931E-15, -54.));
#150 = CARTESIAN_POINT('', (-1.5, 1.5, -54.));
#151 = CARTESIAN_POINT('', (5.22662999882741E-16, 1.5, -54.));
#152 = CARTESIAN_POINT('', (1.5, 1.5, -54.));
#153 = CARTESIAN_POINT('', (1.5, 1.33166456164575E-15, -54.));
#154 = CARTESIAN_POINT('', (1.5, -1.5, -54.));
#155 = CARTESIAN_POINT('', (-3.36546482387188E-17, -1.5, -54.));
#156 = CARTESIAN_POINT('', (-1.5, -1.5, -54.));
#157 = CARTESIAN_POINT('', (-1.5, 2.07167922963931E-15, -54.));
#158 = CARTESIAN_POINT('', (-1.5, 1.01033360929657E-16, -0.149999999999999));
#159 = CARTESIAN_POINT('', (-1.5, 1.5, -0.149999999999999));
#160 = CARTESIAN_POINT('', (5.2266299988274E-16, 1.5, -0.149999999999999));
#161 = CARTESIAN_POINT('', (1.5, 1.5, -0.149999999999999));
#162 = CARTESIAN_POINT('', (1.5, -6.38981307063906E-16, -0.149999999999999));
#163 = CARTESIAN_POINT('', (1.5, -1.5, -0.149999999999999));
#164 = CARTESIAN_POINT('', (-3.36546482387193E-17, -1.5, -0.149999999999999));
#165 = CARTESIAN_POINT('', (-1.5, -1.5, -0.149999999999999));
#166 = CARTESIAN_POINT('', (-1.5, 1.01033360929657E-16, -0.149999999999999));
#167 = ADVANCED_FACE('', (#168), #187, .T.);
#168 = FACE_OUTER_BOUND('', #169, .T.);
#169 = EDGE_LOOP('', (#170, #178, #185, #186));
#170 = ORIENTED_EDGE('', *, *, #171, .T.);
#171 = EDGE_CURVE('', #133, #172, #174, .T.);
#172 = VERTEX_POINT('', #173);
#173 = CARTESIAN_POINT('', (-1.35, 8.26636589424463E-17, 0.));
#174 = LINE('', #175, #176);
#175 = CARTESIAN_POINT('', (-1.5, 1.01033360929657E-16, -0.149999999999999));
#176 = VECTOR('', #177, 0.212132034355963);
#177 = DIRECTION('', (0.15, -1.83697019872107E-17, 0.149999999999999));
#178 = ORIENTED_EDGE('', *, *, #179, .T.);
#179 = EDGE_CURVE('', #172, #172, #180, .T.);
#180 = CIRCLE('', #181, 1.35);
#181 = AXIS2_PLACEMENT_3D('', #182, #183, #184);
#182 = CARTESIAN_POINT('', (4.61436444609831E-16, -6.38378239159465E-16, -7.7875102531819E-16));
#183 = DIRECTION('', (-5.76852611346806E-16, 1.6649441676109E-15, -1.));
#184 = DIRECTION('', (-1., 5.34105109705119E-16, 5.76852611346807E-16));
#185 = ORIENTED_EDGE('', *, *, #171, .F.);
#186 = ORIENTED_EDGE('', *, *, #140, .F.);
#187 = (
   BOUNDED_SURFACE ()
   B_SPLINE_SURFACE (1, 2, ((#188, #189, #190, #191, #192, #193, #194, #195, #196), (#197, #198, #199, #200, #201, #202, #203, #204, #205)), .UNSPECIFIED., .F., .T., .U.)
   B_SPLINE_SURFACE_WITH_KNOTS ((2, 2), (3, 2, 2, 2, 3), (0., 1.), (0., 0.25, 0.5, 0.75, 1.), .UNSPECIFIED.)
   GEOMETRIC_REPRESENTATION_ITEM ()
   RATIONAL_B_SPLINE_SURFACE (((1., 0.707106781186548, 1., 0.707106781186548, 1., 0.707106781186548, 1., 0.707106781186548, 1.), (1., 0.707106781186548, 1., 0.707106781186548, 1., 0.707106781186548, 1., 0.707106781186548, 1.)))
   REPRESENTATION_ITEM ('')
   SURFACE ()
);
#188 = CARTESIAN_POINT('', (-1.5, 7.45646513326421E-16, -0.149999999999998));
#189 = CARTESIAN_POINT('', (-1.5, 1.5, -0.149999999999992));
#190 = CARTESIAN_POINT('', (1.08421770752944E-15, 1.5, -0.149999999999993));
#191 = CARTESIAN_POINT('', (1.5, 1.5, -0.149999999999994));
#192 = CARTESIAN_POINT('', (1.5, -6.72971795916834E-16, -0.15));
#193 = CARTESIAN_POINT('', (1.5, -1.5, -0.150000000000006));
#194 = CARTESIAN_POINT('', (-1.50703581841717E-16, -1.5, -0.150000000000005));
#195 = CARTESIAN_POINT('', (-1.5, -1.5, -0.150000000000004));
#196 = CARTESIAN_POINT('', (-1.5, 7.45646513326421E-16, -0.149999999999998));
#197 = CARTESIAN_POINT('', (-1.35, 8.2663658942446E-17, -2.95822839457879E-31));
#198 = CARTESIAN_POINT('', (-1.35, 1.35, 5.24580379135393E-15));
#199 = CARTESIAN_POINT('', (1.0998146837693E-15, 1.35, 4.46705276603574E-15));
#200 = CARTESIAN_POINT('', (1.35, 1.35, 3.68830174071755E-15));
#201 = CARTESIAN_POINT('', (1.35, -1.19409281937648E-15, -1.55750205063638E-15));
#202 = CARTESIAN_POINT('', (1.35, -1.35, -6.80330584199031E-15));
#203 = CARTESIAN_POINT('', (-1.16144766647444E-17, -1.35, -6.02455481667212E-15));
#204 = CARTESIAN_POINT('', (-1.35, -1.35, -5.24580379135393E-15));
#205 = CARTESIAN_POINT('', (-1.35, 8.2663658942446E-17, -2.95822839457879E-31));
#206 = ADVANCED_FACE('', (#207), #210, .T.);
#207 = FACE_OUTER_BOUND('', #208, .T.);
#208 = EDGE_LOOP('', (#209));
#209 = ORIENTED_EDGE('', *, *, #179, .F.);
#210 = B_SPLINE_SURFACE_WITH_KNOTS('', 1, 1, ((#211, #212), (#213, #214)), .UNSPECIFIED., .F., .F., .U., (2, 2), (2, 2), (0.0454545454545454, 0.954545454545454), (0.0454545454545454, 0.954545454545454), .UNSPECIFIED.);
#211 = CARTESIAN_POINT('', (1.35, -1.35, -8.26636589424464E-17));
#212 = CARTESIAN_POINT('', (-1.35, -1.35, -8.26636589424463E-17));
#213 = CARTESIAN_POINT('', (1.35, 1.35, 8.26636589424463E-17));
#214 = CARTESIAN_POINT('', (-1.35, 1.35, 8.26636589424464E-17));
#215 = ADVANCED_FACE('', (#216), #219, .T.);
#216 = FACE_OUTER_BOUND('', #217, .T.);
#217 = EDGE_LOOP('', (#218));
#218 = ORIENTED_EDGE('', *, *, #25, .T.);
#219 = B_SPLINE_SURFACE_WITH_KNOTS('', 1, 1, ((#220, #221), (#222, #223)), .UNSPECIFIED., .F., .F., .U., (2, 2), (2, 2), (0.508811347198726, 0.515461408954199), (0.484538591045801, 0.491188652801274), .UNSPECIFIED.);
#220 = CARTESIAN_POINT('', (-0.400000000000013, 0.400000000000013, -59.2));
#221 = CARTESIAN_POINT('', (-0.400000000000013, -0.399999999999984, -59.2));
#222 = CARTESIAN_POINT('', (0.399999999999991, 0.400000000000013, -59.2));
#223 = CARTESIAN_POINT('', (0.399999999999991, -0.399999999999984, -59.2));
#224 = DRAUGHTING_MODEL('', (#232, #307, #346, #351, #356, #361, #366), #380);
#225 = PRESENTATION_STYLE_ASSIGNMENT((#226));
#226 = SURFACE_STYLE_USAGE(.POSITIVE., #227);
#227 = SURFACE_SIDE_STYLE('', (#228));
#228 = SURFACE_STYLE_FILL_AREA(#229);
#229 = FILL_AREA_STYLE('', (#230));
#230 = FILL_AREA_STYLE_COLOUR('', #231);
#231 = COLOUR_RGB('', 0.50196078431373, 0.50196078431373, 0.50196078431373);
#232 = STYLED_ITEM('', (#225), #1);
#233 = MANIFOLD_SOLID_BREP('CUT', #234);
#234 = CLOSED_SHELL('', (#235, #252, #291));
#235 = ADVANCED_FACE('', (#236), #247, .T.);
#236 = FACE_OUTER_BOUND('', #237, .T.);
#237 = EDGE_LOOP('', (#238));
#238 = ORIENTED_EDGE('', *, *, #239, .F.);
#239 = EDGE_CURVE('', #240, #240, #242, .T.);
#240 = VERTEX_POINT('', #241);
#241 = CARTESIAN_POINT('', (-0.4, 3.64944746145911E-15, -59.2));
#242 = CIRCLE('', #243, 0.4);
#243 = AXIS2_PLACEMENT_3D('', #244, #245, #246);
#244 = CARTESIAN_POINT('', (7.11236625150491E-17, 3.39311911901063E-15, -59.2));
#245 = DIRECTION('', (0., 0., -1.));
#246 = DIRECTION('', (-1., 6.40820856121188E-16, 0.));
#247 = B_SPLINE_SURFACE_WITH_KNOTS('', 1, 1, ((#248, #249), (#250, #251)), .UNSPECIFIED., .F., .F., .U., (2, 2), (2, 2), (0.484538591045801, 0.491188652801274), (0.508811347198726, 0.515461408954199), .UNSPECIFIED.);
#248 = CARTESIAN_POINT('', (-0.399999999999999, 0.399999999999999, -59.2));
#249 = CARTESIAN_POINT('', (0.400000000000006, 0.399999999999999, -59.2));
#250 = CARTESIAN_POINT('', (-0.399999999999999, -0.399999999999999, -59.2));
#251 = CARTESIAN_POINT('', (0.400000000000006, -0.399999999999999, -59.2));
#252 = ADVANCED_FACE('', (#253), #272, .T.);
#253 = FACE_OUTER_BOUND('', #254, .T.);
#254 = EDGE_LOOP('', (#255, #263, #264, #265));
#255 = ORIENTED_EDGE('', *, *, #256, .F.);
#256 = EDGE_CURVE('', #240, #257, #259, .T.);
#257 = VERTEX_POINT('', #258);
#258 = CARTESIAN_POINT('', (-0.4, 3.69843333342501E-15, -60.));
#259 = LINE('', #260, #261);
#260 = CARTESIAN_POINT('', (-0.4, 3.64944746145911E-15, -59.2));
#261 = VECTOR('', #262, 0.799999999999997);
#262 = DIRECTION('', (0., 4.89858719658997E-17, -0.799999999999997));
#263 = ORIENTED_EDGE('', *, *, #239, .T.);
#264 = ORIENTED_EDGE('', *, *, #256, .T.);
#265 = ORIENTED_EDGE('', *, *, #266, .F.);
#266 = EDGE_CURVE('', #257, #257, #267, .T.);
#267 = CIRCLE('', #268, 0.4);
#268 = AXIS2_PLACEMENT_3D('', #269, #270, #271);
#269 = CARTESIAN_POINT('', (-5.3776427755281E-17, 3.88578058618805E-15, -60.));
#270 = DIRECTION('', (-2.83170568545056E-29, 6.04589743097472E-14, -1.));
#271 = DIRECTION('', (-1., -4.68368131907595E-16, 0.));
#272 = (
   BOUNDED_SURFACE ()
   B_SPLINE_SURFACE (2, 1, ((#273, #274), (#275, #276), (#277, #278), (#279, #280), (#281, #282), (#283, #284), (#285, #286), (#287, #288), (#289, #290)), .UNSPECIFIED., .T., .F., .U.)
   B_SPLINE_SURFACE_WITH_KNOTS ((3, 2, 2, 2, 3), (2, 2), (0., 0.628318530717957, 1.25663706143591, 1.88495559215387, 2.51327412287183), (0., 1.), .UNSPECIFIED.)
   GEOMETRIC_REPRESENTATION_ITEM ()
   RATIONAL_B_SPLINE_SURFACE (((1., 1.), (0.707106781186548, 0.707106781186548), (1., 1.), (0.707106781186548, 0.707106781186548), (1., 1.), (0.707106781186548, 0.707106781186548), (1., 1.), (0.707106781186548, 0.707106781186548), (1., 1.)))
   REPRESENTATION_ITEM ('')
   SURFACE ()
);
#273 = CARTESIAN_POINT('', (-0.4, 3.64944746145911E-15, -59.2));
#274 = CARTESIAN_POINT('', (-0.4, 4.32945906404202E-15, -60.));
#275 = CARTESIAN_POINT('', (-0.4, 0.400000000000004, -59.2));
#276 = CARTESIAN_POINT('', (-0.4, 0.400000000000004, -60.));
#277 = CARTESIAN_POINT('', (4.03573030587232E-16, 0.400000000000003, -59.2));
#278 = CARTESIAN_POINT('', (4.03573030587233E-16, 0.400000000000004, -60.));
#279 = CARTESIAN_POINT('', (0.4, 0.400000000000003, -59.2));
#280 = CARTESIAN_POINT('', (0.4, 0.400000000000004, -60.));
#281 = CARTESIAN_POINT('', (0.4, 2.81107637771706E-15, -59.2));
#282 = CARTESIAN_POINT('', (0.4, 3.49108798029997E-15, -60.));
#283 = CARTESIAN_POINT('', (0.4, -0.399999999999997, -59.2));
#284 = CARTESIAN_POINT('', (0.4, -0.399999999999997, -60.));
#285 = CARTESIAN_POINT('', (-3.85812181188921E-16, -0.399999999999997, -59.2));
#286 = CARTESIAN_POINT('', (-3.8581218118892E-16, -0.399999999999996, -60.));
#287 = CARTESIAN_POINT('', (-0.4, -0.399999999999996, -59.2));
#288 = CARTESIAN_POINT('', (-0.4, -0.399999999999996, -60.));
#289 = CARTESIAN_POINT('', (-0.4, 3.64944746145911E-15, -59.2));
#290 = CARTESIAN_POINT('', (-0.4, 4.32945906404202E-15, -60.));
#291 = ADVANCED_FACE('', (#292), #295, .T.);
#292 = FACE_OUTER_BOUND('', #293, .T.);
#293 = EDGE_LOOP('', (#294));
#294 = ORIENTED_EDGE('', *, *, #266, .T.);
#295 = B_SPLINE_SURFACE_WITH_KNOTS('', 1, 1, ((#296, #297), (#298, #299)), .UNSPECIFIED., .F., .F., .U., (2, 2), (2, 2), (0.0454545454545455, 0.954545454545454), (0.0454545454545454, 0.954545454545454), .UNSPECIFIED.);
#296 = CARTESIAN_POINT('', (0.4, -0.399999999999996, -60.));
#297 = CARTESIAN_POINT('', (0.4, 0.400000000000004, -60.));
#298 = CARTESIAN_POINT('', (-0.4, -0.399999999999996, -60.));
#299 = CARTESIAN_POINT('', (-0.4, 0.400000000000004, -60.));
#300 = PRESENTATION_STYLE_ASSIGNMENT((#301));
#301 = SURFACE_STYLE_USAGE(.POSITIVE., #302);
#302 = SURFACE_SIDE_STYLE('', (#303));
#303 = SURFACE_STYLE_FILL_AREA(#304);
#304 = FILL_AREA_STYLE('', (#305));
#305 = FILL_AREA_STYLE_COLOUR('', #306);
#306 = COLOUR_RGB('', 0.8, 0.8, 0.8);
#307 = STYLED_ITEM('', (#300), #233);
#308 = TRIMMED_CURVE('cutting part line', #309, (#313), (#314), .T., .CARTESIAN.);
#309 = LINE('', #310, #311);
#310 = CARTESIAN_POINT('', (0.400030465608786, 0., -59.2));
#311 = VECTOR('', #312, 0.400030465608786);
#312 = DIRECTION('', (-0.400030465608786, 0., 2.1316282072803E-14));
#313 = CARTESIAN_POINT('', (0.400030465608786, 0., -59.2));
#314 = CARTESIAN_POINT('', (-1.73472347597681E-18, 0., -59.2));
#315 = TRIMMED_CURVE('cutting part line', #316, (#320), (#321), .T., .CARTESIAN.);
#316 = LINE('', #317, #318);
#317 = CARTESIAN_POINT('', (0., 0., -59.2));
#318 = VECTOR('', #319, 0.79999999999999);
#319 = DIRECTION('', (0., 0., -0.79999999999999));
#320 = CARTESIAN_POINT('', (0., 0., -59.2));
#321 = CARTESIAN_POINT('', (0., 0., -60.));
#322 = TRIMMED_CURVE('cutting part line', #323, (#327), (#328), .T., .CARTESIAN.);
#323 = LINE('', #324, #325);
#324 = CARTESIAN_POINT('', (-3.81639164714898E-17, 0., -60.));
#325 = VECTOR('', #326, 0.400030465608781);
#326 = DIRECTION('', (0.400030465608781, 3.39954016761062E-16, 0.));
#327 = CARTESIAN_POINT('', (-3.81639164714898E-17, 0., -60.));
#328 = CARTESIAN_POINT('', (0.400030465608781, 3.39954016761062E-16, -60.));
#329 = TRIMMED_CURVE('cutting part line', #330, (#334), (#335), .T., .CARTESIAN.);
#330 = LINE('', #331, #332);
#331 = CARTESIAN_POINT('', (0.400030465608781, 3.39954016761062E-16, -60.));
#332 = VECTOR('', #333, 0.800000000000011);
#333 = DIRECTION('', (4.32986979603811E-15, -3.39954016761062E-16, 0.800000000000011));
#334 = CARTESIAN_POINT('', (0.400030465608781, 3.39954016761062E-16, -60.));
#335 = CARTESIAN_POINT('', (0.400030465608786, 0., -59.2));
#336 = COMPOSITE_CURVE('cutting part line', (#337, #338, #339, #340), .U.);
#337 = COMPOSITE_CURVE_SEGMENT(.CONTINUOUS., .T., #308);
#338 = COMPOSITE_CURVE_SEGMENT(.CONTINUOUS., .T., #315);
#339 = COMPOSITE_CURVE_SEGMENT(.CONTINUOUS., .T., #322);
#340 = COMPOSITE_CURVE_SEGMENT(.CONTINUOUS., .T., #329);
#341 = GEOMETRIC_SET('', (#336, #379));
#342 = PRESENTATION_STYLE_ASSIGNMENT((#343));
#343 = CURVE_STYLE('', #345, POSITIVE_LENGTH_MEASURE(1.E-6), #344);
#344 = COLOUR_RGB('', 0., 0., 1.);
#345 = DRAUGHTING_PRE_DEFINED_CURVE_FONT('continuous');
#346 = STYLED_ITEM('', (#342), #336);
#347 = PRESENTATION_STYLE_ASSIGNMENT((#348));
#348 = CURVE_STYLE('', #350, POSITIVE_LENGTH_MEASURE(1.E-6), #349);
#349 = COLOUR_RGB('', 0., 0., 1.);
#350 = DRAUGHTING_PRE_DEFINED_CURVE_FONT('continuous');
#351 = OVER_RIDING_STYLED_ITEM('', (#347), #308, #346);
#352 = PRESENTATION_STYLE_ASSIGNMENT((#353));
#353 = CURVE_STYLE('', #355, POSITIVE_LENGTH_MEASURE(1.E-6), #354);
#354 = COLOUR_RGB('', 0., 0., 1.);
#355 = DRAUGHTING_PRE_DEFINED_CURVE_FONT('continuous');
#356 = OVER_RIDING_STYLED_ITEM('', (#352), #315, #346);
#357 = PRESENTATION_STYLE_ASSIGNMENT((#358));
#358 = CURVE_STYLE('', #360, POSITIVE_LENGTH_MEASURE(1.E-6), #359);
#359 = COLOUR_RGB('', 0., 0., 1.);
#360 = DRAUGHTING_PRE_DEFINED_CURVE_FONT('continuous');
#361 = OVER_RIDING_STYLED_ITEM('', (#357), #322, #346);
#362 = PRESENTATION_STYLE_ASSIGNMENT((#363));
#363 = CURVE_STYLE('', #365, POSITIVE_LENGTH_MEASURE(1.E-6), #364);
#364 = COLOUR_RGB('', 0., 0., 1.);
#365 = DRAUGHTING_PRE_DEFINED_CURVE_FONT('continuous');
#366 = OVER_RIDING_STYLED_ITEM('', (#362), #329, #346);
#367 = AXIS2_PLACEMENT_3D('MCS', #368, #369, #370);
#368 = CARTESIAN_POINT('', (0., 0., -28.));
#369 = DIRECTION('', (0., 0., 1.));
#370 = DIRECTION('', (1., 0., 0.));
#371 = AXIS2_PLACEMENT_3D('PCS', #372, #373, #374);
#372 = CARTESIAN_POINT('', (0., 0., 0.));
#373 = DIRECTION('', (0., 0., 1.));
#374 = DIRECTION('', (1., 0., 0.));
#375 = AXIS2_PLACEMENT_3D('CIP', #376, #377, #378);
#376 = CARTESIAN_POINT('', (0., 0., -60.));
#377 = DIRECTION('', (0., 0., 1.));
#378 = DIRECTION('', (1., 0., 0.));
#379 = CARTESIAN_POINT('CRP', (0.400030465608786, 0., -60.));
#380 = (
   GEOMETRIC_REPRESENTATION_CONTEXT (3)
   GLOBAL_UNCERTAINTY_ASSIGNED_CONTEXT ((#382))
   GLOBAL_UNIT_ASSIGNED_CONTEXT ((#381, #383, #384))
   REPRESENTATION_CONTEXT ('', '3D')
);
#381 = (
   LENGTH_UNIT ()
   NAMED_UNIT (*)
   SI_UNIT (.MILLI., .METRE.)
);
#382 = UNCERTAINTY_MEASURE_WITH_UNIT(LENGTH_MEASURE(1.E-6), #381, 'DISTANCE_ACCURACY_VALUE', '');
#383 = (
   NAMED_UNIT (*)
   SI_UNIT ($, .STERADIAN.)
   SOLID_ANGLE_UNIT ()
);
#384 = (
   NAMED_UNIT (*)
   PLANE_ANGLE_UNIT ()
   SI_UNIT ($, .RADIAN.)
);
#385 = SHAPE_REPRESENTATION('', (), #380);
#386 = PRODUCT_DEFINITION_SHAPE('', '', #387);
#387 = PRODUCT_DEFINITION('', '', #390, #394);
#388 = APPLICATION_CONTEXT('configuration controlled 3D designs of mechanical parts and assemblies');
#389 = APPLICATION_PROTOCOL_DEFINITION('International Standard', 'automotive_design', 2002, #388);
#390 = PRODUCT_DEFINITION_FORMATION_WITH_SPECIFIED_SOURCE('', '', #391, .NOT_KNOWN.);
#391 = PRODUCT('product-name', '2P212-0080-PC       1620', '', (#392));
#392 = PRODUCT_CONTEXT('', #388, 'mechanical');
#393 = PRODUCT_RELATED_PRODUCT_CATEGORY('detail', '', (#391));
#394 = PRODUCT_DEFINITION_CONTEXT('part definition', #388, 'design');
#395 = SHAPE_DEFINITION_REPRESENTATION(#386, #385);
#396 = CONSTRUCTIVE_GEOMETRY_REPRESENTATION('supplemental geometry', (#367, #371, #375), #380);
#397 = CONSTRUCTIVE_GEOMETRY_REPRESENTATION_RELATIONSHIP('', '', #385, #396);
#398 = SHAPE_REPRESENTATION_RELATIONSHIP('', '', #385, #399);
#399 = SHAPE_REPRESENTATION('', (#341), #380);
#400 = SHAPE_REPRESENTATION_RELATIONSHIP('', '', #385, #401);
#401 = ADVANCED_BREP_SHAPE_REPRESENTATION('', (#1, #233), #380);
ENDSEC;
END-ISO-10303-21;
