ISO-10303-21;
HEADER;
FILE_DESCRIPTION(('STEP'), '1');
FILE_NAME('C:\\Users\\ds2002\\OneDrive - Sandvik\\HomeShare\\Documents\\Batchrepair\\CorSRT2\\NEW_MILSQ_SLD\\Output\\MOD000000000000000020082312000000.stp', '2019-01-02T12:05:26', (''), (''), 'Express v3.0.0.0', 'Express Tool', 'Unknown');
FILE_SCHEMA(('AUTOMOTIVE_DESIGN'));
ENDSEC;

DATA;
#1 = MANIFOLD_SOLID_BREP('NOCUT', #2);
#2 = CLOSED_SHELL('', (#3, #50, #89, #128, #167, #206, #215));
#3 = ADVANCED_FACE('', (#4), #31, .T.);
#4 = FACE_OUTER_BOUND('', #5, .T.);
#5 = EDGE_LOOP('', (#6, #16, #23, #24));
#6 = ORIENTED_EDGE('', *, *, #7, .F.);
#7 = EDGE_CURVE('', #8, #10, #12, .T.);
#8 = VERTEX_POINT('', #9);
#9 = CARTESIAN_POINT('', (-4.75, 8.8370513026473E-15, -139.57));
#10 = VERTEX_POINT('', #11);
#11 = CARTESIAN_POINT('', (-5., 8.87868929381831E-15, -140.));
#12 = LINE('', #13, #14);
#13 = CARTESIAN_POINT('', (-4.75, 8.8370513026473E-15, -139.57));
#14 = VECTOR('', #15, 0.497393204617841);
#15 = DIRECTION('', (-0.25, 4.16379911710096E-17, -0.430000000000007));
#16 = ORIENTED_EDGE('', *, *, #17, .T.);
#17 = EDGE_CURVE('', #8, #8, #18, .T.);
#18 = CIRCLE('', #19, 4.75);
#19 = AXIS2_PLACEMENT_3D('', #20, #21, #22);
#20 = CARTESIAN_POINT('', (-1.66533453693773E-16, 6.99440505513849E-15, -139.57));
#21 = DIRECTION('', (-7.90015306034991E-30, -2.0365128188547E-14, -1.));
#22 = DIRECTION('', (-1., 3.87925525791329E-16, 0.));
#23 = ORIENTED_EDGE('', *, *, #7, .T.);
#24 = ORIENTED_EDGE('', *, *, #25, .F.);
#25 = EDGE_CURVE('', #10, #10, #26, .T.);
#26 = CIRCLE('', #27, 5.);
#27 = AXIS2_PLACEMENT_3D('', #28, #29, #30);
#28 = CARTESIAN_POINT('', (4.30211422042248E-16, 5.55111512312578E-15, -140.));
#29 = DIRECTION('', (0., 0., -1.));
#30 = DIRECTION('', (-1., 6.65514834138505E-16, 0.));
#31 = (
   BOUNDED_SURFACE ()
   B_SPLINE_SURFACE (2, 1, ((#32, #33), (#34, #35), (#36, #37), (#38, #39), (#40, #41), (#42, #43), (#44, #45), (#46, #47), (#48, #49)), .UNSPECIFIED., .T., .F., .U.)
   B_SPLINE_SURFACE_WITH_KNOTS ((3, 2, 2, 2, 3), (2, 2), (0., 0.25, 0.5, 0.75, 1.), (0., 1.), .UNSPECIFIED.)
   GEOMETRIC_REPRESENTATION_ITEM ()
   RATIONAL_B_SPLINE_SURFACE (((1., 1.), (0.707106781186548, 0.707106781186548), (1., 1.), (0.707106781186548, 0.707106781186548), (1., 1.), (0.707106781186548, 0.707106781186548), (1., 1.), (0.707106781186548, 0.707106781186548), (1., 1.)))
   REPRESENTATION_ITEM ('')
   SURFACE ()
);
#32 = CARTESIAN_POINT('', (-4.75, 8.8370513026473E-15, -139.57));
#33 = CARTESIAN_POINT('', (-5., 8.89312973055631E-15, -140.));
#34 = CARTESIAN_POINT('', (-4.75, 4.75000000000001, -139.57));
#35 = CARTESIAN_POINT('', (-5., 5.00000000000001, -140.));
#36 = CARTESIAN_POINT('', (1.71832608640509E-15, 4.75000000000001, -139.57));
#37 = CARTESIAN_POINT('', (1.87011873178728E-15, 5.00000000000001, -140.));
#38 = CARTESIAN_POINT('', (4.75, 4.75, -139.57));
#39 = CARTESIAN_POINT('', (5., 5., -140.));
#40 = CARTESIAN_POINT('', (4.75, 3.06893077812429E-15, -139.57));
#41 = CARTESIAN_POINT('', (5., 2.82142391526893E-15, -140.));
#42 = CARTESIAN_POINT('', (4.75, -4.75, -139.57));
#43 = CARTESIAN_POINT('', (5., -5., -140.));
#44 = CARTESIAN_POINT('', (-3.46808720852293E-15, -4.74999999999999, -139.57));
#45 = CARTESIAN_POINT('', (-3.58926368392643E-15, -4.99999999999999, -140.));
#46 = CARTESIAN_POINT('', (-4.75, -4.74999999999999, -139.57));
#47 = CARTESIAN_POINT('', (-5., -4.99999999999999, -140.));
#48 = CARTESIAN_POINT('', (-4.75, 8.8370513026473E-15, -139.57));
#49 = CARTESIAN_POINT('', (-5., 8.89312973055631E-15, -140.));
#50 = ADVANCED_FACE('', (#51), #70, .T.);
#51 = FACE_OUTER_BOUND('', #52, .T.);
#52 = EDGE_LOOP('', (#53, #61, #68, #69));
#53 = ORIENTED_EDGE('', *, *, #54, .F.);
#54 = EDGE_CURVE('', #55, #8, #57, .T.);
#55 = VERTEX_POINT('', #56);
#56 = CARTESIAN_POINT('', (-4.75, 3.36471708065735E-15, -50.2));
#57 = LINE('', #58, #59);
#58 = CARTESIAN_POINT('', (-4.75, 3.36471708065735E-15, -50.2));
#59 = VECTOR('', #60, 89.37);
#60 = DIRECTION('', (0., 5.47233422198995E-15, -89.37));
#61 = ORIENTED_EDGE('', *, *, #62, .T.);
#62 = EDGE_CURVE('', #55, #55, #63, .T.);
#63 = CIRCLE('', #64, 4.75);
#64 = AXIS2_PLACEMENT_3D('', #65, #66, #67);
#65 = CARTESIAN_POINT('', (-1.11022302462516E-16, -1.88737914186277E-15, -50.2));
#66 = DIRECTION('', (0., 0., -1.));
#67 = DIRECTION('', (-1., 1.10570446789897E-15, 0.));
#68 = ORIENTED_EDGE('', *, *, #54, .T.);
#69 = ORIENTED_EDGE('', *, *, #17, .F.);
#70 = (
   BOUNDED_SURFACE ()
   B_SPLINE_SURFACE (2, 1, ((#71, #72), (#73, #74), (#75, #76), (#77, #78), (#79, #80), (#81, #82), (#83, #84), (#85, #86), (#87, #88)), .UNSPECIFIED., .T., .F., .U.)
   B_SPLINE_SURFACE_WITH_KNOTS ((3, 2, 2, 2, 3), (2, 2), (0., 7.46128255227575, 14.9225651045515, 22.3838476568273, 29.845130209103), (0., 1.), .UNSPECIFIED.)
   GEOMETRIC_REPRESENTATION_ITEM ()
   RATIONAL_B_SPLINE_SURFACE (((1., 1.), (0.707106781186548, 0.707106781186548), (1., 1.), (0.707106781186548, 0.707106781186548), (1., 1.), (0.707106781186548, 0.707106781186548), (1., 1.), (0.707106781186548, 0.707106781186548), (1., 1.)))
   REPRESENTATION_ITEM ('')
   SURFACE ()
);
#71 = CARTESIAN_POINT('', (-4.75, 3.36471708065735E-15, -50.2));
#72 = CARTESIAN_POINT('', (-4.75, 1.09142336481084E-14, -139.57));
#73 = CARTESIAN_POINT('', (-4.75, 4.75, -50.2));
#74 = CARTESIAN_POINT('', (-4.75, 4.75000000000001, -139.57));
#75 = CARTESIAN_POINT('', (3.58734161474899E-15, 4.75, -50.2));
#76 = CARTESIAN_POINT('', (3.58734161474899E-15, 4.75000000000001, -139.57));
#77 = CARTESIAN_POINT('', (4.75, 4.75, -50.2));
#78 = CARTESIAN_POINT('', (4.75, 4.75, -139.57));
#79 = CARTESIAN_POINT('', (4.75, -3.89323287568751E-15, -50.2));
#80 = CARTESIAN_POINT('', (4.75, 3.65628369176355E-15, -139.57));
#81 = CARTESIAN_POINT('', (4.75, -4.75, -50.2));
#82 = CARTESIAN_POINT('', (4.75, -4.75, -139.57));
#83 = CARTESIAN_POINT('', (-3.08890111200088E-15, -4.75, -50.2));
#84 = CARTESIAN_POINT('', (-3.08890111200088E-15, -4.74999999999999, -139.57));
#85 = CARTESIAN_POINT('', (-4.75, -4.75, -50.2));
#86 = CARTESIAN_POINT('', (-4.75, -4.74999999999999, -139.57));
#87 = CARTESIAN_POINT('', (-4.75, 3.36471708065735E-15, -50.2));
#88 = CARTESIAN_POINT('', (-4.75, 1.09142336481084E-14, -139.57));
#89 = ADVANCED_FACE('', (#90), #109, .T.);
#90 = FACE_OUTER_BOUND('', #91, .T.);
#91 = EDGE_LOOP('', (#92, #100, #107, #108));
#92 = ORIENTED_EDGE('', *, *, #93, .F.);
#93 = EDGE_CURVE('', #94, #55, #96, .T.);
#94 = VERTEX_POINT('', #95);
#95 = CARTESIAN_POINT('', (-5., 3.36777869765522E-15, -50.));
#96 = LINE('', #97, #98);
#97 = CARTESIAN_POINT('', (-5., 3.36777869765522E-15, -50.));
#98 = VECTOR('', #99, 0.320156211871644);
#99 = DIRECTION('', (0.25, -3.06161699787011E-18, -0.200000000000003));
#100 = ORIENTED_EDGE('', *, *, #101, .T.);
#101 = EDGE_CURVE('', #94, #94, #102, .T.);
#102 = CIRCLE('', #103, 5.);
#103 = AXIS2_PLACEMENT_3D('', #104, #105, #106);
#104 = CARTESIAN_POINT('', (-9.71445146547012E-17, -3.66373598126302E-15, -50.));
#105 = DIRECTION('', (0., 0., -1.));
#106 = DIRECTION('', (-1., 1.40630293578365E-15, 0.));
#107 = ORIENTED_EDGE('', *, *, #93, .T.);
#108 = ORIENTED_EDGE('', *, *, #62, .F.);
#109 = (
   BOUNDED_SURFACE ()
   B_SPLINE_SURFACE (2, 1, ((#110, #111), (#112, #113), (#114, #115), (#116, #117), (#118, #119), (#120, #121), (#122, #123), (#124, #125), (#126, #127)), .UNSPECIFIED., .T., .F., .U.)
   B_SPLINE_SURFACE_WITH_KNOTS ((3, 2, 2, 2, 3), (2, 2), (0., 0.25, 0.5, 0.75, 1.), (0., 1.), .UNSPECIFIED.)
   GEOMETRIC_REPRESENTATION_ITEM ()
   RATIONAL_B_SPLINE_SURFACE (((1., 1.), (0.707106781186548, 0.707106781186548), (1., 1.), (0.707106781186548, 0.707106781186548), (1., 1.), (0.707106781186548, 0.707106781186548), (1., 1.), (0.707106781186548, 0.707106781186548), (1., 1.)))
   REPRESENTATION_ITEM ('')
   SURFACE ()
);
#110 = CARTESIAN_POINT('', (-5., 3.36777869765522E-15, -50.));
#111 = CARTESIAN_POINT('', (-4.75, 4.79255980310956E-15, -50.2));
#112 = CARTESIAN_POINT('', (-4.99999999999999, 5., -50.));
#113 = CARTESIAN_POINT('', (-4.74999999999999, 4.75000000000001, -50.2));
#114 = CARTESIAN_POINT('', (6.6282084644767E-15, 5., -50.));
#115 = CARTESIAN_POINT('', (6.29194081552013E-15, 4.75, -50.2));
#116 = CARTESIAN_POINT('', (5.00000000000001, 4.99999999999999, -50.));
#117 = CARTESIAN_POINT('', (4.75000000000001, 4.74999999999999, -50.2));
#118 = CARTESIAN_POINT('', (5., -1.00829272606076E-14, -50.));
#119 = CARTESIAN_POINT('', (4.75, -7.9856108572401E-15, -50.2));
#120 = CARTESIAN_POINT('', (4.99999999999999, -5.00000000000001, -50.));
#121 = CARTESIAN_POINT('', (4.74999999999999, -4.75000000000001, -50.2));
#122 = CARTESIAN_POINT('', (-6.21017409421242E-15, -5., -50.));
#123 = CARTESIAN_POINT('', (-5.90452261523453E-15, -4.75, -50.2));
#124 = CARTESIAN_POINT('', (-5.00000000000001, -5., -50.));
#125 = CARTESIAN_POINT('', (-4.75000000000001, -4.75, -50.2));
#126 = CARTESIAN_POINT('', (-5., 3.36777869765522E-15, -50.));
#127 = CARTESIAN_POINT('', (-4.75, 4.79255980310956E-15, -50.2));
#128 = ADVANCED_FACE('', (#129), #148, .T.);
#129 = FACE_OUTER_BOUND('', #130, .T.);
#130 = EDGE_LOOP('', (#131, #139, #146, #147));
#131 = ORIENTED_EDGE('', *, *, #132, .T.);
#132 = EDGE_CURVE('', #94, #133, #135, .T.);
#133 = VERTEX_POINT('', #134);
#134 = CARTESIAN_POINT('', (-5., 3.36777869765522E-16, -0.5));
#135 = LINE('', #136, #137);
#136 = CARTESIAN_POINT('', (-5., 3.36777869765522E-15, -50.));
#137 = VECTOR('', #138, 49.5);
#138 = DIRECTION('', (0., -3.0310008278897E-15, 49.5));
#139 = ORIENTED_EDGE('', *, *, #140, .T.);
#140 = EDGE_CURVE('', #133, #133, #141, .T.);
#141 = CIRCLE('', #142, 5.);
#142 = AXIS2_PLACEMENT_3D('', #143, #144, #145);
#143 = CARTESIAN_POINT('', (8.88178419700125E-16, -1.99840144432528E-15, -0.5));
#144 = DIRECTION('', (0., 0., -1.));
#145 = DIRECTION('', (-1., 4.67035862818161E-16, 0.));
#146 = ORIENTED_EDGE('', *, *, #132, .F.);
#147 = ORIENTED_EDGE('', *, *, #101, .F.);
#148 = (
   BOUNDED_SURFACE ()
   B_SPLINE_SURFACE (1, 2, ((#149, #150, #151, #152, #153, #154, #155, #156, #157), (#158, #159, #160, #161, #162, #163, #164, #165, #166)), .UNSPECIFIED., .F., .T., .U.)
   B_SPLINE_SURFACE_WITH_KNOTS ((2, 2), (3, 2, 2, 2, 3), (0., 1.), (0., 7.85398163397448, 15.707963267949, 23.5619449019234, 31.4159265358979), .UNSPECIFIED.)
   GEOMETRIC_REPRESENTATION_ITEM ()
   RATIONAL_B_SPLINE_SURFACE (((1., 0.707106781186548, 1., 0.707106781186548, 1., 0.707106781186548, 1., 0.707106781186548, 1.), (1., 0.707106781186548, 1., 0.707106781186548, 1., 0.707106781186548, 1., 0.707106781186548, 1.)))
   REPRESENTATION_ITEM ('')
   SURFACE ()
);
#149 = CARTESIAN_POINT('', (-5., -4.40378247472088E-16, -50.));
#150 = CARTESIAN_POINT('', (-5., 5., -50.));
#151 = CARTESIAN_POINT('', (2.91719603400409E-15, 5., -50.));
#152 = CARTESIAN_POINT('', (5., 5., -50.));
#153 = CARTESIAN_POINT('', (5., -4.49841347608002E-15, -50.));
#154 = CARTESIAN_POINT('', (5., -5., -50.));
#155 = CARTESIAN_POINT('', (-5.28515795030164E-16, -5., -50.));
#156 = CARTESIAN_POINT('', (-5., -5., -50.));
#157 = CARTESIAN_POINT('', (-5., -4.40378247472088E-16, -50.));
#158 = CARTESIAN_POINT('', (-5., 3.36777869765522E-16, -0.5));
#159 = CARTESIAN_POINT('', (-5., 5., -0.5));
#160 = CARTESIAN_POINT('', (2.91719603400409E-15, 5., -0.5));
#161 = CARTESIAN_POINT('', (5., 5., -0.5));
#162 = CARTESIAN_POINT('', (5., -3.72125735884241E-15, -0.5));
#163 = CARTESIAN_POINT('', (5., -5., -0.5));
#164 = CARTESIAN_POINT('', (-5.28515795030163E-16, -5., -0.5));
#165 = CARTESIAN_POINT('', (-5., -5., -0.5));
#166 = CARTESIAN_POINT('', (-5., 3.36777869765522E-16, -0.5));
#167 = ADVANCED_FACE('', (#168), #187, .T.);
#168 = FACE_OUTER_BOUND('', #169, .T.);
#169 = EDGE_LOOP('', (#170, #178, #185, #186));
#170 = ORIENTED_EDGE('', *, *, #171, .T.);
#171 = EDGE_CURVE('', #133, #172, #174, .T.);
#172 = VERTEX_POINT('', #173);
#173 = CARTESIAN_POINT('', (-4.5, 2.75545529808154E-16, 0.));
#174 = LINE('', #175, #176);
#175 = CARTESIAN_POINT('', (-5., 3.36777869765522E-16, -0.5));
#176 = VECTOR('', #177, 0.707106781186548);
#177 = DIRECTION('', (0.5, -6.1232339957368E-17, 0.5));
#178 = ORIENTED_EDGE('', *, *, #179, .T.);
#179 = EDGE_CURVE('', #172, #172, #180, .T.);
#180 = CIRCLE('', #181, 4.5);
#181 = AXIS2_PLACEMENT_3D('', #182, #183, #184);
#182 = CARTESIAN_POINT('', (2.28983498828939E-15, 0., -1.84889274661175E-32));
#183 = DIRECTION('', (-3.59251091371472E-34, 6.12323399573676E-17, -1.));
#184 = DIRECTION('', (-1., 6.12323399573675E-17, 4.1086505480261E-33));
#185 = ORIENTED_EDGE('', *, *, #171, .F.);
#186 = ORIENTED_EDGE('', *, *, #140, .F.);
#187 = (
   BOUNDED_SURFACE ()
   B_SPLINE_SURFACE (1, 2, ((#188, #189, #190, #191, #192, #193, #194, #195, #196), (#197, #198, #199, #200, #201, #202, #203, #204, #205)), .UNSPECIFIED., .F., .T., .U.)
   B_SPLINE_SURFACE_WITH_KNOTS ((2, 2), (3, 2, 2, 2, 3), (0., 1.), (0., 0.25, 0.5, 0.75, 1.), .UNSPECIFIED.)
   GEOMETRIC_REPRESENTATION_ITEM ()
   RATIONAL_B_SPLINE_SURFACE (((1., 0.707106781186548, 1., 0.707106781186548, 1., 0.707106781186548, 1., 0.707106781186548, 1.), (1., 0.707106781186548, 1., 0.707106781186548, 1., 0.707106781186548, 1., 0.707106781186548, 1.)))
   REPRESENTATION_ITEM ('')
   SURFACE ()
);
#188 = CARTESIAN_POINT('', (-5., -2.69144046670109E-15, -0.5));
#189 = CARTESIAN_POINT('', (-5., 5., -0.50000000000003));
#190 = CARTESIAN_POINT('', (2.28983498828938E-15, 5., -0.50000000000003));
#191 = CARTESIAN_POINT('', (5., 5., -0.50000000000003));
#192 = CARTESIAN_POINT('', (5., -2.69144046670108E-15, -0.5));
#193 = CARTESIAN_POINT('', (5., -5., -0.49999999999997));
#194 = CARTESIAN_POINT('', (2.90215838786306E-15, -5., -0.49999999999997));
#195 = CARTESIAN_POINT('', (-5., -5., -0.49999999999997));
#196 = CARTESIAN_POINT('', (-5., -2.69144046670109E-15, -0.5));
#197 = CARTESIAN_POINT('', (-4.5, 2.75545529808154E-16, -5.47382212626882E-48));
#198 = CARTESIAN_POINT('', (-4.5, 4.5, -2.69784194983913E-14));
#199 = CARTESIAN_POINT('', (2.28983498828938E-15, 4.5, -2.69784194983913E-14));
#200 = CARTESIAN_POINT('', (4.5, 4.5, -2.69784194983913E-14));
#201 = CARTESIAN_POINT('', (4.5, 2.75545529808155E-16, -3.34088136340818E-30));
#202 = CARTESIAN_POINT('', (4.5, -4.5, 2.69784194983913E-14));
#203 = CARTESIAN_POINT('', (2.8409260479057E-15, -4.5, 2.69784194983913E-14));
#204 = CARTESIAN_POINT('', (-4.5, -4.5, 2.69784194983913E-14));
#205 = CARTESIAN_POINT('', (-4.5, 2.75545529808154E-16, -5.47382212626882E-48));
#206 = ADVANCED_FACE('', (#207), #210, .T.);
#207 = FACE_OUTER_BOUND('', #208, .T.);
#208 = EDGE_LOOP('', (#209));
#209 = ORIENTED_EDGE('', *, *, #179, .F.);
#210 = B_SPLINE_SURFACE_WITH_KNOTS('', 1, 1, ((#211, #212), (#213, #214)), .UNSPECIFIED., .F., .F., .U., (2, 2), (2, 2), (0.0454545454545454, 0.954545454545454), (0.0454545454545454, 0.954545454545454), .UNSPECIFIED.);
#211 = CARTESIAN_POINT('', (4.5, -4.5, -2.75545529808155E-16));
#212 = CARTESIAN_POINT('', (-4.5, -4.5, -2.75545529808154E-16));
#213 = CARTESIAN_POINT('', (4.5, 4.5, 2.75545529808154E-16));
#214 = CARTESIAN_POINT('', (-4.5, 4.5, 2.75545529808155E-16));
#215 = ADVANCED_FACE('', (#216), #219, .T.);
#216 = FACE_OUTER_BOUND('', #217, .T.);
#217 = EDGE_LOOP('', (#218));
#218 = ORIENTED_EDGE('', *, *, #25, .T.);
#219 = B_SPLINE_SURFACE_WITH_KNOTS('', 1, 1, ((#220, #221), (#222, #223)), .UNSPECIFIED., .F., .F., .U., (2, 2), (2, 2), (0.497787594396392, 0.530973758982268), (0.469026241017732, 0.502212405603608), .UNSPECIFIED.);
#220 = CARTESIAN_POINT('', (-5.00000000000003, 5.00000000000003, -140.));
#221 = CARTESIAN_POINT('', (-5.00000000000003, -4.99999999999994, -140.));
#222 = CARTESIAN_POINT('', (4.99999999999994, 5.00000000000003, -140.));
#223 = CARTESIAN_POINT('', (4.99999999999994, -4.99999999999994, -140.));
#224 = DRAUGHTING_MODEL('', (#232, #346, #393, #398, #403, #408, #413, #418), #432);
#225 = PRESENTATION_STYLE_ASSIGNMENT((#226));
#226 = SURFACE_STYLE_USAGE(.POSITIVE., #227);
#227 = SURFACE_SIDE_STYLE('', (#228));
#228 = SURFACE_STYLE_FILL_AREA(#229);
#229 = FILL_AREA_STYLE('', (#230));
#230 = FILL_AREA_STYLE_COLOUR('', #231);
#231 = COLOUR_RGB('', 0.50196078431373, 0.50196078431373, 0.50196078431373);
#232 = STYLED_ITEM('', (#225), #1);
#233 = MANIFOLD_SOLID_BREP('CUT', #234);
#234 = CLOSED_SHELL('', (#235, #252, #291, #330));
#235 = ADVANCED_FACE('', (#236), #247, .T.);
#236 = FACE_OUTER_BOUND('', #237, .T.);
#237 = EDGE_LOOP('', (#238));
#238 = ORIENTED_EDGE('', *, *, #239, .F.);
#239 = EDGE_CURVE('', #240, #240, #242, .T.);
#240 = VERTEX_POINT('', #241);
#241 = CARTESIAN_POINT('', (-5., 8.87868929381831E-15, -140.));
#242 = CIRCLE('', #243, 5.);
#243 = AXIS2_PLACEMENT_3D('', #244, #245, #246);
#244 = CARTESIAN_POINT('', (4.30211422042248E-16, 5.55111512312578E-15, -140.));
#245 = DIRECTION('', (0., 0., -1.));
#246 = DIRECTION('', (-1., 6.65514834138505E-16, 0.));
#247 = B_SPLINE_SURFACE_WITH_KNOTS('', 1, 1, ((#248, #249), (#250, #251)), .UNSPECIFIED., .F., .F., .U., (2, 2), (2, 2), (0.469026241017732, 0.502212405603608), (0.497787594396392, 0.530973758982268), .UNSPECIFIED.);
#248 = CARTESIAN_POINT('', (-5., 5., -140.));
#249 = CARTESIAN_POINT('', (5., 5., -140.));
#250 = CARTESIAN_POINT('', (-5., -5., -140.));
#251 = CARTESIAN_POINT('', (5., -5., -140.));
#252 = ADVANCED_FACE('', (#253), #272, .T.);
#253 = FACE_OUTER_BOUND('', #254, .T.);
#254 = EDGE_LOOP('', (#255, #263, #264, #265));
#255 = ORIENTED_EDGE('', *, *, #256, .F.);
#256 = EDGE_CURVE('', #240, #257, #259, .T.);
#257 = VERTEX_POINT('', #258);
#258 = CARTESIAN_POINT('', (-5., 9.48488945939625E-15, -149.9));
#259 = LINE('', #260, #261);
#260 = CARTESIAN_POINT('', (-5., 8.87868929381831E-15, -140.));
#261 = VECTOR('', #262, 9.90000000000001);
#262 = DIRECTION('', (0., 6.0620016557794E-16, -9.90000000000001));
#263 = ORIENTED_EDGE('', *, *, #239, .T.);
#264 = ORIENTED_EDGE('', *, *, #256, .T.);
#265 = ORIENTED_EDGE('', *, *, #266, .F.);
#266 = EDGE_CURVE('', #257, #257, #267, .T.);
#267 = CIRCLE('', #268, 5.);
#268 = AXIS2_PLACEMENT_3D('', #269, #270, #271);
#269 = CARTESIAN_POINT('', (1.80411241501588E-15, 6.99440505513849E-15, -149.9));
#270 = DIRECTION('', (0., 0., -1.));
#271 = DIRECTION('', (-1., 4.98096880851552E-16, 0.));
#272 = (
   BOUNDED_SURFACE ()
   B_SPLINE_SURFACE (2, 1, ((#273, #274), (#275, #276), (#277, #278), (#279, #280), (#281, #282), (#283, #284), (#285, #286), (#287, #288), (#289, #290)), .UNSPECIFIED., .T., .F., .U.)
   B_SPLINE_SURFACE_WITH_KNOTS ((3, 2, 2, 2, 3), (2, 2), (0., 7.85398163397448, 15.707963267949, 23.5619449019234, 31.4159265358979), (0., 1.), .UNSPECIFIED.)
   GEOMETRIC_REPRESENTATION_ITEM ()
   RATIONAL_B_SPLINE_SURFACE (((1., 1.), (0.707106781186548, 0.707106781186548), (1., 1.), (0.707106781186548, 0.707106781186548), (1., 1.), (0.707106781186548, 0.707106781186548), (1., 1.), (0.707106781186548, 0.707106781186548), (1., 1.)))
   REPRESENTATION_ITEM ('')
   SURFACE ()
);
#273 = CARTESIAN_POINT('', (-5., 8.87868929381831E-15, -140.));
#274 = CARTESIAN_POINT('', (-5., 9.32277850366837E-15, -149.9));
#275 = CARTESIAN_POINT('', (-5., 5.00000000000001, -140.));
#276 = CARTESIAN_POINT('', (-5., 5.00000000000001, -149.9));
#277 = CARTESIAN_POINT('', (3.85407973937455E-15, 5.00000000000001, -140.));
#278 = CARTESIAN_POINT('', (3.85407973937455E-15, 5.00000000000001, -149.9));
#279 = CARTESIAN_POINT('', (5., 5., -140.));
#280 = CARTESIAN_POINT('', (5., 5.00000000000001, -149.9));
#281 = CARTESIAN_POINT('', (5., 4.83426579633222E-15, -140.));
#282 = CARTESIAN_POINT('', (5., 5.27835500618228E-15, -149.9));
#283 = CARTESIAN_POINT('', (5., -5., -140.));
#284 = CARTESIAN_POINT('', (5., -4.99999999999999, -149.9));
#285 = CARTESIAN_POINT('', (4.21979641462139E-16, -4.99999999999999, -140.));
#286 = CARTESIAN_POINT('', (4.21979641462139E-16, -4.99999999999999, -149.9));
#287 = CARTESIAN_POINT('', (-5., -4.99999999999999, -140.));
#288 = CARTESIAN_POINT('', (-5., -4.99999999999999, -149.9));
#289 = CARTESIAN_POINT('', (-5., 8.87868929381831E-15, -140.));
#290 = CARTESIAN_POINT('', (-5., 9.32277850366837E-15, -149.9));
#291 = ADVANCED_FACE('', (#292), #311, .T.);
#292 = FACE_OUTER_BOUND('', #293, .T.);
#293 = EDGE_LOOP('', (#294, #302, #303, #304));
#294 = ORIENTED_EDGE('', *, *, #295, .F.);
#295 = EDGE_CURVE('', #257, #296, #298, .T.);
#296 = VERTEX_POINT('', #297);
#297 = CARTESIAN_POINT('', (-4.9, 9.48488945939625E-15, -150.));
#298 = LINE('', #299, #300);
#299 = CARTESIAN_POINT('', (-5., 9.48488945939625E-15, -149.9));
#300 = VECTOR('', #301, 0.141421356237305);
#301 = DIRECTION('', (0.0999999999999996, 0., -0.0999999999999943));
#302 = ORIENTED_EDGE('', *, *, #266, .T.);
#303 = ORIENTED_EDGE('', *, *, #295, .T.);
#304 = ORIENTED_EDGE('', *, *, #305, .F.);
#305 = EDGE_CURVE('', #296, #296, #306, .T.);
#306 = CIRCLE('', #307, 4.9);
#307 = AXIS2_PLACEMENT_3D('', #308, #309, #310);
#308 = CARTESIAN_POINT('', (3.60822483003176E-16, 8.10462807976364E-15, -150.));
#309 = DIRECTION('', (0., 0., -1.));
#310 = DIRECTION('', (-1., 2.81685995843389E-16, 0.));
#311 = (
   BOUNDED_SURFACE ()
   B_SPLINE_SURFACE (2, 1, ((#312, #313), (#314, #315), (#316, #317), (#318, #319), (#320, #321), (#322, #323), (#324, #325), (#326, #327), (#328, #329)), .UNSPECIFIED., .T., .F., .U.)
   B_SPLINE_SURFACE_WITH_KNOTS ((3, 2, 2, 2, 3), (2, 2), (0., 0.25, 0.5, 0.75, 1.), (0., 1.), .UNSPECIFIED.)
   GEOMETRIC_REPRESENTATION_ITEM ()
   RATIONAL_B_SPLINE_SURFACE (((1., 1.), (0.707106781186548, 0.707106781186548), (1., 1.), (0.707106781186548, 0.707106781186548), (1., 1.), (0.707106781186548, 0.707106781186548), (1., 1.), (0.707106781186548, 0.707106781186548), (1., 1.)))
   REPRESENTATION_ITEM ('')
   SURFACE ()
);
#312 = CARTESIAN_POINT('', (-5., 9.48488945939625E-15, -149.9));
#313 = CARTESIAN_POINT('', (-4.9, 1.15245195036556E-14, -150.));
#314 = CARTESIAN_POINT('', (-5., 5.00000000000001, -149.9));
#315 = CARTESIAN_POINT('', (-4.9, 4.90000000000001, -150.));
#316 = CARTESIAN_POINT('', (2.68392306555225E-15, 5.00000000000001, -149.9));
#317 = CARTESIAN_POINT('', (2.62025259701958E-15, 4.90000000000001, -150.));
#318 = CARTESIAN_POINT('', (5., 5., -149.9));
#319 = CARTESIAN_POINT('', (4.9, 4.90000000000001, -150.));
#320 = CARTESIAN_POINT('', (5., 3.11784260612912E-15, -149.9));
#321 = CARTESIAN_POINT('', (4.9, 5.28481358745385E-15, -150.));
#322 = CARTESIAN_POINT('', (5., -5., -149.9));
#323 = CARTESIAN_POINT('', (4.9, -4.9, -150.));
#324 = CARTESIAN_POINT('', (-3.07080038814121E-15, -4.99999999999999, -149.9));
#325 = CARTESIAN_POINT('', (-3.01937638760001E-15, -4.89999999999999, -150.));
#326 = CARTESIAN_POINT('', (-5., -4.99999999999999, -149.9));
#327 = CARTESIAN_POINT('', (-4.9, -4.89999999999999, -150.));
#328 = CARTESIAN_POINT('', (-5., 9.48488945939625E-15, -149.9));
#329 = CARTESIAN_POINT('', (-4.9, 1.15245195036556E-14, -150.));
#330 = ADVANCED_FACE('', (#331), #334, .T.);
#331 = FACE_OUTER_BOUND('', #332, .T.);
#332 = EDGE_LOOP('', (#333));
#333 = ORIENTED_EDGE('', *, *, #305, .T.);
#334 = B_SPLINE_SURFACE_WITH_KNOTS('', 1, 1, ((#335, #336), (#337, #338)), .UNSPECIFIED., .F., .F., .U., (2, 2), (2, 2), (0.0454545454545454, 0.954545454545455), (0.0454545454545454, 0.954545454545455), .UNSPECIFIED.);
#335 = CARTESIAN_POINT('', (4.9, -4.89999999999999, -150.));
#336 = CARTESIAN_POINT('', (4.9, 4.90000000000001, -150.));
#337 = CARTESIAN_POINT('', (-4.9, -4.89999999999999, -150.));
#338 = CARTESIAN_POINT('', (-4.9, 4.90000000000001, -150.));
#339 = PRESENTATION_STYLE_ASSIGNMENT((#340));
#340 = SURFACE_STYLE_USAGE(.POSITIVE., #341);
#341 = SURFACE_SIDE_STYLE('', (#342));
#342 = SURFACE_STYLE_FILL_AREA(#343);
#343 = FILL_AREA_STYLE('', (#344));
#344 = FILL_AREA_STYLE_COLOUR('', #345);
#345 = COLOUR_RGB('', 0.8, 0.8, 0.8);
#346 = STYLED_ITEM('', (#339), #233);
#347 = TRIMMED_CURVE('cutting part line', #348, (#352), (#353), .T., .CARTESIAN.);
#348 = LINE('', #349, #350);
#349 = CARTESIAN_POINT('', (1.80411241501588E-16, 0., -150.));
#350 = VECTOR('', #351, 4.9);
#351 = DIRECTION('', (4.9, 0., 0.));
#352 = CARTESIAN_POINT('', (1.80411241501588E-16, 0., -150.));
#353 = CARTESIAN_POINT('', (4.9, 0., -150.));
#354 = TRIMMED_CURVE('cutting part line', #355, (#359), (#360), .T., .CARTESIAN.);
#355 = LINE('', #356, #357);
#356 = CARTESIAN_POINT('', (4.9, 8.09467447709364E-15, -150.));
#357 = VECTOR('', #358, 0.141421356237305);
#358 = DIRECTION('', (0.0999999999999996, -2.10910247133394E-15, 0.0999999999999943));
#359 = CARTESIAN_POINT('', (4.9, 8.09467447709364E-15, -150.));
#360 = CARTESIAN_POINT('', (5., 5.9855720057597E-15, -149.9));
#361 = TRIMMED_CURVE('cutting part line', #362, (#366), (#367), .T., .CARTESIAN.);
#362 = LINE('', #363, #364);
#363 = CARTESIAN_POINT('', (5., 4.44021572912408E-16, -149.9));
#364 = VECTOR('', #365, 9.90000000000001);
#365 = DIRECTION('', (0., -4.44021572912408E-16, 9.90000000000001));
#366 = CARTESIAN_POINT('', (5., 4.44021572912408E-16, -149.9));
#367 = CARTESIAN_POINT('', (5., 0., -140.));
#368 = TRIMMED_CURVE('cutting part line', #369, (#373), (#374), .T., .CARTESIAN.);
#369 = LINE('', #370, #371);
#370 = CARTESIAN_POINT('', (5., 0., -140.));
#371 = VECTOR('', #372, 5.);
#372 = DIRECTION('', (-5., 0., 0.));
#373 = CARTESIAN_POINT('', (5., 0., -140.));
#374 = CARTESIAN_POINT('', (-1.38777878078145E-17, 0., -140.));
#375 = TRIMMED_CURVE('cutting part line', #376, (#380), (#381), .T., .CARTESIAN.);
#376 = LINE('', #377, #378);
#377 = CARTESIAN_POINT('', (0., 0., -140.));
#378 = VECTOR('', #379, 10.0000000000001);
#379 = DIRECTION('', (0., 0., -10.0000000000001));
#380 = CARTESIAN_POINT('', (0., 0., -140.));
#381 = CARTESIAN_POINT('', (0., 0., -150.));
#382 = COMPOSITE_CURVE('cutting part line', (#383, #384, #385, #386, #387), .U.);
#383 = COMPOSITE_CURVE_SEGMENT(.CONTINUOUS., .T., #347);
#384 = COMPOSITE_CURVE_SEGMENT(.CONTINUOUS., .T., #354);
#385 = COMPOSITE_CURVE_SEGMENT(.CONTINUOUS., .T., #361);
#386 = COMPOSITE_CURVE_SEGMENT(.CONTINUOUS., .T., #368);
#387 = COMPOSITE_CURVE_SEGMENT(.CONTINUOUS., .T., #375);
#388 = GEOMETRIC_SET('', (#382, #431));
#389 = PRESENTATION_STYLE_ASSIGNMENT((#390));
#390 = CURVE_STYLE('', #392, POSITIVE_LENGTH_MEASURE(1.E-6), #391);
#391 = COLOUR_RGB('', 0., 0., 1.);
#392 = DRAUGHTING_PRE_DEFINED_CURVE_FONT('continuous');
#393 = STYLED_ITEM('', (#389), #382);
#394 = PRESENTATION_STYLE_ASSIGNMENT((#395));
#395 = CURVE_STYLE('', #397, POSITIVE_LENGTH_MEASURE(1.E-6), #396);
#396 = COLOUR_RGB('', 0., 0., 1.);
#397 = DRAUGHTING_PRE_DEFINED_CURVE_FONT('continuous');
#398 = OVER_RIDING_STYLED_ITEM('', (#394), #347, #393);
#399 = PRESENTATION_STYLE_ASSIGNMENT((#400));
#400 = CURVE_STYLE('', #402, POSITIVE_LENGTH_MEASURE(1.E-6), #401);
#401 = COLOUR_RGB('', 0., 0., 1.);
#402 = DRAUGHTING_PRE_DEFINED_CURVE_FONT('continuous');
#403 = OVER_RIDING_STYLED_ITEM('', (#399), #354, #393);
#404 = PRESENTATION_STYLE_ASSIGNMENT((#405));
#405 = CURVE_STYLE('', #407, POSITIVE_LENGTH_MEASURE(1.E-6), #406);
#406 = COLOUR_RGB('', 0., 0., 1.);
#407 = DRAUGHTING_PRE_DEFINED_CURVE_FONT('continuous');
#408 = OVER_RIDING_STYLED_ITEM('', (#404), #361, #393);
#409 = PRESENTATION_STYLE_ASSIGNMENT((#410));
#410 = CURVE_STYLE('', #412, POSITIVE_LENGTH_MEASURE(1.E-6), #411);
#411 = COLOUR_RGB('', 0., 0., 1.);
#412 = DRAUGHTING_PRE_DEFINED_CURVE_FONT('continuous');
#413 = OVER_RIDING_STYLED_ITEM('', (#409), #368, #393);
#414 = PRESENTATION_STYLE_ASSIGNMENT((#415));
#415 = CURVE_STYLE('', #417, POSITIVE_LENGTH_MEASURE(1.E-6), #416);
#416 = COLOUR_RGB('', 0., 0., 1.);
#417 = DRAUGHTING_PRE_DEFINED_CURVE_FONT('continuous');
#418 = OVER_RIDING_STYLED_ITEM('', (#414), #375, #393);
#419 = AXIS2_PLACEMENT_3D('MCS', #420, #421, #422);
#420 = CARTESIAN_POINT('', (0., 0., -40.));
#421 = DIRECTION('', (0., 0., 1.));
#422 = DIRECTION('', (1., 0., 0.));
#423 = AXIS2_PLACEMENT_3D('PCS', #424, #425, #426);
#424 = CARTESIAN_POINT('', (0., 0., 0.));
#425 = DIRECTION('', (0., 0., 1.));
#426 = DIRECTION('', (1., 0., 0.));
#427 = AXIS2_PLACEMENT_3D('CIP', #428, #429, #430);
#428 = CARTESIAN_POINT('', (0., 0., -150.));
#429 = DIRECTION('', (0., 0., 1.));
#430 = DIRECTION('', (1., 0., 0.));
#431 = CARTESIAN_POINT('CRP', (5., 0., -150.));
#432 = (
   GEOMETRIC_REPRESENTATION_CONTEXT (3)
   GLOBAL_UNCERTAINTY_ASSIGNED_CONTEXT ((#434))
   GLOBAL_UNIT_ASSIGNED_CONTEXT ((#433, #435, #436))
   REPRESENTATION_CONTEXT ('', '3D')
);
#433 = (
   LENGTH_UNIT ()
   NAMED_UNIT (*)
   SI_UNIT (.MILLI., .METRE.)
);
#434 = UNCERTAINTY_MEASURE_WITH_UNIT(LENGTH_MEASURE(1.E-6), #433, 'DISTANCE_ACCURACY_VALUE', '');
#435 = (
   NAMED_UNIT (*)
   SI_UNIT ($, .STERADIAN.)
   SOLID_ANGLE_UNIT ()
);
#436 = (
   NAMED_UNIT (*)
   PLANE_ANGLE_UNIT ()
   SI_UNIT ($, .RADIAN.)
);
#437 = SHAPE_REPRESENTATION('', (), #432);
#438 = PRODUCT_DEFINITION_SHAPE('', '', #439);
#439 = PRODUCT_DEFINITION('', '', #442, #446);
#440 = APPLICATION_CONTEXT('configuration controlled 3D designs of mechanical parts and assemblies');
#441 = APPLICATION_PROTOCOL_DEFINITION('International Standard', 'automotive_design', 2002, #440);
#442 = PRODUCT_DEFINITION_FORMATION_WITH_SPECIFIED_SOURCE('', '', #443, .NOT_KNOWN.);
#443 = PRODUCT('product-name', '2P210-1000-NC       N20C', '', (#444));
#444 = PRODUCT_CONTEXT('', #440, 'mechanical');
#445 = PRODUCT_RELATED_PRODUCT_CATEGORY('detail', '', (#443));
#446 = PRODUCT_DEFINITION_CONTEXT('part definition', #440, 'design');
#447 = SHAPE_DEFINITION_REPRESENTATION(#438, #437);
#448 = CONSTRUCTIVE_GEOMETRY_REPRESENTATION('supplemental geometry', (#419, #423, #427), #432);
#449 = CONSTRUCTIVE_GEOMETRY_REPRESENTATION_RELATIONSHIP('', '', #437, #448);
#450 = SHAPE_REPRESENTATION_RELATIONSHIP('', '', #437, #451);
#451 = SHAPE_REPRESENTATION('', (#388), #432);
#452 = SHAPE_REPRESENTATION_RELATIONSHIP('', '', #437, #453);
#453 = ADVANCED_BREP_SHAPE_REPRESENTATION('', (#1, #233), #432);
ENDSEC;
END-ISO-10303-21;
