ISO-10303-21;
HEADER;
FILE_DESCRIPTION(('STEP'), '1');
FILE_NAME('C:\\Users\\ds2002\\OneDrive - Sandvik\\HomeShare\\Documents\\Batchrepair\\CorSRT2\\NEW_MILSQ_SLD\\Output\\MOD000000000000000020082311900000.stp', '2019-01-02T12:05:39', (''), (''), 'Express v3.0.0.0', 'Express Tool', 'Unknown');
FILE_SCHEMA(('AUTOMOTIVE_DESIGN'));
ENDSEC;

DATA;
#1 = MANIFOLD_SOLID_BREP('NOCUT', #2);
#2 = CLOSED_SHELL('', (#3, #50, #89, #128, #167, #206, #215));
#3 = ADVANCED_FACE('', (#4), #31, .T.);
#4 = FACE_OUTER_BOUND('', #5, .T.);
#5 = EDGE_LOOP('', (#6, #16, #23, #24));
#6 = ORIENTED_EDGE('', *, *, #7, .F.);
#7 = EDGE_CURVE('', #8, #10, #12, .T.);
#8 = VERTEX_POINT('', #9);
#9 = CARTESIAN_POINT('', (-3.8, 7.0692736480781E-15, -111.65));
#10 = VERTEX_POINT('', #11);
#11 = CARTESIAN_POINT('', (-4., 7.10295143505465E-15, -112.));
#12 = LINE('', #13, #14);
#13 = CARTESIAN_POINT('', (-3.8, 7.0692736480781E-15, -111.65));
#14 = VECTOR('', #15, 0.403112887414923);
#15 = DIRECTION('', (-0.2, 3.367778697655E-17, -0.349999999999994));
#16 = ORIENTED_EDGE('', *, *, #17, .T.);
#17 = EDGE_CURVE('', #8, #8, #18, .T.);
#18 = CIRCLE('', #19, 3.8);
#19 = AXIS2_PLACEMENT_3D('', #20, #21, #22);
#20 = CARTESIAN_POINT('', (8.32667268468867E-17, 7.66053886991358E-15, -111.65));
#21 = DIRECTION('', (0., 0., -1.));
#22 = DIRECTION('', (-1., -1.55596111009337E-16, 0.));
#23 = ORIENTED_EDGE('', *, *, #7, .T.);
#24 = ORIENTED_EDGE('', *, *, #25, .F.);
#25 = EDGE_CURVE('', #10, #10, #26, .T.);
#26 = CIRCLE('', #27, 4.);
#27 = AXIS2_PLACEMENT_3D('', #28, #29, #30);
#28 = CARTESIAN_POINT('', (0., 8.32667268468867E-15, -112.));
#29 = DIRECTION('', (-3.69924657969588E-30, 1.20917948619498E-14, -1.));
#30 = DIRECTION('', (-1., -3.05930312408506E-16, 0.));
#31 = (
   BOUNDED_SURFACE ()
   B_SPLINE_SURFACE (2, 1, ((#32, #33), (#34, #35), (#36, #37), (#38, #39), (#40, #41), (#42, #43), (#44, #45), (#46, #47), (#48, #49)), .UNSPECIFIED., .T., .F., .U.)
   B_SPLINE_SURFACE_WITH_KNOTS ((3, 2, 2, 2, 3), (2, 2), (0., 0.25, 0.5, 0.75, 1.), (0., 1.), .UNSPECIFIED.)
   GEOMETRIC_REPRESENTATION_ITEM ()
   RATIONAL_B_SPLINE_SURFACE (((1., 1.), (0.707106781186548, 0.707106781186548), (1., 1.), (0.707106781186548, 0.707106781186548), (1., 1.), (0.707106781186548, 0.707106781186548), (1., 1.), (0.707106781186548, 0.707106781186548), (1., 1.)))
   REPRESENTATION_ITEM ('')
   SURFACE ()
);
#32 = CARTESIAN_POINT('', (-3.8, 7.0692736480781E-15, -111.65));
#33 = CARTESIAN_POINT('', (-4., 7.35369149603286E-15, -112.));
#34 = CARTESIAN_POINT('', (-3.8, 3.80000000000001, -111.65));
#35 = CARTESIAN_POINT('', (-4., 4.00000000000001, -112.));
#36 = CARTESIAN_POINT('', (-7.45475720515103E-17, 3.80000000000001, -111.65));
#37 = CARTESIAN_POINT('', (1.17345141376654E-15, 4.00000000000001, -112.));
#38 = CARTESIAN_POINT('', (3.8, 3.80000000000001, -111.65));
#39 = CARTESIAN_POINT('', (4., 4.00000000000001, -112.));
#40 = CARTESIAN_POINT('', (3.8, 9.38330369020015E-15, -111.65));
#41 = CARTESIAN_POINT('', (4., 9.78951259300343E-15, -112.));
#42 = CARTESIAN_POINT('', (3.8, -3.79999999999999, -111.65));
#43 = CARTESIAN_POINT('', (4., -3.99999999999999, -112.));
#44 = CARTESIAN_POINT('', (2.70484825374656E-15, -3.79999999999999, -111.65));
#45 = CARTESIAN_POINT('', (4.09913123039609E-15, -3.99999999999999, -112.));
#46 = CARTESIAN_POINT('', (-3.8, -3.79999999999999, -111.65));
#47 = CARTESIAN_POINT('', (-4., -3.99999999999999, -112.));
#48 = CARTESIAN_POINT('', (-3.8, 7.0692736480781E-15, -111.65));
#49 = CARTESIAN_POINT('', (-4., 7.35369149603286E-15, -112.));
#50 = ADVANCED_FACE('', (#51), #70, .T.);
#51 = FACE_OUTER_BOUND('', #52, .T.);
#52 = EDGE_LOOP('', (#53, #61, #68, #69));
#53 = ORIENTED_EDGE('', *, *, #54, .F.);
#54 = EDGE_CURVE('', #55, #8, #57, .T.);
#55 = VERTEX_POINT('', #56);
#56 = CARTESIAN_POINT('', (-3.8, 2.69422295812418E-15, -40.2));
#57 = LINE('', #58, #59);
#58 = CARTESIAN_POINT('', (-3.8, 2.69422295812418E-15, -40.2));
#59 = VECTOR('', #60, 71.45);
#60 = DIRECTION('', (0., 4.37505068995392E-15, -71.45));
#61 = ORIENTED_EDGE('', *, *, #62, .T.);
#62 = EDGE_CURVE('', #55, #55, #63, .T.);
#63 = CIRCLE('', #64, 3.8);
#64 = AXIS2_PLACEMENT_3D('', #65, #66, #67);
#65 = CARTESIAN_POINT('', (8.88178419700125E-16, 1.11022302462516E-16, -40.2));
#66 = DIRECTION('', (0., 0., -1.));
#67 = DIRECTION('', (-1., 6.79789646226754E-16, 0.));
#68 = ORIENTED_EDGE('', *, *, #54, .T.);
#69 = ORIENTED_EDGE('', *, *, #17, .F.);
#70 = (
   BOUNDED_SURFACE ()
   B_SPLINE_SURFACE (2, 1, ((#71, #72), (#73, #74), (#75, #76), (#77, #78), (#79, #80), (#81, #82), (#83, #84), (#85, #86), (#87, #88)), .UNSPECIFIED., .T., .F., .U.)
   B_SPLINE_SURFACE_WITH_KNOTS ((3, 2, 2, 2, 3), (2, 2), (0., 5.9690260418206, 11.9380520836412, 17.9070781254618, 23.8761041672824), (0., 1.), .UNSPECIFIED.)
   GEOMETRIC_REPRESENTATION_ITEM ()
   RATIONAL_B_SPLINE_SURFACE (((1., 1.), (0.707106781186548, 0.707106781186548), (1., 1.), (0.707106781186548, 0.707106781186548), (1., 1.), (0.707106781186548, 0.707106781186548), (1., 1.), (0.707106781186548, 0.707106781186548), (1., 1.)))
   REPRESENTATION_ITEM ('')
   SURFACE ()
);
#71 = CARTESIAN_POINT('', (-3.8, 2.69422295812418E-15, -40.2));
#72 = CARTESIAN_POINT('', (-3.8, 1.04657841305003E-14, -111.65));
#73 = CARTESIAN_POINT('', (-3.8, 3.8, -40.2));
#74 = CARTESIAN_POINT('', (-3.8, 3.80000000000001, -111.65));
#75 = CARTESIAN_POINT('', (2.91950706394406E-15, 3.8, -40.2));
#76 = CARTESIAN_POINT('', (2.91950706394407E-15, 3.80000000000001, -111.65));
#77 = CARTESIAN_POINT('', (3.8, 3.8, -40.2));
#78 = CARTESIAN_POINT('', (3.8, 3.8, -111.65));
#79 = CARTESIAN_POINT('', (3.8, -2.45090177937322E-15, -40.2));
#80 = CARTESIAN_POINT('', (3.8, 5.32065939300288E-15, -111.65));
#81 = CARTESIAN_POINT('', (3.8, -3.8, -40.2));
#82 = CARTESIAN_POINT('', (3.8, -3.79999999999999, -111.65));
#83 = CARTESIAN_POINT('', (-1.76025188987734E-15, -3.8, -40.2));
#84 = CARTESIAN_POINT('', (-1.76025188987734E-15, -3.79999999999999, -111.65));
#85 = CARTESIAN_POINT('', (-3.8, -3.8, -40.2));
#86 = CARTESIAN_POINT('', (-3.8, -3.79999999999999, -111.65));
#87 = CARTESIAN_POINT('', (-3.8, 2.69422295812418E-15, -40.2));
#88 = CARTESIAN_POINT('', (-3.8, 1.04657841305003E-14, -111.65));
#89 = ADVANCED_FACE('', (#90), #109, .T.);
#90 = FACE_OUTER_BOUND('', #91, .T.);
#91 = EDGE_LOOP('', (#92, #100, #107, #108));
#92 = ORIENTED_EDGE('', *, *, #93, .F.);
#93 = EDGE_CURVE('', #94, #55, #96, .T.);
#94 = VERTEX_POINT('', #95);
#95 = CARTESIAN_POINT('', (-4., 2.69422295812418E-15, -40.));
#96 = LINE('', #97, #98);
#97 = CARTESIAN_POINT('', (-4., 2.69422295812418E-15, -40.));
#98 = VECTOR('', #99, 0.282842712474621);
#99 = DIRECTION('', (0.2, 0., -0.200000000000003));
#100 = ORIENTED_EDGE('', *, *, #101, .T.);
#101 = EDGE_CURVE('', #94, #94, #102, .T.);
#102 = CIRCLE('', #103, 4.);
#103 = AXIS2_PLACEMENT_3D('', #104, #105, #106);
#104 = CARTESIAN_POINT('', (4.30211422042248E-16, -3.33066907387547E-16, -40.));
#105 = DIRECTION('', (-4.57567100517841E-30, -6.04589743097488E-15, -1.));
#106 = DIRECTION('', (-1., 7.56822466377932E-16, 0.));
#107 = ORIENTED_EDGE('', *, *, #93, .T.);
#108 = ORIENTED_EDGE('', *, *, #62, .F.);
#109 = (
   BOUNDED_SURFACE ()
   B_SPLINE_SURFACE (2, 1, ((#110, #111), (#112, #113), (#114, #115), (#116, #117), (#118, #119), (#120, #121), (#122, #123), (#124, #125), (#126, #127)), .UNSPECIFIED., .T., .F., .U.)
   B_SPLINE_SURFACE_WITH_KNOTS ((3, 2, 2, 2, 3), (2, 2), (0., 0.25, 0.5, 0.75, 1.), (0., 1.), .UNSPECIFIED.)
   GEOMETRIC_REPRESENTATION_ITEM ()
   RATIONAL_B_SPLINE_SURFACE (((1., 1.), (0.707106781186548, 0.707106781186548), (1., 1.), (0.707106781186548, 0.707106781186548), (1., 1.), (0.707106781186548, 0.707106781186548), (1., 1.), (0.707106781186548, 0.707106781186548), (1., 1.)))
   REPRESENTATION_ITEM ('')
   SURFACE ()
);
#110 = CARTESIAN_POINT('', (-4., 2.69422295812418E-15, -40.));
#111 = CARTESIAN_POINT('', (-3.8, 2.98694767469866E-15, -40.2));
#112 = CARTESIAN_POINT('', (-4., 4., -40.));
#113 = CARTESIAN_POINT('', (-3.8, 3.8, -40.2));
#114 = CARTESIAN_POINT('', (3.2125719277245E-15, 4., -40.));
#115 = CARTESIAN_POINT('', (3.07345390244039E-15, 3.8, -40.2));
#116 = CARTESIAN_POINT('', (4., 4., -40.));
#117 = CARTESIAN_POINT('', (3.8, 3.8, -40.2));
#118 = CARTESIAN_POINT('', (4., -2.87049805324033E-15, -40.));
#119 = CARTESIAN_POINT('', (3.8, -2.29953728609763E-15, -40.2));
#120 = CARTESIAN_POINT('', (4., -4., -40.));
#121 = CARTESIAN_POINT('', (3.8, -3.8, -40.2));
#122 = CARTESIAN_POINT('', (-1.86229036398107E-15, -4., -40.));
#123 = CARTESIAN_POINT('', (-1.7476652746799E-15, -3.8, -40.2));
#124 = CARTESIAN_POINT('', (-4., -4., -40.));
#125 = CARTESIAN_POINT('', (-3.8, -3.8, -40.2));
#126 = CARTESIAN_POINT('', (-4., 2.69422295812418E-15, -40.));
#127 = CARTESIAN_POINT('', (-3.8, 2.98694767469866E-15, -40.2));
#128 = ADVANCED_FACE('', (#129), #148, .T.);
#129 = FACE_OUTER_BOUND('', #130, .T.);
#130 = EDGE_LOOP('', (#131, #139, #146, #147));
#131 = ORIENTED_EDGE('', *, *, #132, .T.);
#132 = EDGE_CURVE('', #94, #133, #135, .T.);
#133 = VERTEX_POINT('', #134);
#134 = CARTESIAN_POINT('', (-4., 2.69422295812418E-16, -0.399999999999999));
#135 = LINE('', #136, #137);
#136 = CARTESIAN_POINT('', (-4., 2.69422295812418E-15, -40.));
#137 = VECTOR('', #138, 39.6);
#138 = DIRECTION('', (0., -2.42480066231176E-15, 39.6));
#139 = ORIENTED_EDGE('', *, *, #140, .T.);
#140 = EDGE_CURVE('', #133, #133, #141, .T.);
#141 = CIRCLE('', #142, 4.);
#142 = AXIS2_PLACEMENT_3D('', #143, #144, #145);
#143 = CARTESIAN_POINT('', (1.08246744900953E-15, -1.22124532708767E-15, -0.399999999999999));
#144 = DIRECTION('', (4.16333634234434E-17, 6.25420985093971E-18, -1.));
#145 = DIRECTION('', (-1., 3.72666905725022E-16, -4.16333634234434E-17));
#146 = ORIENTED_EDGE('', *, *, #132, .F.);
#147 = ORIENTED_EDGE('', *, *, #101, .F.);
#148 = (
   BOUNDED_SURFACE ()
   B_SPLINE_SURFACE (1, 2, ((#149, #150, #151, #152, #153, #154, #155, #156, #157), (#158, #159, #160, #161, #162, #163, #164, #165, #166)), .UNSPECIFIED., .F., .T., .U.)
   B_SPLINE_SURFACE_WITH_KNOTS ((2, 2), (3, 2, 2, 2, 3), (0., 1.), (0., 6.28318530717958, 12.5663706143591, 18.8495559215387, 25.1327412287183), .UNSPECIFIED.)
   GEOMETRIC_REPRESENTATION_ITEM ()
   RATIONAL_B_SPLINE_SURFACE (((1., 0.707106781186548, 1., 0.707106781186548, 1., 0.707106781186548, 1., 0.707106781186548, 1.), (1., 0.707106781186548, 1., 0.707106781186548, 1., 0.707106781186548, 1., 0.707106781186548, 1.)))
   REPRESENTATION_ITEM ('')
   SURFACE ()
);
#149 = CARTESIAN_POINT('', (-4., 1.04657841305003E-15, -40.));
#150 = CARTESIAN_POINT('', (-4., 4., -40.));
#151 = CARTESIAN_POINT('', (3.9768869036485E-15, 4., -40.));
#152 = CARTESIAN_POINT('', (4., 4., -40.));
#153 = CARTESIAN_POINT('', (4., -1.44489811309121E-15, -40.));
#154 = CARTESIAN_POINT('', (4., -4., -40.));
#155 = CARTESIAN_POINT('', (1.97526909716621E-15, -4., -40.));
#156 = CARTESIAN_POINT('', (-4., -4., -40.));
#157 = CARTESIAN_POINT('', (-4., 1.04657841305003E-15, -40.));
#158 = CARTESIAN_POINT('', (-4., 2.69422295812418E-16, -0.399999999999999));
#159 = CARTESIAN_POINT('', (-4., 4., -0.399999999999999));
#160 = CARTESIAN_POINT('', (2.32820571208015E-15, 4., -0.399999999999999));
#161 = CARTESIAN_POINT('', (4., 4., -0.399999999999999));
#162 = CARTESIAN_POINT('', (4., -2.22205423032882E-15, -0.399999999999999));
#163 = CARTESIAN_POINT('', (4., -4., -0.399999999999999));
#164 = CARTESIAN_POINT('', (3.2658790559785E-16, -4., -0.399999999999999));
#165 = CARTESIAN_POINT('', (-4., -4., -0.399999999999999));
#166 = CARTESIAN_POINT('', (-4., 2.69422295812418E-16, -0.399999999999999));
#167 = ADVANCED_FACE('', (#168), #187, .T.);
#168 = FACE_OUTER_BOUND('', #169, .T.);
#169 = EDGE_LOOP('', (#170, #178, #185, #186));
#170 = ORIENTED_EDGE('', *, *, #171, .T.);
#171 = EDGE_CURVE('', #133, #172, #174, .T.);
#172 = VERTEX_POINT('', #173);
#173 = CARTESIAN_POINT('', (-3.6, 2.20436423846524E-16, 0.));
#174 = LINE('', #175, #176);
#175 = CARTESIAN_POINT('', (-4., 2.69422295812418E-16, -0.399999999999999));
#176 = VECTOR('', #177, 0.565685424949237);
#177 = DIRECTION('', (0.4, -4.8985871965894E-17, 0.399999999999999));
#178 = ORIENTED_EDGE('', *, *, #179, .T.);
#179 = EDGE_CURVE('', #172, #172, #180, .T.);
#180 = CIRCLE('', #181, 3.6);
#181 = AXIS2_PLACEMENT_3D('', #182, #183, #184);
#182 = CARTESIAN_POINT('', (-4.16333634234434E-17, -3.33066907387547E-16, -1.84889274661175E-32));
#183 = DIRECTION('', (4.27871574431742E-33, 6.12323399573678E-17, -1.));
#184 = DIRECTION('', (-1., 1.53750925342797E-16, 5.13581318503263E-33));
#185 = ORIENTED_EDGE('', *, *, #171, .F.);
#186 = ORIENTED_EDGE('', *, *, #140, .F.);
#187 = (
   BOUNDED_SURFACE ()
   B_SPLINE_SURFACE (1, 2, ((#188, #189, #190, #191, #192, #193, #194, #195, #196), (#197, #198, #199, #200, #201, #202, #203, #204, #205)), .UNSPECIFIED., .F., .T., .U.)
   B_SPLINE_SURFACE_WITH_KNOTS ((2, 2), (3, 2, 2, 2, 3), (0., 1.), (0., 0.25, 0.5, 0.75, 1.), .UNSPECIFIED.)
   GEOMETRIC_REPRESENTATION_ITEM ()
   RATIONAL_B_SPLINE_SURFACE (((1., 0.707106781186548, 1., 0.707106781186548, 1., 0.707106781186548, 1., 0.707106781186548, 1.), (1., 0.707106781186548, 1., 0.707106781186548, 1., 0.707106781186548, 1., 0.707106781186548, 1.)))
   REPRESENTATION_ITEM ('')
   SURFACE ()
);
#188 = CARTESIAN_POINT('', (-4., -2.04953155772919E-15, -0.399999999999999));
#189 = CARTESIAN_POINT('', (-4., 4., -0.400000000000022));
#190 = CARTESIAN_POINT('', (3.28440978118275E-16, 4., -0.400000000000022));
#191 = CARTESIAN_POINT('', (4., 4., -0.400000000000022));
#192 = CARTESIAN_POINT('', (4., -2.78968024081262E-15, -0.399999999999999));
#193 = CARTESIAN_POINT('', (4., -4., -0.399999999999976));
#194 = CARTESIAN_POINT('', (7.81510146937783E-17, -4., -0.399999999999976));
#195 = CARTESIAN_POINT('', (-4., -4., -0.399999999999976));
#196 = CARTESIAN_POINT('', (-4., -2.04953155772919E-15, -0.399999999999999));
#197 = CARTESIAN_POINT('', (-3.6, 2.20436423846524E-16, 0.));
#198 = CARTESIAN_POINT('', (-3.6, 3.6, -2.09832151654155E-14));
#199 = CARTESIAN_POINT('', (2.91433543964104E-16, 3.6, -2.09832151654155E-14));
#200 = CARTESIAN_POINT('', (3.6, 3.6, -2.09832151654155E-14));
#201 = CARTESIAN_POINT('', (3.6, -4.45697390928571E-16, -2.60668058374687E-30));
#202 = CARTESIAN_POINT('', (3.6, -3.6, 2.09832151654155E-14));
#203 = CARTESIAN_POINT('', (6.61725768820564E-17, -3.6, 2.09832151654155E-14));
#204 = CARTESIAN_POINT('', (-3.6, -3.6, 2.09832151654155E-14));
#205 = CARTESIAN_POINT('', (-3.6, 2.20436423846524E-16, 0.));
#206 = ADVANCED_FACE('', (#207), #210, .T.);
#207 = FACE_OUTER_BOUND('', #208, .T.);
#208 = EDGE_LOOP('', (#209));
#209 = ORIENTED_EDGE('', *, *, #179, .F.);
#210 = B_SPLINE_SURFACE_WITH_KNOTS('', 1, 1, ((#211, #212), (#213, #214)), .UNSPECIFIED., .F., .F., .U., (2, 2), (2, 2), (0.0454545454545454, 0.954545454545455), (0.0454545454545454, 0.954545454545454), .UNSPECIFIED.);
#211 = CARTESIAN_POINT('', (3.6, -3.6, -2.20436423846524E-16));
#212 = CARTESIAN_POINT('', (-3.6, -3.6, -2.20436423846524E-16));
#213 = CARTESIAN_POINT('', (3.6, 3.6, 2.20436423846524E-16));
#214 = CARTESIAN_POINT('', (-3.6, 3.6, 2.20436423846524E-16));
#215 = ADVANCED_FACE('', (#216), #219, .T.);
#216 = FACE_OUTER_BOUND('', #217, .T.);
#217 = EDGE_LOOP('', (#218));
#218 = ORIENTED_EDGE('', *, *, #25, .T.);
#219 = B_SPLINE_SURFACE_WITH_KNOTS('', 1, 1, ((#220, #221), (#222, #223)), .UNSPECIFIED., .F., .F., .U., (2, 2), (2, 2), (0.497787595755157, 0.530973760092501), (0.469026239907498, 0.502212404244843), .UNSPECIFIED.);
#220 = CARTESIAN_POINT('', (-4.00000000000003, 4.00000000000004, -112.));
#221 = CARTESIAN_POINT('', (-4.00000000000003, -3.99999999999996, -112.));
#222 = CARTESIAN_POINT('', (3.99999999999997, 4.00000000000003, -112.));
#223 = CARTESIAN_POINT('', (3.99999999999997, -3.99999999999997, -112.));
#224 = DRAUGHTING_MODEL('', (#232, #307, #346, #351, #356, #361, #366), #380);
#225 = PRESENTATION_STYLE_ASSIGNMENT((#226));
#226 = SURFACE_STYLE_USAGE(.POSITIVE., #227);
#227 = SURFACE_SIDE_STYLE('', (#228));
#228 = SURFACE_STYLE_FILL_AREA(#229);
#229 = FILL_AREA_STYLE('', (#230));
#230 = FILL_AREA_STYLE_COLOUR('', #231);
#231 = COLOUR_RGB('', 0.50196078431373, 0.50196078431373, 0.50196078431373);
#232 = STYLED_ITEM('', (#225), #1);
#233 = MANIFOLD_SOLID_BREP('CUT', #234);
#234 = CLOSED_SHELL('', (#235, #252, #291));
#235 = ADVANCED_FACE('', (#236), #247, .T.);
#236 = FACE_OUTER_BOUND('', #237, .T.);
#237 = EDGE_LOOP('', (#238));
#238 = ORIENTED_EDGE('', *, *, #239, .F.);
#239 = EDGE_CURVE('', #240, #240, #242, .T.);
#240 = VERTEX_POINT('', #241);
#241 = CARTESIAN_POINT('', (-4., 7.10295143505465E-15, -112.));
#242 = CIRCLE('', #243, 4.);
#243 = AXIS2_PLACEMENT_3D('', #244, #245, #246);
#244 = CARTESIAN_POINT('', (0., 8.32667268468867E-15, -112.));
#245 = DIRECTION('', (-3.69924657969588E-30, 1.20917948619498E-14, -1.));
#246 = DIRECTION('', (-1., -3.05930312408506E-16, 0.));
#247 = B_SPLINE_SURFACE_WITH_KNOTS('', 1, 1, ((#248, #249), (#250, #251)), .UNSPECIFIED., .F., .F., .U., (2, 2), (2, 2), (0.469026239907498, 0.502212404244843), (0.497787595755157, 0.530973760092502), .UNSPECIFIED.);
#248 = CARTESIAN_POINT('', (-4., 4.00000000000001, -112.));
#249 = CARTESIAN_POINT('', (4., 4.00000000000001, -112.));
#250 = CARTESIAN_POINT('', (-4., -3.99999999999997, -112.));
#251 = CARTESIAN_POINT('', (4., -3.99999999999997, -112.));
#252 = ADVANCED_FACE('', (#253), #272, .T.);
#253 = FACE_OUTER_BOUND('', #254, .T.);
#254 = EDGE_LOOP('', (#255, #263, #264, #265));
#255 = ORIENTED_EDGE('', *, *, #256, .F.);
#256 = EDGE_CURVE('', #240, #257, #259, .T.);
#257 = VERTEX_POINT('', #258);
#258 = CARTESIAN_POINT('', (-4., 7.59281015471359E-15, -120.));
#259 = LINE('', #260, #261);
#260 = CARTESIAN_POINT('', (-4., 7.10295143505465E-15, -112.));
#261 = VECTOR('', #262, 8.);
#262 = DIRECTION('', (0., 4.89858719658941E-16, -8.));
#263 = ORIENTED_EDGE('', *, *, #239, .T.);
#264 = ORIENTED_EDGE('', *, *, #256, .T.);
#265 = ORIENTED_EDGE('', *, *, #266, .F.);
#266 = EDGE_CURVE('', #257, #257, #267, .T.);
#267 = CIRCLE('', #268, 4.);
#268 = AXIS2_PLACEMENT_3D('', #269, #270, #271);
#269 = CARTESIAN_POINT('', (-8.32667268468867E-17, 8.65973959207622E-15, -120.));
#270 = DIRECTION('', (0., 0., -1.));
#271 = DIRECTION('', (-1., -2.66732359340658E-16, 0.));
#272 = (
   BOUNDED_SURFACE ()
   B_SPLINE_SURFACE (2, 1, ((#273, #274), (#275, #276), (#277, #278), (#279, #280), (#281, #282), (#283, #284), (#285, #286), (#287, #288), (#289, #290)), .UNSPECIFIED., .T., .F., .U.)
   B_SPLINE_SURFACE_WITH_KNOTS ((3, 2, 2, 2, 3), (2, 2), (0., 6.28318530717957, 12.5663706143591, 18.8495559215387, 25.1327412287183), (0., 1.), .UNSPECIFIED.)
   GEOMETRIC_REPRESENTATION_ITEM ()
   RATIONAL_B_SPLINE_SURFACE (((1., 1.), (0.707106781186548, 0.707106781186548), (1., 1.), (0.707106781186548, 0.707106781186548), (1., 1.), (0.707106781186548, 0.707106781186548), (1., 1.), (0.707106781186548, 0.707106781186548), (1., 1.)))
   REPRESENTATION_ITEM ('')
   SURFACE ()
);
#273 = CARTESIAN_POINT('', (-4., 7.10295143505465E-15, -112.));
#274 = CARTESIAN_POINT('', (-4., 6.32579531781704E-15, -120.));
#275 = CARTESIAN_POINT('', (-4., 4.00000000000001, -112.));
#276 = CARTESIAN_POINT('', (-4., 4.00000000000001, -120.));
#277 = CARTESIAN_POINT('', (-2.89806275366838E-15, 4.00000000000001, -112.));
#278 = CARTESIAN_POINT('', (-2.89806275366838E-15, 4.00000000000001, -120.));
#279 = CARTESIAN_POINT('', (4., 4.00000000000001, -112.));
#280 = CARTESIAN_POINT('', (4., 4.00000000000001, -120.));
#281 = CARTESIAN_POINT('', (4., 1.2260698703232E-14, -112.));
#282 = CARTESIAN_POINT('', (4., 1.14835425859943E-14, -120.));
#283 = CARTESIAN_POINT('', (4., -3.99999999999999, -112.));
#284 = CARTESIAN_POINT('', (4., -3.99999999999999, -120.));
#285 = CARTESIAN_POINT('', (2.74954323416786E-15, -3.99999999999999, -112.));
#286 = CARTESIAN_POINT('', (2.74954323416786E-15, -3.99999999999999, -120.));
#287 = CARTESIAN_POINT('', (-4., -3.99999999999999, -112.));
#288 = CARTESIAN_POINT('', (-4., -3.99999999999999, -120.));
#289 = CARTESIAN_POINT('', (-4., 7.10295143505465E-15, -112.));
#290 = CARTESIAN_POINT('', (-4., 6.32579531781704E-15, -120.));
#291 = ADVANCED_FACE('', (#292), #295, .T.);
#292 = FACE_OUTER_BOUND('', #293, .T.);
#293 = EDGE_LOOP('', (#294));
#294 = ORIENTED_EDGE('', *, *, #266, .T.);
#295 = B_SPLINE_SURFACE_WITH_KNOTS('', 1, 1, ((#296, #297), (#298, #299)), .UNSPECIFIED., .F., .F., .U., (2, 2), (2, 2), (0.0454545454545455, 0.954545454545454), (0.0454545454545454, 0.954545454545454), .UNSPECIFIED.);
#296 = CARTESIAN_POINT('', (4., -3.99999999999999, -120.));
#297 = CARTESIAN_POINT('', (4., 4.00000000000001, -120.));
#298 = CARTESIAN_POINT('', (-4., -3.99999999999999, -120.));
#299 = CARTESIAN_POINT('', (-4., 4.00000000000001, -120.));
#300 = PRESENTATION_STYLE_ASSIGNMENT((#301));
#301 = SURFACE_STYLE_USAGE(.POSITIVE., #302);
#302 = SURFACE_SIDE_STYLE('', (#303));
#303 = SURFACE_STYLE_FILL_AREA(#304);
#304 = FILL_AREA_STYLE('', (#305));
#305 = FILL_AREA_STYLE_COLOUR('', #306);
#306 = COLOUR_RGB('', 0.8, 0.8, 0.8);
#307 = STYLED_ITEM('', (#300), #233);
#308 = TRIMMED_CURVE('cutting part line', #309, (#313), (#314), .T., .CARTESIAN.);
#309 = LINE('', #310, #311);
#310 = CARTESIAN_POINT('', (7.49400541621981E-16, 0., -120.));
#311 = VECTOR('', #312, 4.);
#312 = DIRECTION('', (4., 0., 0.));
#313 = CARTESIAN_POINT('', (7.49400541621981E-16, 0., -120.));
#314 = CARTESIAN_POINT('', (4., 0., -120.));
#315 = TRIMMED_CURVE('cutting part line', #316, (#320), (#321), .T., .CARTESIAN.);
#316 = LINE('', #317, #318);
#317 = CARTESIAN_POINT('', (4., -7.77037752596714E-16, -120.));
#318 = VECTOR('', #319, 8.);
#319 = DIRECTION('', (0., 7.77037752596714E-16, 8.));
#320 = CARTESIAN_POINT('', (4., -7.77037752596714E-16, -120.));
#321 = CARTESIAN_POINT('', (4., 0., -112.));
#322 = TRIMMED_CURVE('cutting part line', #323, (#327), (#328), .T., .CARTESIAN.);
#323 = LINE('', #324, #325);
#324 = CARTESIAN_POINT('', (4., 0., -112.));
#325 = VECTOR('', #326, 4.);
#326 = DIRECTION('', (-4., 0., 0.));
#327 = CARTESIAN_POINT('', (4., 0., -112.));
#328 = CARTESIAN_POINT('', (0., 0., -112.));
#329 = TRIMMED_CURVE('cutting part line', #330, (#334), (#335), .T., .CARTESIAN.);
#330 = LINE('', #331, #332);
#331 = CARTESIAN_POINT('', (0., 0., -112.));
#332 = VECTOR('', #333, 8.00000000000001);
#333 = DIRECTION('', (0., 0., -8.00000000000001));
#334 = CARTESIAN_POINT('', (0., 0., -112.));
#335 = CARTESIAN_POINT('', (0., 0., -120.));
#336 = COMPOSITE_CURVE('cutting part line', (#337, #338, #339, #340), .U.);
#337 = COMPOSITE_CURVE_SEGMENT(.CONTINUOUS., .T., #308);
#338 = COMPOSITE_CURVE_SEGMENT(.CONTINUOUS., .T., #315);
#339 = COMPOSITE_CURVE_SEGMENT(.CONTINUOUS., .T., #322);
#340 = COMPOSITE_CURVE_SEGMENT(.CONTINUOUS., .T., #329);
#341 = GEOMETRIC_SET('', (#336, #379));
#342 = PRESENTATION_STYLE_ASSIGNMENT((#343));
#343 = CURVE_STYLE('', #345, POSITIVE_LENGTH_MEASURE(1.E-6), #344);
#344 = COLOUR_RGB('', 0., 0., 1.);
#345 = DRAUGHTING_PRE_DEFINED_CURVE_FONT('continuous');
#346 = STYLED_ITEM('', (#342), #336);
#347 = PRESENTATION_STYLE_ASSIGNMENT((#348));
#348 = CURVE_STYLE('', #350, POSITIVE_LENGTH_MEASURE(1.E-6), #349);
#349 = COLOUR_RGB('', 0., 0., 1.);
#350 = DRAUGHTING_PRE_DEFINED_CURVE_FONT('continuous');
#351 = OVER_RIDING_STYLED_ITEM('', (#347), #308, #346);
#352 = PRESENTATION_STYLE_ASSIGNMENT((#353));
#353 = CURVE_STYLE('', #355, POSITIVE_LENGTH_MEASURE(1.E-6), #354);
#354 = COLOUR_RGB('', 0., 0., 1.);
#355 = DRAUGHTING_PRE_DEFINED_CURVE_FONT('continuous');
#356 = OVER_RIDING_STYLED_ITEM('', (#352), #315, #346);
#357 = PRESENTATION_STYLE_ASSIGNMENT((#358));
#358 = CURVE_STYLE('', #360, POSITIVE_LENGTH_MEASURE(1.E-6), #359);
#359 = COLOUR_RGB('', 0., 0., 1.);
#360 = DRAUGHTING_PRE_DEFINED_CURVE_FONT('continuous');
#361 = OVER_RIDING_STYLED_ITEM('', (#357), #322, #346);
#362 = PRESENTATION_STYLE_ASSIGNMENT((#363));
#363 = CURVE_STYLE('', #365, POSITIVE_LENGTH_MEASURE(1.E-6), #364);
#364 = COLOUR_RGB('', 0., 0., 1.);
#365 = DRAUGHTING_PRE_DEFINED_CURVE_FONT('continuous');
#366 = OVER_RIDING_STYLED_ITEM('', (#362), #329, #346);
#367 = AXIS2_PLACEMENT_3D('MCS', #368, #369, #370);
#368 = CARTESIAN_POINT('', (0., 0., -36.));
#369 = DIRECTION('', (0., 0., 1.));
#370 = DIRECTION('', (1., 0., 0.));
#371 = AXIS2_PLACEMENT_3D('PCS', #372, #373, #374);
#372 = CARTESIAN_POINT('', (0., 0., 0.));
#373 = DIRECTION('', (0., 0., 1.));
#374 = DIRECTION('', (1., 0., 0.));
#375 = AXIS2_PLACEMENT_3D('CIP', #376, #377, #378);
#376 = CARTESIAN_POINT('', (0., 0., -120.));
#377 = DIRECTION('', (0., 0., 1.));
#378 = DIRECTION('', (1., 0., 0.));
#379 = CARTESIAN_POINT('CRP', (4., 0., -120.));
#380 = (
   GEOMETRIC_REPRESENTATION_CONTEXT (3)
   GLOBAL_UNCERTAINTY_ASSIGNED_CONTEXT ((#382))
   GLOBAL_UNIT_ASSIGNED_CONTEXT ((#381, #383, #384))
   REPRESENTATION_CONTEXT ('', '3D')
);
#381 = (
   LENGTH_UNIT ()
   NAMED_UNIT (*)
   SI_UNIT (.MILLI., .METRE.)
);
#382 = UNCERTAINTY_MEASURE_WITH_UNIT(LENGTH_MEASURE(1.E-6), #381, 'DISTANCE_ACCURACY_VALUE', '');
#383 = (
   NAMED_UNIT (*)
   SI_UNIT ($, .STERADIAN.)
   SOLID_ANGLE_UNIT ()
);
#384 = (
   NAMED_UNIT (*)
   PLANE_ANGLE_UNIT ()
   SI_UNIT ($, .RADIAN.)
);
#385 = SHAPE_REPRESENTATION('', (), #380);
#386 = PRODUCT_DEFINITION_SHAPE('', '', #387);
#387 = PRODUCT_DEFINITION('', '', #390, #394);
#388 = APPLICATION_CONTEXT('configuration controlled 3D designs of mechanical parts and assemblies');
#389 = APPLICATION_PROTOCOL_DEFINITION('International Standard', 'automotive_design', 2002, #388);
#390 = PRODUCT_DEFINITION_FORMATION_WITH_SPECIFIED_SOURCE('', '', #391, .NOT_KNOWN.);
#391 = PRODUCT('product-name', '2P210-0800-NC       N20C', '', (#392));
#392 = PRODUCT_CONTEXT('', #388, 'mechanical');
#393 = PRODUCT_RELATED_PRODUCT_CATEGORY('detail', '', (#391));
#394 = PRODUCT_DEFINITION_CONTEXT('part definition', #388, 'design');
#395 = SHAPE_DEFINITION_REPRESENTATION(#386, #385);
#396 = CONSTRUCTIVE_GEOMETRY_REPRESENTATION('supplemental geometry', (#367, #371, #375), #380);
#397 = CONSTRUCTIVE_GEOMETRY_REPRESENTATION_RELATIONSHIP('', '', #385, #396);
#398 = SHAPE_REPRESENTATION_RELATIONSHIP('', '', #385, #399);
#399 = SHAPE_REPRESENTATION('', (#341), #380);
#400 = SHAPE_REPRESENTATION_RELATIONSHIP('', '', #385, #401);
#401 = ADVANCED_BREP_SHAPE_REPRESENTATION('', (#1, #233), #380);
ENDSEC;
END-ISO-10303-21;
