ISO-10303-21;
HEADER;
FILE_DESCRIPTION(('STEP'), '1');
FILE_NAME('C:\\Users\\ds2002\\OneDrive - Sandvik\\HomeShare\\Documents\\Batchrepair\\CorSRT2\\NEW_MILSQ_SLD\\Output\\MOD000000000000000020082311700000.stp', '2019-01-02T12:05:36', (''), (''), 'Express v3.0.0.0', 'Express Tool', 'Unknown');
FILE_SCHEMA(('AUTOMOTIVE_DESIGN'));
ENDSEC;

DATA;
#1 = MANIFOLD_SOLID_BREP('NOCUT', #2);
#2 = CLOSED_SHELL('', (#3, #50, #89, #128, #167, #206, #215));
#3 = ADVANCED_FACE('', (#4), #31, .T.);
#4 = FACE_OUTER_BOUND('', #5, .T.);
#5 = EDGE_LOOP('', (#6, #16, #23, #24));
#6 = ORIENTED_EDGE('', *, *, #7, .F.);
#7 = EDGE_CURVE('', #8, #10, #12, .T.);
#8 = VERTEX_POINT('', #9);
#9 = CARTESIAN_POINT('', (-2.375, 5.94902798855806E-15, -94.78));
#10 = VERTEX_POINT('', #11);
#11 = CARTESIAN_POINT('', (-2.5, 5.97015314584335E-15, -95.));
#12 = LINE('', #13, #14);
#13 = CARTESIAN_POINT('', (-2.375, 5.94902798855806E-15, -94.78));
#14 = VECTOR('', #15, 0.253031618577599);
#15 = DIRECTION('', (-0.125, 2.11251572852903E-17, -0.219999999999999));
#16 = ORIENTED_EDGE('', *, *, #17, .T.);
#17 = EDGE_CURVE('', #8, #8, #18, .T.);
#18 = CIRCLE('', #19, 2.375);
#19 = AXIS2_PLACEMENT_3D('', #20, #21, #22);
#20 = CARTESIAN_POINT('', (9.78384040450919E-16, 6.60582699651968E-15, -94.78));
#21 = DIRECTION('', (-5.9835177748219E-15, 1.9466277537689E-14, -1.));
#22 = DIRECTION('', (-1., -2.76546950720683E-16, 5.98351777482189E-15));
#23 = ORIENTED_EDGE('', *, *, #7, .T.);
#24 = ORIENTED_EDGE('', *, *, #25, .F.);
#25 = EDGE_CURVE('', #10, #10, #26, .T.);
#26 = CIRCLE('', #27, 2.5);
#27 = AXIS2_PLACEMENT_3D('', #28, #29, #30);
#28 = CARTESIAN_POINT('', (-3.81639164714898E-16, 6.27276008913213E-15, -95.));
#29 = DIRECTION('', (0., 0., -1.));
#30 = DIRECTION('', (-1., -1.21042777315514E-16, 0.));
#31 = (
   BOUNDED_SURFACE ()
   B_SPLINE_SURFACE (2, 1, ((#32, #33), (#34, #35), (#36, #37), (#38, #39), (#40, #41), (#42, #43), (#44, #45), (#46, #47), (#48, #49)), .UNSPECIFIED., .T., .F., .U.)
   B_SPLINE_SURFACE_WITH_KNOTS ((3, 2, 2, 2, 3), (2, 2), (0., 0.25, 0.5, 0.75, 1.), (0., 1.), .UNSPECIFIED.)
   GEOMETRIC_REPRESENTATION_ITEM ()
   RATIONAL_B_SPLINE_SURFACE (((1., 1.), (0.707106781186548, 0.707106781186548), (1., 1.), (0.707106781186548, 0.707106781186548), (1., 1.), (0.707106781186548, 0.707106781186548), (1., 1.), (0.707106781186548, 0.707106781186548), (1., 1.)))
   REPRESENTATION_ITEM ('')
   SURFACE ()
);
#32 = CARTESIAN_POINT('', (-2.375, 5.94902798855806E-15, -94.78));
#33 = CARTESIAN_POINT('', (-2.5, 4.58803526924476E-15, -95.));
#34 = CARTESIAN_POINT('', (-2.375, 2.37500000000001, -94.78));
#35 = CARTESIAN_POINT('', (-2.5, 2.5, -95.));
#36 = CARTESIAN_POINT('', (-2.20388238394963E-15, 2.37500000000001, -94.78));
#37 = CARTESIAN_POINT('', (-2.29577266743867E-15, 2.50000000000001, -95.));
#38 = CARTESIAN_POINT('', (2.375, 2.37500000000001, -94.78));
#39 = CARTESIAN_POINT('', (2.5, 2.50000000000001, -95.));
#40 = CARTESIAN_POINT('', (2.375, 9.44085876114157E-15, -94.78));
#41 = CARTESIAN_POINT('', (2.5, 8.26364660880635E-15, -95.));
#42 = CARTESIAN_POINT('', (2.375, -2.37499999999999, -94.78));
#43 = CARTESIAN_POINT('', (2.5, -2.49999999999999, -95.));
#44 = CARTESIAN_POINT('', (1.57880200343137E-15, -2.37499999999999, -94.78));
#45 = CARTESIAN_POINT('', (1.68600037190976E-15, -2.49999999999999, -95.));
#46 = CARTESIAN_POINT('', (-2.375, -2.37499999999999, -94.78));
#47 = CARTESIAN_POINT('', (-2.5, -2.5, -95.));
#48 = CARTESIAN_POINT('', (-2.375, 5.94902798855806E-15, -94.78));
#49 = CARTESIAN_POINT('', (-2.5, 4.58803526924476E-15, -95.));
#50 = ADVANCED_FACE('', (#51), #70, .T.);
#51 = FACE_OUTER_BOUND('', #52, .T.);
#52 = EDGE_LOOP('', (#53, #61, #68, #69));
#53 = ORIENTED_EDGE('', *, *, #54, .F.);
#54 = EDGE_CURVE('', #55, #8, #57, .T.);
#55 = VERTEX_POINT('', #56);
#56 = CARTESIAN_POINT('', (-2.375, 3.20704380526713E-15, -50.));
#57 = LINE('', #58, #59);
#58 = CARTESIAN_POINT('', (-2.375, 3.20704380526713E-15, -50.));
#59 = VECTOR('', #60, 44.78);
#60 = DIRECTION('', (0., 2.74198418329093E-15, -44.78));
#61 = ORIENTED_EDGE('', *, *, #62, .T.);
#62 = EDGE_CURVE('', #55, #55, #63, .T.);
#63 = CIRCLE('', #64, 2.375);
#64 = AXIS2_PLACEMENT_3D('', #65, #66, #67);
#65 = CARTESIAN_POINT('', (-1.17961196366423E-16, 4.9960036108132E-16, -50.));
#66 = DIRECTION('', (0., 0., -1.));
#67 = DIRECTION('', (-1., 1.1399761870256E-15, 0.));
#68 = ORIENTED_EDGE('', *, *, #54, .T.);
#69 = ORIENTED_EDGE('', *, *, #17, .F.);
#70 = (
   BOUNDED_SURFACE ()
   B_SPLINE_SURFACE (2, 1, ((#71, #72), (#73, #74), (#75, #76), (#77, #78), (#79, #80), (#81, #82), (#83, #84), (#85, #86), (#87, #88)), .UNSPECIFIED., .T., .F., .U.)
   B_SPLINE_SURFACE_WITH_KNOTS ((3, 2, 2, 2, 3), (2, 2), (0., 3.73064127613788, 7.46128255227575, 11.1919238284136, 14.9225651045515), (0., 1.), .UNSPECIFIED.)
   GEOMETRIC_REPRESENTATION_ITEM ()
   RATIONAL_B_SPLINE_SURFACE (((1., 1.), (0.707106781186548, 0.707106781186548), (1., 1.), (0.707106781186548, 0.707106781186548), (1., 1.), (0.707106781186548, 0.707106781186548), (1., 1.), (0.707106781186548, 0.707106781186548), (1., 1.)))
   REPRESENTATION_ITEM ('')
   SURFACE ()
);
#71 = CARTESIAN_POINT('', (-2.375, 3.20704380526713E-15, -50.));
#72 = CARTESIAN_POINT('', (-2.375, 9.31327044070549E-15, -94.78));
#73 = CARTESIAN_POINT('', (-2.375, 2.375, -50.));
#74 = CARTESIAN_POINT('', (-2.375, 2.37500000000001, -94.78));
#75 = CARTESIAN_POINT('', (3.2767227088895E-15, 2.375, -50.));
#76 = CARTESIAN_POINT('', (3.27672270888951E-15, 2.37500000000001, -94.78));
#77 = CARTESIAN_POINT('', (2.375, 2.375, -50.));
#78 = CARTESIAN_POINT('', (2.375, 2.375, -94.78));
#79 = CARTESIAN_POINT('', (2.375, -1.91698946830699E-15, -50.));
#80 = CARTESIAN_POINT('', (2.375, 4.18923716713137E-15, -94.78));
#81 = CARTESIAN_POINT('', (2.375, -2.375, -50.));
#82 = CARTESIAN_POINT('', (2.375, -2.375, -94.78));
#83 = CARTESIAN_POINT('', (-1.55645694988712E-15, -2.375, -50.));
#84 = CARTESIAN_POINT('', (-1.55645694988711E-15, -2.37499999999999, -94.78));
#85 = CARTESIAN_POINT('', (-2.375, -2.375, -50.));
#86 = CARTESIAN_POINT('', (-2.375, -2.37499999999999, -94.78));
#87 = CARTESIAN_POINT('', (-2.375, 3.20704380526713E-15, -50.));
#88 = CARTESIAN_POINT('', (-2.375, 9.31327044070549E-15, -94.78));
#89 = ADVANCED_FACE('', (#90), #109, .T.);
#90 = FACE_OUTER_BOUND('', #91, .T.);
#91 = EDGE_LOOP('', (#92, #100, #107, #108));
#92 = ORIENTED_EDGE('', *, *, #93, .F.);
#93 = EDGE_CURVE('', #94, #55, #96, .T.);
#94 = VERTEX_POINT('', #95);
#95 = CARTESIAN_POINT('', (-3., 3.18408167778312E-15, -49.));
#96 = LINE('', #97, #98);
#97 = CARTESIAN_POINT('', (-3., 3.18408167778312E-15, -49.));
#98 = VECTOR('', #99, 1.17924764150708);
#99 = DIRECTION('', (0.625, 2.29621274840097E-17, -1.));
#100 = ORIENTED_EDGE('', *, *, #101, .T.);
#101 = EDGE_CURVE('', #94, #94, #102, .T.);
#102 = CIRCLE('', #103, 3.);
#103 = AXIS2_PLACEMENT_3D('', #104, #105, #106);
#104 = CARTESIAN_POINT('', (8.32667268468867E-16, 1.38777878078145E-15, -49.));
#105 = DIRECTION('', (0., 0., -1.));
#106 = DIRECTION('', (-1., 5.98767632333891E-16, 0.));
#107 = ORIENTED_EDGE('', *, *, #93, .T.);
#108 = ORIENTED_EDGE('', *, *, #62, .F.);
#109 = (
   BOUNDED_SURFACE ()
   B_SPLINE_SURFACE (2, 1, ((#110, #111), (#112, #113), (#114, #115), (#116, #117), (#118, #119), (#120, #121), (#122, #123), (#124, #125), (#126, #127)), .UNSPECIFIED., .T., .F., .U.)
   B_SPLINE_SURFACE_WITH_KNOTS ((3, 2, 2, 2, 3), (2, 2), (0., 0.25, 0.5, 0.75, 1.), (0., 1.), .UNSPECIFIED.)
   GEOMETRIC_REPRESENTATION_ITEM ()
   RATIONAL_B_SPLINE_SURFACE (((1., 1.), (0.707106781186548, 0.707106781186548), (1., 1.), (0.707106781186548, 0.707106781186548), (1., 1.), (0.707106781186548, 0.707106781186548), (1., 1.), (0.707106781186548, 0.707106781186548), (1., 1.)))
   REPRESENTATION_ITEM ('')
   SURFACE ()
);
#110 = CARTESIAN_POINT('', (-3., 3.18408167778312E-15, -49.));
#111 = CARTESIAN_POINT('', (-2.375, 1.92167348787431E-15, -50.));
#112 = CARTESIAN_POINT('', (-3., 3., -49.));
#113 = CARTESIAN_POINT('', (-2.375, 2.375, -50.));
#114 = CARTESIAN_POINT('', (2.44527314559844E-15, 3., -49.));
#115 = CARTESIAN_POINT('', (2.10931358786311E-15, 2.375, -50.));
#116 = CARTESIAN_POINT('', (3., 3., -49.));
#117 = CARTESIAN_POINT('', (2.375, 2.375, -50.));
#118 = CARTESIAN_POINT('', (3., -4.11300764760227E-17, -49.));
#119 = CARTESIAN_POINT('', (2.375, -6.31619150914176E-16, -50.));
#120 = CARTESIAN_POINT('', (3., -3., -49.));
#121 = CARTESIAN_POINT('', (2.375, -2.375, -50.));
#122 = CARTESIAN_POINT('', (-4.12544568916498E-16, -3., -49.));
#123 = CARTESIAN_POINT('', (-1.53125436127881E-16, -2.375, -50.));
#124 = CARTESIAN_POINT('', (-3., -3., -49.));
#125 = CARTESIAN_POINT('', (-2.375, -2.375, -50.));
#126 = CARTESIAN_POINT('', (-3., 3.18408167778312E-15, -49.));
#127 = CARTESIAN_POINT('', (-2.375, 1.92167348787431E-15, -50.));
#128 = ADVANCED_FACE('', (#129), #148, .T.);
#129 = FACE_OUTER_BOUND('', #130, .T.);
#130 = EDGE_LOOP('', (#131, #139, #146, #147));
#131 = ORIENTED_EDGE('', *, *, #132, .T.);
#132 = EDGE_CURVE('', #94, #133, #135, .T.);
#133 = VERTEX_POINT('', #134);
#134 = CARTESIAN_POINT('', (-3., 2.02066721859313E-16, -0.299999999999997));
#135 = LINE('', #136, #137);
#136 = CARTESIAN_POINT('', (-3., 3.18408167778312E-15, -49.));
#137 = VECTOR('', #138, 48.7);
#138 = DIRECTION('', (0., -2.98201495592381E-15, 48.7));
#139 = ORIENTED_EDGE('', *, *, #140, .T.);
#140 = EDGE_CURVE('', #133, #133, #141, .T.);
#141 = CIRCLE('', #142, 3.);
#142 = AXIS2_PLACEMENT_3D('', #143, #144, #145);
#143 = CARTESIAN_POINT('', (1.346145417358E-15, -1.88737914186277E-15, -0.299999999999997));
#144 = DIRECTION('', (-1.85037170770859E-17, 6.01984494166833E-17, -1.));
#145 = DIRECTION('', (-1., 6.96481954574026E-16, 1.85037170770859E-17));
#146 = ORIENTED_EDGE('', *, *, #132, .F.);
#147 = ORIENTED_EDGE('', *, *, #101, .F.);
#148 = (
   BOUNDED_SURFACE ()
   B_SPLINE_SURFACE (1, 2, ((#149, #150, #151, #152, #153, #154, #155, #156, #157), (#158, #159, #160, #161, #162, #163, #164, #165, #166)), .UNSPECIFIED., .F., .T., .U.)
   B_SPLINE_SURFACE_WITH_KNOTS ((2, 2), (3, 2, 2, 2, 3), (0., 1.), (0., 4.7123889803847, 9.4247779607694, 14.1371669411541, 18.8495559215388), .UNSPECIFIED.)
   GEOMETRIC_REPRESENTATION_ITEM ()
   RATIONAL_B_SPLINE_SURFACE (((1., 0.707106781186548, 1., 0.707106781186548, 1., 0.707106781186548, 1., 0.707106781186548, 1.), (1., 0.707106781186548, 1., 0.707106781186548, 1., 0.707106781186548, 1., 0.707106781186548, 1.)))
   REPRESENTATION_ITEM ('')
   SURFACE ()
);
#149 = CARTESIAN_POINT('', (-3., 2.75557967849717E-15, -49.));
#150 = CARTESIAN_POINT('', (-3., 3., -49.));
#151 = CARTESIAN_POINT('', (2.35076323955389E-15, 3., -49.));
#152 = CARTESIAN_POINT('', (3., 3., -49.));
#153 = CARTESIAN_POINT('', (3., -1.05591800920278E-15, -49.));
#154 = CARTESIAN_POINT('', (3., -3., -49.));
#155 = CARTESIAN_POINT('', (-1.09334040840185E-15, -3., -49.));
#156 = CARTESIAN_POINT('', (-3., -3., -49.));
#157 = CARTESIAN_POINT('', (-3., 2.75557967849717E-15, -49.));
#158 = CARTESIAN_POINT('', (-3., 2.02066721859312E-16, -0.299999999999997));
#159 = CARTESIAN_POINT('', (-3., 3., -0.299999999999997));
#160 = CARTESIAN_POINT('', (3.25189426120798E-15, 3., -0.299999999999997));
#161 = CARTESIAN_POINT('', (3., 3., -0.299999999999997));
#162 = CARTESIAN_POINT('', (3., -3.60943096584064E-15, -0.299999999999997));
#163 = CARTESIAN_POINT('', (3., -3., -0.299999999999997));
#164 = CARTESIAN_POINT('', (-1.92209386747767E-16, -3., -0.299999999999997));
#165 = CARTESIAN_POINT('', (-3., -3., -0.299999999999997));
#166 = CARTESIAN_POINT('', (-3., 2.02066721859312E-16, -0.299999999999997));
#167 = ADVANCED_FACE('', (#168), #187, .T.);
#168 = FACE_OUTER_BOUND('', #169, .T.);
#169 = EDGE_LOOP('', (#170, #178, #185, #186));
#170 = ORIENTED_EDGE('', *, *, #171, .T.);
#171 = EDGE_CURVE('', #133, #172, #174, .T.);
#172 = VERTEX_POINT('', #173);
#173 = CARTESIAN_POINT('', (-2.7, 1.65327317884893E-16, 0.));
#174 = LINE('', #175, #176);
#175 = CARTESIAN_POINT('', (-3., 2.02066721859313E-16, -0.299999999999997));
#176 = VECTOR('', #177, 0.424264068711926);
#177 = DIRECTION('', (0.3, -3.673940397442E-17, 0.299999999999997));
#178 = ORIENTED_EDGE('', *, *, #179, .T.);
#179 = EDGE_CURVE('', #172, #172, #180, .T.);
#180 = CIRCLE('', #181, 2.7);
#181 = AXIS2_PLACEMENT_3D('', #182, #183, #184);
#182 = CARTESIAN_POINT('', (9.22872889219661E-16, -1.27675647831893E-15, -8.0118685686509E-32));
#183 = DIRECTION('', (3.03091835913145E-33, 6.12323399573678E-17, -1.));
#184 = DIRECTION('', (-1., 5.34105109705119E-16, 2.96735872912996E-32));
#185 = ORIENTED_EDGE('', *, *, #171, .F.);
#186 = ORIENTED_EDGE('', *, *, #140, .F.);
#187 = (
   BOUNDED_SURFACE ()
   B_SPLINE_SURFACE (1, 2, ((#188, #189, #190, #191, #192, #193, #194, #195, #196), (#197, #198, #199, #200, #201, #202, #203, #204, #205)), .UNSPECIFIED., .F., .T., .U.)
   B_SPLINE_SURFACE_WITH_KNOTS ((2, 2), (3, 2, 2, 2, 3), (0., 1.), (0., 0.25, 0.5, 0.75, 1.), .UNSPECIFIED.)
   GEOMETRIC_REPRESENTATION_ITEM ()
   RATIONAL_B_SPLINE_SURFACE (((1., 0.707106781186548, 1., 0.707106781186548, 1., 0.707106781186548, 1., 0.707106781186548, 1.), (1., 0.707106781186548, 1., 0.707106781186548, 1., 0.707106781186548, 1., 0.707106781186548, 1.)))
   REPRESENTATION_ITEM ('')
   SURFACE ()
);
#188 = CARTESIAN_POINT('', (-3., 1.49129302665284E-15, -0.299999999999997));
#189 = CARTESIAN_POINT('', (-3., 3., -0.299999999999985));
#190 = CARTESIAN_POINT('', (2.34149119846292E-15, 3., -0.299999999999985));
#191 = CARTESIAN_POINT('', (3., 3., -0.299999999999985));
#192 = CARTESIAN_POINT('', (3., -1.34594359183367E-15, -0.299999999999997));
#193 = CARTESIAN_POINT('', (3., -3., -0.300000000000009));
#194 = CARTESIAN_POINT('', (-1.28351380279387E-16, -3., -0.300000000000009));
#195 = CARTESIAN_POINT('', (-3., -3., -0.300000000000009));
#196 = CARTESIAN_POINT('', (-3., 1.49129302665284E-15, -0.299999999999997));
#197 = CARTESIAN_POINT('', (-2.7, 1.65327317884893E-16, -2.18952885050753E-47));
#198 = CARTESIAN_POINT('', (-2.7, 2.7, 1.04916075827078E-14));
#199 = CARTESIAN_POINT('', (2.19962936753859E-15, 2.7, 1.04916075827078E-14));
#200 = CARTESIAN_POINT('', (2.7, 2.7, 1.04916075827078E-14));
#201 = CARTESIAN_POINT('', (2.7, -2.38818563875297E-15, 1.12461399303431E-30));
#202 = CARTESIAN_POINT('', (2.7, -2.7, -1.04916075827078E-14));
#203 = CARTESIAN_POINT('', (-2.32289533294833E-17, -2.7, -1.04916075827078E-14));
#204 = CARTESIAN_POINT('', (-2.7, -2.7, -1.04916075827078E-14));
#205 = CARTESIAN_POINT('', (-2.7, 1.65327317884893E-16, -2.18952885050753E-47));
#206 = ADVANCED_FACE('', (#207), #210, .T.);
#207 = FACE_OUTER_BOUND('', #208, .T.);
#208 = EDGE_LOOP('', (#209));
#209 = ORIENTED_EDGE('', *, *, #179, .F.);
#210 = B_SPLINE_SURFACE_WITH_KNOTS('', 1, 1, ((#211, #212), (#213, #214)), .UNSPECIFIED., .F., .F., .U., (2, 2), (2, 2), (0.0454545454545454, 0.954545454545454), (0.0454545454545454, 0.954545454545454), .UNSPECIFIED.);
#211 = CARTESIAN_POINT('', (2.7, -2.7, -1.65327317884893E-16));
#212 = CARTESIAN_POINT('', (-2.7, -2.7, -1.65327317884893E-16));
#213 = CARTESIAN_POINT('', (2.7, 2.7, 1.65327317884893E-16));
#214 = CARTESIAN_POINT('', (-2.7, 2.7, 1.65327317884893E-16));
#215 = ADVANCED_FACE('', (#216), #219, .T.);
#216 = FACE_OUTER_BOUND('', #217, .T.);
#217 = EDGE_LOOP('', (#218));
#218 = ORIENTED_EDGE('', *, *, #25, .T.);
#219 = B_SPLINE_SURFACE_WITH_KNOTS('', 1, 1, ((#220, #221), (#222, #223)), .UNSPECIFIED., .F., .F., .U., (2, 2), (2, 2), (0.500996427709476, 0.525906909703717), (0.474093090296283, 0.499003572290524), .UNSPECIFIED.);
#220 = CARTESIAN_POINT('', (-2.50000000000001, 2.50000000000001, -95.));
#221 = CARTESIAN_POINT('', (-2.50000000000001, -2.49999999999999, -95.));
#222 = CARTESIAN_POINT('', (2.49999999999999, 2.50000000000001, -95.));
#223 = CARTESIAN_POINT('', (2.49999999999999, -2.49999999999999, -95.));
#224 = DRAUGHTING_MODEL('', (#232, #307, #346, #351, #356, #361, #366), #380);
#225 = PRESENTATION_STYLE_ASSIGNMENT((#226));
#226 = SURFACE_STYLE_USAGE(.POSITIVE., #227);
#227 = SURFACE_SIDE_STYLE('', (#228));
#228 = SURFACE_STYLE_FILL_AREA(#229);
#229 = FILL_AREA_STYLE('', (#230));
#230 = FILL_AREA_STYLE_COLOUR('', #231);
#231 = COLOUR_RGB('', 0.50196078431373, 0.50196078431373, 0.50196078431373);
#232 = STYLED_ITEM('', (#225), #1);
#233 = MANIFOLD_SOLID_BREP('CUT', #234);
#234 = CLOSED_SHELL('', (#235, #252, #291));
#235 = ADVANCED_FACE('', (#236), #247, .T.);
#236 = FACE_OUTER_BOUND('', #237, .T.);
#237 = EDGE_LOOP('', (#238));
#238 = ORIENTED_EDGE('', *, *, #239, .F.);
#239 = EDGE_CURVE('', #240, #240, #242, .T.);
#240 = VERTEX_POINT('', #241);
#241 = CARTESIAN_POINT('', (-2.5, 5.97015314584335E-15, -95.));
#242 = CIRCLE('', #243, 2.5);
#243 = AXIS2_PLACEMENT_3D('', #244, #245, #246);
#244 = CARTESIAN_POINT('', (-3.81639164714898E-16, 6.27276008913213E-15, -95.));
#245 = DIRECTION('', (0., 0., -1.));
#246 = DIRECTION('', (-1., -1.21042777315514E-16, 0.));
#247 = B_SPLINE_SURFACE_WITH_KNOTS('', 1, 1, ((#248, #249), (#250, #251)), .UNSPECIFIED., .F., .F., .U., (2, 2), (2, 2), (0.474093090296283, 0.499003572290524), (0.500996427709476, 0.525906909703717), .UNSPECIFIED.);
#248 = CARTESIAN_POINT('', (-2.5, 2.50000000000001, -95.));
#249 = CARTESIAN_POINT('', (2.5, 2.50000000000001, -95.));
#250 = CARTESIAN_POINT('', (-2.5, -2.49999999999999, -95.));
#251 = CARTESIAN_POINT('', (2.5, -2.49999999999999, -95.));
#252 = ADVANCED_FACE('', (#253), #272, .T.);
#253 = FACE_OUTER_BOUND('', #254, .T.);
#254 = EDGE_LOOP('', (#255, #263, #264, #265));
#255 = ORIENTED_EDGE('', *, *, #256, .F.);
#256 = EDGE_CURVE('', #240, #257, #259, .T.);
#257 = VERTEX_POINT('', #258);
#258 = CARTESIAN_POINT('', (-2.5, 6.27631484563019E-15, -100.));
#259 = LINE('', #260, #261);
#260 = CARTESIAN_POINT('', (-2.5, 5.97015314584335E-15, -95.));
#261 = VECTOR('', #262, 5.);
#262 = DIRECTION('', (0., 3.06161699786839E-16, -5.));
#263 = ORIENTED_EDGE('', *, *, #239, .T.);
#264 = ORIENTED_EDGE('', *, *, #256, .T.);
#265 = ORIENTED_EDGE('', *, *, #266, .F.);
#266 = EDGE_CURVE('', #257, #257, #267, .T.);
#267 = CIRCLE('', #268, 2.5);
#268 = AXIS2_PLACEMENT_3D('', #269, #270, #271);
#269 = CARTESIAN_POINT('', (-1.38777878078145E-17, 7.99360577730113E-15, -100.));
#270 = DIRECTION('', (0., 0., -1.));
#271 = DIRECTION('', (-1., -6.86916372668375E-16, 0.));
#272 = (
   BOUNDED_SURFACE ()
   B_SPLINE_SURFACE (2, 1, ((#273, #274), (#275, #276), (#277, #278), (#279, #280), (#281, #282), (#283, #284), (#285, #286), (#287, #288), (#289, #290)), .UNSPECIFIED., .T., .F., .U.)
   B_SPLINE_SURFACE_WITH_KNOTS ((3, 2, 2, 2, 3), (2, 2), (0., 3.92699081698725, 7.8539816339745, 11.7809724509618, 15.707963267949), (0., 1.), .UNSPECIFIED.)
   GEOMETRIC_REPRESENTATION_ITEM ()
   RATIONAL_B_SPLINE_SURFACE (((1., 1.), (0.707106781186548, 0.707106781186548), (1., 1.), (0.707106781186548, 0.707106781186548), (1., 1.), (0.707106781186548, 0.707106781186548), (1., 1.), (0.707106781186548, 0.707106781186548), (1., 1.)))
   REPRESENTATION_ITEM ('')
   SURFACE ()
);
#273 = CARTESIAN_POINT('', (-2.5, 5.97015314584335E-15, -95.));
#274 = CARTESIAN_POINT('', (-2.50000000000003, 6.19219775076836E-15, -100.));
#275 = CARTESIAN_POINT('', (-2.5, 2.50000000000001, -95.));
#276 = CARTESIAN_POINT('', (-2.50000000000003, 2.50000000000001, -100.));
#277 = CARTESIAN_POINT('', (-1.5103996665761E-15, 2.50000000000001, -95.));
#278 = CARTESIAN_POINT('', (-2.993210909698E-14, 2.50000000000001, -100.));
#279 = CARTESIAN_POINT('', (2.5, 2.50000000000001, -95.));
#280 = CARTESIAN_POINT('', (2.49999999999997, 2.50000000000001, -100.));
#281 = CARTESIAN_POINT('', (2.5, 9.87913089869568E-15, -95.));
#282 = CARTESIAN_POINT('', (2.49999999999997, 1.01011755036207E-14, -100.));
#283 = CARTESIAN_POINT('', (2.5, -2.49999999999999, -95.));
#284 = CARTESIAN_POINT('', (2.49999999999997, -2.49999999999999, -100.));
#285 = CARTESIAN_POINT('', (2.70473978606306E-15, -2.49999999999999, -95.));
#286 = CARTESIAN_POINT('', (-2.57169696443409E-14, -2.49999999999999, -100.));
#287 = CARTESIAN_POINT('', (-2.5, -2.5, -95.));
#288 = CARTESIAN_POINT('', (-2.50000000000003, -2.49999999999999, -100.));
#289 = CARTESIAN_POINT('', (-2.5, 5.97015314584335E-15, -95.));
#290 = CARTESIAN_POINT('', (-2.50000000000003, 6.19219775076836E-15, -100.));
#291 = ADVANCED_FACE('', (#292), #295, .T.);
#292 = FACE_OUTER_BOUND('', #293, .T.);
#293 = EDGE_LOOP('', (#294));
#294 = ORIENTED_EDGE('', *, *, #266, .T.);
#295 = B_SPLINE_SURFACE_WITH_KNOTS('', 1, 1, ((#296, #297), (#298, #299)), .UNSPECIFIED., .F., .F., .U., (2, 2), (2, 2), (0.0454545454545454, 0.954545454545455), (0.0454545454545454, 0.954545454545455), .UNSPECIFIED.);
#296 = CARTESIAN_POINT('', (2.5, -2.49999999999999, -100.));
#297 = CARTESIAN_POINT('', (2.5, 2.50000000000001, -100.));
#298 = CARTESIAN_POINT('', (-2.5, -2.49999999999999, -100.));
#299 = CARTESIAN_POINT('', (-2.5, 2.50000000000001, -100.));
#300 = PRESENTATION_STYLE_ASSIGNMENT((#301));
#301 = SURFACE_STYLE_USAGE(.POSITIVE., #302);
#302 = SURFACE_SIDE_STYLE('', (#303));
#303 = SURFACE_STYLE_FILL_AREA(#304);
#304 = FILL_AREA_STYLE('', (#305));
#305 = FILL_AREA_STYLE_COLOUR('', #306);
#306 = COLOUR_RGB('', 0.8, 0.8, 0.8);
#307 = STYLED_ITEM('', (#300), #233);
#308 = TRIMMED_CURVE('cutting part line', #309, (#313), (#314), .T., .CARTESIAN.);
#309 = LINE('', #310, #311);
#310 = CARTESIAN_POINT('', (2.0122792321331E-16, 0., -100.));
#311 = VECTOR('', #312, 2.5);
#312 = DIRECTION('', (2.5, 0., 0.));
#313 = CARTESIAN_POINT('', (2.0122792321331E-16, 0., -100.));
#314 = CARTESIAN_POINT('', (2.5, 0., -100.));
#315 = TRIMMED_CURVE('cutting part line', #316, (#320), (#321), .T., .CARTESIAN.);
#316 = LINE('', #317, #318);
#317 = CARTESIAN_POINT('', (2.49999999999997, -2.74016438165599E-16, -100.));
#318 = VECTOR('', #319, 4.99999999999999);
#319 = DIRECTION('', (2.8421709430404E-14, 2.74016438165599E-16, 4.99999999999999));
#320 = CARTESIAN_POINT('', (2.49999999999997, -2.74016438165599E-16, -100.));
#321 = CARTESIAN_POINT('', (2.5, 0., -95.));
#322 = TRIMMED_CURVE('cutting part line', #323, (#327), (#328), .T., .CARTESIAN.);
#323 = LINE('', #324, #325);
#324 = CARTESIAN_POINT('', (2.5, 0., -95.));
#325 = VECTOR('', #326, 2.5);
#326 = DIRECTION('', (-2.5, 0., 0.));
#327 = CARTESIAN_POINT('', (2.5, 0., -95.));
#328 = CARTESIAN_POINT('', (6.93889390390723E-18, 0., -95.));
#329 = TRIMMED_CURVE('cutting part line', #330, (#334), (#335), .T., .CARTESIAN.);
#330 = LINE('', #331, #332);
#331 = CARTESIAN_POINT('', (0., 0., -95.));
#332 = VECTOR('', #333, 5.);
#333 = DIRECTION('', (0., 0., -5.));
#334 = CARTESIAN_POINT('', (0., 0., -95.));
#335 = CARTESIAN_POINT('', (0., 0., -100.));
#336 = COMPOSITE_CURVE('cutting part line', (#337, #338, #339, #340), .U.);
#337 = COMPOSITE_CURVE_SEGMENT(.CONTINUOUS., .T., #308);
#338 = COMPOSITE_CURVE_SEGMENT(.CONTINUOUS., .T., #315);
#339 = COMPOSITE_CURVE_SEGMENT(.CONTINUOUS., .T., #322);
#340 = COMPOSITE_CURVE_SEGMENT(.CONTINUOUS., .T., #329);
#341 = GEOMETRIC_SET('', (#336, #379));
#342 = PRESENTATION_STYLE_ASSIGNMENT((#343));
#343 = CURVE_STYLE('', #345, POSITIVE_LENGTH_MEASURE(1.E-6), #344);
#344 = COLOUR_RGB('', 0., 0., 1.);
#345 = DRAUGHTING_PRE_DEFINED_CURVE_FONT('continuous');
#346 = STYLED_ITEM('', (#342), #336);
#347 = PRESENTATION_STYLE_ASSIGNMENT((#348));
#348 = CURVE_STYLE('', #350, POSITIVE_LENGTH_MEASURE(1.E-6), #349);
#349 = COLOUR_RGB('', 0., 0., 1.);
#350 = DRAUGHTING_PRE_DEFINED_CURVE_FONT('continuous');
#351 = OVER_RIDING_STYLED_ITEM('', (#347), #308, #346);
#352 = PRESENTATION_STYLE_ASSIGNMENT((#353));
#353 = CURVE_STYLE('', #355, POSITIVE_LENGTH_MEASURE(1.E-6), #354);
#354 = COLOUR_RGB('', 0., 0., 1.);
#355 = DRAUGHTING_PRE_DEFINED_CURVE_FONT('continuous');
#356 = OVER_RIDING_STYLED_ITEM('', (#352), #315, #346);
#357 = PRESENTATION_STYLE_ASSIGNMENT((#358));
#358 = CURVE_STYLE('', #360, POSITIVE_LENGTH_MEASURE(1.E-6), #359);
#359 = COLOUR_RGB('', 0., 0., 1.);
#360 = DRAUGHTING_PRE_DEFINED_CURVE_FONT('continuous');
#361 = OVER_RIDING_STYLED_ITEM('', (#357), #322, #346);
#362 = PRESENTATION_STYLE_ASSIGNMENT((#363));
#363 = CURVE_STYLE('', #365, POSITIVE_LENGTH_MEASURE(1.E-6), #364);
#364 = COLOUR_RGB('', 0., 0., 1.);
#365 = DRAUGHTING_PRE_DEFINED_CURVE_FONT('continuous');
#366 = OVER_RIDING_STYLED_ITEM('', (#362), #329, #346);
#367 = AXIS2_PLACEMENT_3D('MCS', #368, #369, #370);
#368 = CARTESIAN_POINT('', (0., 0., -36.));
#369 = DIRECTION('', (0., 0., 1.));
#370 = DIRECTION('', (1., 0., 0.));
#371 = AXIS2_PLACEMENT_3D('PCS', #372, #373, #374);
#372 = CARTESIAN_POINT('', (0., 0., 0.));
#373 = DIRECTION('', (0., 0., 1.));
#374 = DIRECTION('', (1., 0., 0.));
#375 = AXIS2_PLACEMENT_3D('CIP', #376, #377, #378);
#376 = CARTESIAN_POINT('', (0., 0., -100.));
#377 = DIRECTION('', (0., 0., 1.));
#378 = DIRECTION('', (1., 0., 0.));
#379 = CARTESIAN_POINT('CRP', (2.5, 0., -100.));
#380 = (
   GEOMETRIC_REPRESENTATION_CONTEXT (3)
   GLOBAL_UNCERTAINTY_ASSIGNED_CONTEXT ((#382))
   GLOBAL_UNIT_ASSIGNED_CONTEXT ((#381, #383, #384))
   REPRESENTATION_CONTEXT ('', '3D')
);
#381 = (
   LENGTH_UNIT ()
   NAMED_UNIT (*)
   SI_UNIT (.MILLI., .METRE.)
);
#382 = UNCERTAINTY_MEASURE_WITH_UNIT(LENGTH_MEASURE(1.E-6), #381, 'DISTANCE_ACCURACY_VALUE', '');
#383 = (
   NAMED_UNIT (*)
   SI_UNIT ($, .STERADIAN.)
   SOLID_ANGLE_UNIT ()
);
#384 = (
   NAMED_UNIT (*)
   PLANE_ANGLE_UNIT ()
   SI_UNIT ($, .RADIAN.)
);
#385 = SHAPE_REPRESENTATION('', (), #380);
#386 = PRODUCT_DEFINITION_SHAPE('', '', #387);
#387 = PRODUCT_DEFINITION('', '', #390, #394);
#388 = APPLICATION_CONTEXT('configuration controlled 3D designs of mechanical parts and assemblies');
#389 = APPLICATION_PROTOCOL_DEFINITION('International Standard', 'automotive_design', 2002, #388);
#390 = PRODUCT_DEFINITION_FORMATION_WITH_SPECIFIED_SOURCE('', '', #391, .NOT_KNOWN.);
#391 = PRODUCT('product-name', '2P210-0500-NC       N20C', '', (#392));
#392 = PRODUCT_CONTEXT('', #388, 'mechanical');
#393 = PRODUCT_RELATED_PRODUCT_CATEGORY('detail', '', (#391));
#394 = PRODUCT_DEFINITION_CONTEXT('part definition', #388, 'design');
#395 = SHAPE_DEFINITION_REPRESENTATION(#386, #385);
#396 = CONSTRUCTIVE_GEOMETRY_REPRESENTATION('supplemental geometry', (#367, #371, #375), #380);
#397 = CONSTRUCTIVE_GEOMETRY_REPRESENTATION_RELATIONSHIP('', '', #385, #396);
#398 = SHAPE_REPRESENTATION_RELATIONSHIP('', '', #385, #399);
#399 = SHAPE_REPRESENTATION('', (#341), #380);
#400 = SHAPE_REPRESENTATION_RELATIONSHIP('', '', #385, #401);
#401 = ADVANCED_BREP_SHAPE_REPRESENTATION('', (#1, #233), #380);
ENDSEC;
END-ISO-10303-21;
