ISO-10303-21;
HEADER;
FILE_DESCRIPTION(('STEP'), '1');
FILE_NAME('C:\\Users\\ds2002\\OneDrive - Sandvik\\HomeShare\\Documents\\Batchrepair\\CorSRT2\\NEW_MILSQ_SLD\\Output\\MOD000000000000000020082311400000.stp', '2019-01-02T12:05:32', (''), (''), 'Express v3.0.0.0', 'Express Tool', 'Unknown');
FILE_SCHEMA(('AUTOMOTIVE_DESIGN'));
ENDSEC;

DATA;
#1 = MANIFOLD_SOLID_BREP('NOCUT', #2);
#2 = CLOSED_SHELL('', (#3, #50, #89, #136, #145, #176, #215));
#3 = ADVANCED_FACE('', (#4), #31, .T.);
#4 = FACE_OUTER_BOUND('', #5, .T.);
#5 = EDGE_LOOP('', (#6, #16, #23, #24));
#6 = ORIENTED_EDGE('', *, *, #7, .F.);
#7 = EDGE_CURVE('', #8, #10, #12, .T.);
#8 = VERTEX_POINT('', #9);
#9 = CARTESIAN_POINT('', (-1.14, 2.21293676605927E-15, -35.));
#10 = VERTEX_POINT('', #11);
#11 = CARTESIAN_POINT('', (-1., 2.93915231795365E-15, -47.));
#12 = LINE('', #13, #14);
#13 = CARTESIAN_POINT('', (-1.14, 2.21293676605927E-15, -35.));
#14 = VECTOR('', #15, 12.0008166388792);
#15 = DIRECTION('', (0.14, 7.2621555189438E-16, -12.));
#16 = ORIENTED_EDGE('', *, *, #17, .T.);
#17 = EDGE_CURVE('', #8, #8, #18, .T.);
#18 = CIRCLE('', #19, 1.14);
#19 = AXIS2_PLACEMENT_3D('', #20, #21, #22);
#20 = CARTESIAN_POINT('', (-2.77555756156289E-17, 2.74780198594726E-15, -35.));
#21 = DIRECTION('', (0., 0., -1.));
#22 = DIRECTION('', (-1., -4.69180017445607E-16, 0.));
#23 = ORIENTED_EDGE('', *, *, #7, .T.);
#24 = ORIENTED_EDGE('', *, *, #25, .F.);
#25 = EDGE_CURVE('', #10, #10, #26, .T.);
#26 = CIRCLE('', #27, 1.);
#27 = AXIS2_PLACEMENT_3D('', #28, #29, #30);
#28 = CARTESIAN_POINT('', (-3.46944695195361E-17, 3.24740234702858E-15, -47.));
#29 = DIRECTION('', (0., 0., -1.));
#30 = DIRECTION('', (-1., -3.08250029074933E-16, 0.));
#31 = (
   BOUNDED_SURFACE ()
   B_SPLINE_SURFACE (2, 1, ((#32, #33), (#34, #35), (#36, #37), (#38, #39), (#40, #41), (#42, #43), (#44, #45), (#46, #47), (#48, #49)), .UNSPECIFIED., .T., .F., .U.)
   B_SPLINE_SURFACE_WITH_KNOTS ((3, 2, 2, 2, 3), (2, 2), (0., 0.25, 0.5, 0.75, 1.), (0., 1.), .UNSPECIFIED.)
   GEOMETRIC_REPRESENTATION_ITEM ()
   RATIONAL_B_SPLINE_SURFACE (((1., 1.), (0.707106781186548, 0.707106781186548), (1., 1.), (0.707106781186548, 0.707106781186548), (1., 1.), (0.707106781186548, 0.707106781186548), (1., 1.), (0.707106781186548, 0.707106781186548), (1., 1.)))
   REPRESENTATION_ITEM ('')
   SURFACE ()
);
#32 = CARTESIAN_POINT('', (-1.14, 2.21293676605927E-15, -35.));
#33 = CARTESIAN_POINT('', (-0.999999999999999, 4.77126743475436E-15, -47.));
#34 = CARTESIAN_POINT('', (-1.14, 1.14, -35.));
#35 = CARTESIAN_POINT('', (-0.999999999999998, 1., -47.));
#36 = CARTESIAN_POINT('', (1.92455674053479E-15, 1.14, -35.));
#37 = CARTESIAN_POINT('', (1.71590237526103E-15, 1., -47.));
#38 = CARTESIAN_POINT('', (1.14, 1.14, -35.));
#39 = CARTESIAN_POINT('', (1., 1., -47.));
#40 = CARTESIAN_POINT('', (1.14, -1.18514861125635E-15, -35.));
#41 = CARTESIAN_POINT('', (1., 1.79049078798628E-15, -47.));
#42 = CARTESIAN_POINT('', (1.14, -1.14, -35.));
#43 = CARTESIAN_POINT('', (0.999999999999998, -0.999999999999997, -47.));
#44 = CARTESIAN_POINT('', (-1.33391890167802E-15, -1.14, -35.));
#45 = CARTESIAN_POINT('', (-1.14240959159232E-15, -0.999999999999996, -47.));
#46 = CARTESIAN_POINT('', (-1.14, -1.14, -35.));
#47 = CARTESIAN_POINT('', (-1., -0.999999999999995, -47.));
#48 = CARTESIAN_POINT('', (-1.14, 2.21293676605927E-15, -35.));
#49 = CARTESIAN_POINT('', (-0.999999999999999, 4.77126743475436E-15, -47.));
#50 = ADVANCED_FACE('', (#51), #70, .T.);
#51 = FACE_OUTER_BOUND('', #52, .T.);
#52 = EDGE_LOOP('', (#53, #61, #68, #69));
#53 = ORIENTED_EDGE('', *, *, #54, .F.);
#54 = EDGE_CURVE('', #55, #8, #57, .T.);
#55 = VERTEX_POINT('', #56);
#56 = CARTESIAN_POINT('', (-1.5, 1.80635402874235E-15, -28.));
#57 = LINE('', #58, #59);
#58 = CARTESIAN_POINT('', (-1.5, 1.80635402874235E-15, -28.));
#59 = VECTOR('', #60, 7.009251029889);
#60 = DIRECTION('', (0.36, 4.0658273731692E-16, -7.));
#61 = ORIENTED_EDGE('', *, *, #62, .T.);
#62 = EDGE_CURVE('', #55, #55, #63, .T.);
#63 = CIRCLE('', #64, 1.5);
#64 = AXIS2_PLACEMENT_3D('', #65, #66, #67);
#65 = CARTESIAN_POINT('', (3.7470027081099E-16, 1.52655665885959E-15, -28.));
#66 = DIRECTION('', (2.368475785867E-15, -7.70540152533532E-15, -1.));
#67 = DIRECTION('', (-1., 1.8653157992184E-16, -2.368475785867E-15));
#68 = ORIENTED_EDGE('', *, *, #54, .T.);
#69 = ORIENTED_EDGE('', *, *, #17, .F.);
#70 = (
   BOUNDED_SURFACE ()
   B_SPLINE_SURFACE (2, 1, ((#71, #72), (#73, #74), (#75, #76), (#77, #78), (#79, #80), (#81, #82), (#83, #84), (#85, #86), (#87, #88)), .UNSPECIFIED., .T., .F., .U.)
   B_SPLINE_SURFACE_WITH_KNOTS ((3, 2, 2, 2, 3), (2, 2), (0., 0.25, 0.5, 0.75, 1.), (0., 1.), .UNSPECIFIED.)
   GEOMETRIC_REPRESENTATION_ITEM ()
   RATIONAL_B_SPLINE_SURFACE (((1., 1.), (0.707106781186548, 0.707106781186548), (1., 1.), (0.707106781186548, 0.707106781186548), (1., 1.), (0.707106781186548, 0.707106781186548), (1., 1.), (0.707106781186548, 0.707106781186548), (1., 1.)))
   REPRESENTATION_ITEM ('')
   SURFACE ()
);
#71 = CARTESIAN_POINT('', (-1.5, 1.80635402874235E-15, -28.));
#72 = CARTESIAN_POINT('', (-1.13999999999998, 1.09971419778639E-15, -35.));
#73 = CARTESIAN_POINT('', (-1.5, 1.5, -28.));
#74 = CARTESIAN_POINT('', (-1.13999999999998, 1.14, -35.));
#75 = CARTESIAN_POINT('', (1.18021068820544E-15, 1.5, -28.));
#76 = CARTESIAN_POINT('', (1.75745453617845E-14, 1.14, -35.));
#77 = CARTESIAN_POINT('', (1.5, 1.5, -28.));
#78 = CARTESIAN_POINT('', (1.14000000000002, 1.14, -35.));
#79 = CARTESIAN_POINT('', (1.5, 2.64722132992519E-16, -28.));
#80 = CARTESIAN_POINT('', (1.14000000000002, -7.19260429834843E-17, -35.));
#81 = CARTESIAN_POINT('', (1.5, -1.5, -28.));
#82 = CARTESIAN_POINT('', (1.14000000000002, -1.14, -35.));
#83 = CARTESIAN_POINT('', (-1.77724187672286E-16, -1.5, -28.));
#84 = CARTESIAN_POINT('', (1.65425148561174E-14, -1.14, -35.));
#85 = CARTESIAN_POINT('', (-1.5, -1.5, -28.));
#86 = CARTESIAN_POINT('', (-1.13999999999998, -1.14, -35.));
#87 = CARTESIAN_POINT('', (-1.5, 1.80635402874235E-15, -28.));
#88 = CARTESIAN_POINT('', (-1.13999999999998, 1.09971419778639E-15, -35.));
#89 = ADVANCED_FACE('', (#90), #117, .T.);
#90 = FACE_OUTER_BOUND('', #91, .T.);
#91 = EDGE_LOOP('', (#92, #102, #109, #110));
#92 = ORIENTED_EDGE('', *, *, #93, .T.);
#93 = EDGE_CURVE('', #94, #96, #98, .T.);
#94 = VERTEX_POINT('', #95);
#95 = CARTESIAN_POINT('', (-1.5, 1.01033360929657E-16, -0.149999999999999));
#96 = VERTEX_POINT('', #97);
#97 = CARTESIAN_POINT('', (-1.35, 8.26636589424463E-17, 0.));
#98 = LINE('', #99, #100);
#99 = CARTESIAN_POINT('', (-1.5, 1.01033360929657E-16, -0.149999999999999));
#100 = VECTOR('', #101, 0.212132034355963);
#101 = DIRECTION('', (0.15, -1.83697019872107E-17, 0.149999999999999));
#102 = ORIENTED_EDGE('', *, *, #103, .T.);
#103 = EDGE_CURVE('', #96, #96, #104, .T.);
#104 = CIRCLE('', #105, 1.35);
#105 = AXIS2_PLACEMENT_3D('', #106, #107, #108);
#106 = CARTESIAN_POINT('', (9.0205620750794E-17, 1.66533453693773E-16, 1.23259516440783E-32));
#107 = DIRECTION('', (5.32622804422992E-33, 6.12323399573677E-17, -1.));
#108 = DIRECTION('', (-1., -6.21257738898719E-17, -9.13033455116912E-33));
#109 = ORIENTED_EDGE('', *, *, #93, .F.);
#110 = ORIENTED_EDGE('', *, *, #111, .F.);
#111 = EDGE_CURVE('', #94, #94, #112, .T.);
#112 = CIRCLE('', #113, 1.5);
#113 = AXIS2_PLACEMENT_3D('', #114, #115, #116);
#114 = CARTESIAN_POINT('', (1.45716771982052E-16, 0., -0.149999999999999));
#115 = DIRECTION('', (8.48385190676908E-33, 1.25956196478644E-16, -1.));
#116 = DIRECTION('', (-1., 6.73555739531047E-17, 0.));
#117 = (
   BOUNDED_SURFACE ()
   B_SPLINE_SURFACE (1, 2, ((#118, #119, #120, #121, #122, #123, #124, #125, #126), (#127, #128, #129, #130, #131, #132, #133, #134, #135)), .UNSPECIFIED., .F., .T., .U.)
   B_SPLINE_SURFACE_WITH_KNOTS ((2, 2), (3, 2, 2, 2, 3), (0., 1.), (0., 0.25, 0.5, 0.75, 1.), .UNSPECIFIED.)
   GEOMETRIC_REPRESENTATION_ITEM ()
   RATIONAL_B_SPLINE_SURFACE (((1., 0.707106781186548, 1., 0.707106781186548, 1., 0.707106781186548, 1., 0.707106781186548, 1.), (1., 0.707106781186548, 1., 0.707106781186548, 1., 0.707106781186548, 1., 0.707106781186548, 1.)))
   REPRESENTATION_ITEM ('')
   SURFACE ()
);
#118 = CARTESIAN_POINT('', (-1.5, 7.45646513326421E-16, -0.149999999999999));
#119 = CARTESIAN_POINT('', (-1.5, 1.5, -0.149999999999993));
#120 = CARTESIAN_POINT('', (1.17074559923146E-15, 1.5, -0.149999999999993));
#121 = CARTESIAN_POINT('', (1.5, 1.5, -0.149999999999993));
#122 = CARTESIAN_POINT('', (1.5, -6.72971795916834E-16, -0.149999999999999));
#123 = CARTESIAN_POINT('', (1.5, -1.5, -0.150000000000005));
#124 = CARTESIAN_POINT('', (-6.41756901396935E-17, -1.5, -0.150000000000005));
#125 = CARTESIAN_POINT('', (-1.5, -1.5, -0.150000000000005));
#126 = CARTESIAN_POINT('', (-1.5, 7.45646513326421E-16, -0.149999999999999));
#127 = CARTESIAN_POINT('', (-1.35, 8.2663658942446E-17, -1.09476442525376E-47));
#128 = CARTESIAN_POINT('', (-1.35, 1.35, 5.2458037913539E-15));
#129 = CARTESIAN_POINT('', (1.0998146837693E-15, 1.35, 5.2458037913539E-15));
#130 = CARTESIAN_POINT('', (1.35, 1.35, 5.2458037913539E-15));
#131 = CARTESIAN_POINT('', (1.35, -1.19409281937648E-15, 5.40736581140015E-31));
#132 = CARTESIAN_POINT('', (1.35, -1.35, -5.2458037913539E-15));
#133 = CARTESIAN_POINT('', (-1.16144766647413E-17, -1.35, -5.2458037913539E-15));
#134 = CARTESIAN_POINT('', (-1.35, -1.35, -5.2458037913539E-15));
#135 = CARTESIAN_POINT('', (-1.35, 8.2663658942446E-17, -1.09476442525376E-47));
#136 = ADVANCED_FACE('', (#137), #140, .T.);
#137 = FACE_OUTER_BOUND('', #138, .T.);
#138 = EDGE_LOOP('', (#139));
#139 = ORIENTED_EDGE('', *, *, #103, .F.);
#140 = B_SPLINE_SURFACE_WITH_KNOTS('', 1, 1, ((#141, #142), (#143, #144)), .UNSPECIFIED., .F., .F., .U., (2, 2), (2, 2), (0.178587826733387, 0.821412173266612), (0.178587826733388, 0.821412173266612), .UNSPECIFIED.);
#141 = CARTESIAN_POINT('', (1.35, -1.35, -3.63537733774295E-15));
#142 = CARTESIAN_POINT('', (-1.35, -1.35, -3.63537733774295E-15));
#143 = CARTESIAN_POINT('', (1.35, 1.35, 3.63537733774295E-15));
#144 = CARTESIAN_POINT('', (-1.35, 1.35, 3.63537733774295E-15));
#145 = ADVANCED_FACE('', (#146), #157, .T.);
#146 = FACE_OUTER_BOUND('', #147, .T.);
#147 = EDGE_LOOP('', (#148, #154, #155, #156));
#148 = ORIENTED_EDGE('', *, *, #149, .T.);
#149 = EDGE_CURVE('', #55, #94, #150, .T.);
#150 = LINE('', #151, #152);
#151 = CARTESIAN_POINT('', (-1.5, 1.80635402874235E-15, -28.));
#152 = VECTOR('', #153, 27.85);
#153 = DIRECTION('', (0., -1.70532066781269E-15, 27.85));
#154 = ORIENTED_EDGE('', *, *, #111, .T.);
#155 = ORIENTED_EDGE('', *, *, #149, .F.);
#156 = ORIENTED_EDGE('', *, *, #62, .F.);
#157 = (
   BOUNDED_SURFACE ()
   B_SPLINE_SURFACE (1, 2, ((#158, #159, #160, #161, #162, #163, #164, #165, #166), (#167, #168, #169, #170, #171, #172, #173, #174, #175)), .UNSPECIFIED., .F., .T., .U.)
   B_SPLINE_SURFACE_WITH_KNOTS ((2, 2), (3, 2, 2, 2, 3), (0., 1.), (0., 2.35619449019235, 4.71238898038469, 7.06858347057704, 9.42477796076938), .UNSPECIFIED.)
   GEOMETRIC_REPRESENTATION_ITEM ()
   RATIONAL_B_SPLINE_SURFACE (((1., 0.707106781186548, 1., 0.707106781186548, 1., 0.707106781186548, 1., 0.707106781186548, 1.), (1., 0.707106781186548, 1., 0.707106781186548, 1., 0.707106781186548, 1., 0.707106781186548, 1.)))
   REPRESENTATION_ITEM ('')
   SURFACE ()
);
#158 = CARTESIAN_POINT('', (-1.5, 1.01696735624541E-15, -28.));
#159 = CARTESIAN_POINT('', (-1.5, 1.5, -28.));
#160 = CARTESIAN_POINT('', (5.22662999882741E-16, 1.5, -28.));
#161 = CARTESIAN_POINT('', (1.5, 1.5, -28.));
#162 = CARTESIAN_POINT('', (1.5, 2.76952688251848E-16, -28.));
#163 = CARTESIAN_POINT('', (1.5, -1.5, -28.));
#164 = CARTESIAN_POINT('', (-3.36546482387189E-17, -1.5, -28.));
#165 = CARTESIAN_POINT('', (-1.5, -1.5, -28.));
#166 = CARTESIAN_POINT('', (-1.5, 1.01696735624541E-15, -28.));
#167 = CARTESIAN_POINT('', (-1.5, 1.01033360929657E-16, -0.149999999999999));
#168 = CARTESIAN_POINT('', (-1.5, 1.5, -0.149999999999999));
#169 = CARTESIAN_POINT('', (5.2266299988274E-16, 1.5, -0.149999999999999));
#170 = CARTESIAN_POINT('', (1.5, 1.5, -0.149999999999999));
#171 = CARTESIAN_POINT('', (1.5, -6.38981307063906E-16, -0.149999999999999));
#172 = CARTESIAN_POINT('', (1.5, -1.5, -0.149999999999999));
#173 = CARTESIAN_POINT('', (-3.36546482387192E-17, -1.5, -0.149999999999999));
#174 = CARTESIAN_POINT('', (-1.5, -1.5, -0.149999999999999));
#175 = CARTESIAN_POINT('', (-1.5, 1.01033360929657E-16, -0.149999999999999));
#176 = ADVANCED_FACE('', (#177), #196, .T.);
#177 = FACE_OUTER_BOUND('', #178, .T.);
#178 = EDGE_LOOP('', (#179, #188, #194, #195));
#179 = ORIENTED_EDGE('', *, *, #180, .F.);
#180 = EDGE_CURVE('', #181, #181, #183, .T.);
#181 = VERTEX_POINT('', #182);
#182 = CARTESIAN_POINT('', (-1., 3.00038465791102E-15, -48.));
#183 = CIRCLE('', #184, 1.);
#184 = AXIS2_PLACEMENT_3D('', #185, #186, #187);
#185 = CARTESIAN_POINT('', (1.38777878078145E-17, 2.96984659087229E-15, -48.));
#186 = DIRECTION('', (0., 0., -1.));
#187 = DIRECTION('', (-1., 3.05380670387261E-17, 0.));
#188 = ORIENTED_EDGE('', *, *, #189, .F.);
#189 = EDGE_CURVE('', #10, #181, #190, .T.);
#190 = LINE('', #191, #192);
#191 = CARTESIAN_POINT('', (-1., 2.93915231795365E-15, -47.));
#192 = VECTOR('', #193, 1.);
#193 = DIRECTION('', (0., 6.12323399573699E-17, -1.));
#194 = ORIENTED_EDGE('', *, *, #25, .T.);
#195 = ORIENTED_EDGE('', *, *, #189, .T.);
#196 = (
   BOUNDED_SURFACE ()
   B_SPLINE_SURFACE (2, 1, ((#197, #198), (#199, #200), (#201, #202), (#203, #204), (#205, #206), (#207, #208), (#209, #210), (#211, #212), (#213, #214)), .UNSPECIFIED., .T., .F., .U.)
   B_SPLINE_SURFACE_WITH_KNOTS ((3, 2, 2, 2, 3), (2, 2), (0., 1.5707963267949, 3.14159265358979, 4.71238898038469, 6.28318530717959), (0., 0.333333333333333), .UNSPECIFIED.)
   GEOMETRIC_REPRESENTATION_ITEM ()
   RATIONAL_B_SPLINE_SURFACE (((1., 1.), (0.707106781186548, 0.707106781186548), (1., 1.), (0.707106781186548, 0.707106781186548), (1., 1.), (0.707106781186548, 0.707106781186548), (1., 1.), (0.707106781186548, 0.707106781186548), (1., 1.)))
   REPRESENTATION_ITEM ('')
   SURFACE ()
);
#197 = CARTESIAN_POINT('', (-0.999999999999999, 2.93915231795365E-15, -47.));
#198 = CARTESIAN_POINT('', (-0.999999999999999, 3.02241904480054E-15, -48.));
#199 = CARTESIAN_POINT('', (-0.999999999999999, 1., -47.));
#200 = CARTESIAN_POINT('', (-0.999999999999999, 1., -48.));
#201 = CARTESIAN_POINT('', (7.80762877697156E-17, 1., -47.));
#202 = CARTESIAN_POINT('', (7.80762877697156E-17, 1., -48.));
#203 = CARTESIAN_POINT('', (0.999999999999999, 1., -47.));
#204 = CARTESIAN_POINT('', (0.999999999999999, 1., -48.));
#205 = CARTESIAN_POINT('', (0.999999999999999, 2.51238288016184E-15, -47.));
#206 = CARTESIAN_POINT('', (0.999999999999999, 2.59564960700872E-15, -48.));
#207 = CARTESIAN_POINT('', (0.999999999999999, -0.999999999999997, -47.));
#208 = CARTESIAN_POINT('', (0.999999999999999, -0.999999999999997, -48.));
#209 = CARTESIAN_POINT('', (-2.26228470107362E-16, -0.999999999999997, -47.));
#210 = CARTESIAN_POINT('', (-2.26228470107362E-16, -0.999999999999997, -48.));
#211 = CARTESIAN_POINT('', (-0.999999999999999, -0.999999999999997, -47.));
#212 = CARTESIAN_POINT('', (-0.999999999999999, -0.999999999999996, -48.));
#213 = CARTESIAN_POINT('', (-0.999999999999999, 2.93915231795365E-15, -47.));
#214 = CARTESIAN_POINT('', (-0.999999999999999, 3.02241904480054E-15, -48.));
#215 = ADVANCED_FACE('', (#216), #219, .T.);
#216 = FACE_OUTER_BOUND('', #217, .T.);
#217 = EDGE_LOOP('', (#218));
#218 = ORIENTED_EDGE('', *, *, #180, .T.);
#219 = B_SPLINE_SURFACE_WITH_KNOTS('', 1, 1, ((#220, #221), (#222, #223)), .UNSPECIFIED., .F., .F., .U., (2, 2), (2, 2), (50.5596833547362, 52.5596833547362), (47.7996798955365, 49.7996798955365), .UNSPECIFIED.);
#220 = CARTESIAN_POINT('', (-1.00000000000001, 1.00000000000002, -48.));
#221 = CARTESIAN_POINT('', (-1.00000000000001, -0.999999999999986, -48.));
#222 = CARTESIAN_POINT('', (0.999999999999986, 1.00000000000002, -48.));
#223 = CARTESIAN_POINT('', (0.999999999999986, -0.999999999999986, -48.));
#224 = DRAUGHTING_MODEL('', (#232, #307, #346, #351, #356, #361, #366), #380);
#225 = PRESENTATION_STYLE_ASSIGNMENT((#226));
#226 = SURFACE_STYLE_USAGE(.POSITIVE., #227);
#227 = SURFACE_SIDE_STYLE('', (#228));
#228 = SURFACE_STYLE_FILL_AREA(#229);
#229 = FILL_AREA_STYLE('', (#230));
#230 = FILL_AREA_STYLE_COLOUR('', #231);
#231 = COLOUR_RGB('', 0.50196078431373, 0.50196078431373, 0.50196078431373);
#232 = STYLED_ITEM('', (#225), #1);
#233 = MANIFOLD_SOLID_BREP('CUT', #234);
#234 = CLOSED_SHELL('', (#235, #252, #291));
#235 = ADVANCED_FACE('', (#236), #247, .T.);
#236 = FACE_OUTER_BOUND('', #237, .T.);
#237 = EDGE_LOOP('', (#238));
#238 = ORIENTED_EDGE('', *, *, #239, .F.);
#239 = EDGE_CURVE('', #240, #240, #242, .T.);
#240 = VERTEX_POINT('', #241);
#241 = CARTESIAN_POINT('', (-1., 3.00038465791102E-15, -48.));
#242 = CIRCLE('', #243, 1.);
#243 = AXIS2_PLACEMENT_3D('', #244, #245, #246);
#244 = CARTESIAN_POINT('', (1.38777878078145E-17, 2.96984659087229E-15, -48.));
#245 = DIRECTION('', (0., 0., -1.));
#246 = DIRECTION('', (-1., 3.05380670387261E-17, 0.));
#247 = B_SPLINE_SURFACE_WITH_KNOTS('', 1, 1, ((#248, #249), (#250, #251)), .UNSPECIFIED., .F., .F., .U., (2, 2), (2, 2), (47.7996798955365, 49.7996798955365), (50.5596833547362, 52.5596833547362), .UNSPECIFIED.);
#248 = CARTESIAN_POINT('', (-1., 1., -48.));
#249 = CARTESIAN_POINT('', (1., 1., -48.));
#250 = CARTESIAN_POINT('', (-1., -0.999999999999993, -48.));
#251 = CARTESIAN_POINT('', (1., -0.999999999999993, -48.));
#252 = ADVANCED_FACE('', (#253), #272, .T.);
#253 = FACE_OUTER_BOUND('', #254, .T.);
#254 = EDGE_LOOP('', (#255, #256, #264, #271));
#255 = ORIENTED_EDGE('', *, *, #239, .T.);
#256 = ORIENTED_EDGE('', *, *, #257, .T.);
#257 = EDGE_CURVE('', #240, #258, #260, .T.);
#258 = VERTEX_POINT('', #259);
#259 = CARTESIAN_POINT('', (-1., 3.12284933782575E-15, -50.));
#260 = LINE('', #261, #262);
#261 = CARTESIAN_POINT('', (-1., 3.00038465791102E-15, -48.));
#262 = VECTOR('', #263, 2.);
#263 = DIRECTION('', (0., 1.2246467991473E-16, -2.));
#264 = ORIENTED_EDGE('', *, *, #265, .F.);
#265 = EDGE_CURVE('', #258, #258, #266, .T.);
#266 = CIRCLE('', #267, 1.);
#267 = AXIS2_PLACEMENT_3D('', #268, #269, #270);
#268 = CARTESIAN_POINT('', (1.38777878078145E-17, 3.10862446895044E-15, -50.));
#269 = DIRECTION('', (3.44008392756804E-31, 2.41835897238997E-14, -1.));
#270 = DIRECTION('', (-1., 1.42248688753115E-17, 0.));
#271 = ORIENTED_EDGE('', *, *, #257, .F.);
#272 = (
   BOUNDED_SURFACE ()
   B_SPLINE_SURFACE (2, 1, ((#273, #274), (#275, #276), (#277, #278), (#279, #280), (#281, #282), (#283, #284), (#285, #286), (#287, #288), (#289, #290)), .UNSPECIFIED., .T., .F., .U.)
   B_SPLINE_SURFACE_WITH_KNOTS ((3, 2, 2, 2, 3), (2, 2), (0., 1.5707963267949, 3.14159265358979, 4.71238898038469, 6.28318530717959), (0.333333333333333, 1.), .UNSPECIFIED.)
   GEOMETRIC_REPRESENTATION_ITEM ()
   RATIONAL_B_SPLINE_SURFACE (((1., 1.), (0.707106781186548, 0.707106781186548), (1., 1.), (0.707106781186548, 0.707106781186548), (1., 1.), (0.707106781186548, 0.707106781186548), (1., 1.), (0.707106781186548, 0.707106781186548), (1., 1.)))
   REPRESENTATION_ITEM ('')
   SURFACE ()
);
#273 = CARTESIAN_POINT('', (-1., 3.00038465791102E-15, -48.));
#274 = CARTESIAN_POINT('', (-1., 3.13916253598916E-15, -50.));
#275 = CARTESIAN_POINT('', (-0.999999999999999, 1., -48.));
#276 = CARTESIAN_POINT('', (-0.999999999999999, 1., -50.));
#277 = CARTESIAN_POINT('', (5.25724539282452E-17, 1., -48.));
#278 = CARTESIAN_POINT('', (5.25724539282452E-17, 1., -50.));
#279 = CARTESIAN_POINT('', (0.999999999999999, 1., -48.));
#280 = CARTESIAN_POINT('', (0.999999999999999, 1., -50.));
#281 = CARTESIAN_POINT('', (0.999999999999999, 2.61768399389824E-15, -48.));
#282 = CARTESIAN_POINT('', (0.999999999999999, 2.75646187197638E-15, -50.));
#283 = CARTESIAN_POINT('', (0.999999999999999, -0.999999999999997, -48.));
#284 = CARTESIAN_POINT('', (0.999999999999999, -0.999999999999997, -50.));
#285 = CARTESIAN_POINT('', (-2.07663530169799E-16, -0.999999999999997, -48.));
#286 = CARTESIAN_POINT('', (-2.07663530169799E-16, -0.999999999999997, -50.));
#287 = CARTESIAN_POINT('', (-1., -0.999999999999997, -48.));
#288 = CARTESIAN_POINT('', (-1., -0.999999999999996, -50.));
#289 = CARTESIAN_POINT('', (-1., 3.00038465791102E-15, -48.));
#290 = CARTESIAN_POINT('', (-1., 3.13916253598916E-15, -50.));
#291 = ADVANCED_FACE('', (#292), #295, .T.);
#292 = FACE_OUTER_BOUND('', #293, .T.);
#293 = EDGE_LOOP('', (#294));
#294 = ORIENTED_EDGE('', *, *, #265, .T.);
#295 = B_SPLINE_SURFACE_WITH_KNOTS('', 1, 1, ((#296, #297), (#298, #299)), .UNSPECIFIED., .F., .F., .U., (2, 2), (2, 2), (0.178587826733388, 0.821412173266613), (0.178587826733388, 0.821412173266613), .UNSPECIFIED.);
#296 = CARTESIAN_POINT('', (1., -0.999999999999997, -50.));
#297 = CARTESIAN_POINT('', (1., 1., -50.));
#298 = CARTESIAN_POINT('', (-1., -0.999999999999997, -50.));
#299 = CARTESIAN_POINT('', (-1., 1., -50.));
#300 = PRESENTATION_STYLE_ASSIGNMENT((#301));
#301 = SURFACE_STYLE_USAGE(.POSITIVE., #302);
#302 = SURFACE_SIDE_STYLE('', (#303));
#303 = SURFACE_STYLE_FILL_AREA(#304);
#304 = FILL_AREA_STYLE('', (#305));
#305 = FILL_AREA_STYLE_COLOUR('', #306);
#306 = COLOUR_RGB('', 0.8, 0.8, 0.8);
#307 = STYLED_ITEM('', (#300), #233);
#308 = TRIMMED_CURVE('cutting part line', #309, (#313), (#314), .T., .CARTESIAN.);
#309 = LINE('', #310, #311);
#310 = CARTESIAN_POINT('', (-5.39913521758269E-31, -2.93915231795365E-15, -48.));
#311 = VECTOR('', #312, 1.);
#312 = DIRECTION('', (1., -1.83697019872105E-16, 0.));
#313 = CARTESIAN_POINT('', (-5.39913521758269E-31, -2.93915231795365E-15, -48.));
#314 = CARTESIAN_POINT('', (1., -3.12284933782575E-15, -48.));
#315 = TRIMMED_CURVE('cutting part line', #316, (#320), (#321), .T., .CARTESIAN.);
#316 = LINE('', #317, #318);
#317 = CARTESIAN_POINT('', (1., -3.12284933782575E-15, -48.));
#318 = VECTOR('', #319, 2.);
#319 = DIRECTION('', (0., -1.2246467991473E-16, -2.));
#320 = CARTESIAN_POINT('', (1., -3.12284933782575E-15, -48.));
#321 = CARTESIAN_POINT('', (1., -3.24531401774048E-15, -50.));
#322 = TRIMMED_CURVE('cutting part line', #323, (#327), (#328), .T., .CARTESIAN.);
#323 = LINE('', #324, #325);
#324 = CARTESIAN_POINT('', (1., -3.24531401774048E-15, -50.));
#325 = VECTOR('', #326, 1.);
#326 = DIRECTION('', (-1., 1.83697019872105E-16, 0.));
#327 = CARTESIAN_POINT('', (1., -3.24531401774048E-15, -50.));
#328 = CARTESIAN_POINT('', (-3.74939945665464E-31, -3.06161699786838E-15, -50.));
#329 = TRIMMED_CURVE('cutting part line', #330, (#334), (#335), .T., .CARTESIAN.);
#330 = LINE('', #331, #332);
#331 = CARTESIAN_POINT('', (-5.62409918498196E-31, -3.06161699786838E-15, -50.));
#332 = VECTOR('', #333, 2.);
#333 = DIRECTION('', (2.2496396739927E-32, 1.2246467991473E-16, 2.));
#334 = CARTESIAN_POINT('', (-5.62409918498196E-31, -3.06161699786838E-15, -50.));
#335 = CARTESIAN_POINT('', (-5.39913521758269E-31, -2.93915231795365E-15, -48.));
#336 = COMPOSITE_CURVE('cutting part line', (#337, #338, #339, #340), .U.);
#337 = COMPOSITE_CURVE_SEGMENT(.CONTINUOUS., .T., #308);
#338 = COMPOSITE_CURVE_SEGMENT(.CONTINUOUS., .T., #315);
#339 = COMPOSITE_CURVE_SEGMENT(.CONTINUOUS., .T., #322);
#340 = COMPOSITE_CURVE_SEGMENT(.CONTINUOUS., .T., #329);
#341 = GEOMETRIC_SET('', (#336, #379));
#342 = PRESENTATION_STYLE_ASSIGNMENT((#343));
#343 = CURVE_STYLE('', #345, POSITIVE_LENGTH_MEASURE(1.E-6), #344);
#344 = COLOUR_RGB('', 0., 0., 1.);
#345 = DRAUGHTING_PRE_DEFINED_CURVE_FONT('continuous');
#346 = STYLED_ITEM('', (#342), #336);
#347 = PRESENTATION_STYLE_ASSIGNMENT((#348));
#348 = CURVE_STYLE('', #350, POSITIVE_LENGTH_MEASURE(1.E-6), #349);
#349 = COLOUR_RGB('', 0., 0., 1.);
#350 = DRAUGHTING_PRE_DEFINED_CURVE_FONT('continuous');
#351 = OVER_RIDING_STYLED_ITEM('', (#347), #308, #346);
#352 = PRESENTATION_STYLE_ASSIGNMENT((#353));
#353 = CURVE_STYLE('', #355, POSITIVE_LENGTH_MEASURE(1.E-6), #354);
#354 = COLOUR_RGB('', 0., 0., 1.);
#355 = DRAUGHTING_PRE_DEFINED_CURVE_FONT('continuous');
#356 = OVER_RIDING_STYLED_ITEM('', (#352), #315, #346);
#357 = PRESENTATION_STYLE_ASSIGNMENT((#358));
#358 = CURVE_STYLE('', #360, POSITIVE_LENGTH_MEASURE(1.E-6), #359);
#359 = COLOUR_RGB('', 0., 0., 1.);
#360 = DRAUGHTING_PRE_DEFINED_CURVE_FONT('continuous');
#361 = OVER_RIDING_STYLED_ITEM('', (#357), #322, #346);
#362 = PRESENTATION_STYLE_ASSIGNMENT((#363));
#363 = CURVE_STYLE('', #365, POSITIVE_LENGTH_MEASURE(1.E-6), #364);
#364 = COLOUR_RGB('', 0., 0., 1.);
#365 = DRAUGHTING_PRE_DEFINED_CURVE_FONT('continuous');
#366 = OVER_RIDING_STYLED_ITEM('', (#362), #329, #346);
#367 = AXIS2_PLACEMENT_3D('MCS', #368, #369, #370);
#368 = CARTESIAN_POINT('', (0., 0., -28.));
#369 = DIRECTION('', (0., 0., 1.));
#370 = DIRECTION('', (1., 0., 0.));
#371 = AXIS2_PLACEMENT_3D('PCS', #372, #373, #374);
#372 = CARTESIAN_POINT('', (0., 0., 0.));
#373 = DIRECTION('', (0., 0., 1.));
#374 = DIRECTION('', (1., 0., 0.));
#375 = AXIS2_PLACEMENT_3D('CIP', #376, #377, #378);
#376 = CARTESIAN_POINT('', (0., 0., -50.));
#377 = DIRECTION('', (0., 0., 1.));
#378 = DIRECTION('', (1., 0., 0.));
#379 = CARTESIAN_POINT('CRP', (1., 0., -50.));
#380 = (
   GEOMETRIC_REPRESENTATION_CONTEXT (3)
   GLOBAL_UNCERTAINTY_ASSIGNED_CONTEXT ((#382))
   GLOBAL_UNIT_ASSIGNED_CONTEXT ((#381, #383, #384))
   REPRESENTATION_CONTEXT ('', '3D')
);
#381 = (
   LENGTH_UNIT ()
   NAMED_UNIT (*)
   SI_UNIT (.MILLI., .METRE.)
);
#382 = UNCERTAINTY_MEASURE_WITH_UNIT(LENGTH_MEASURE(1.E-6), #381, 'DISTANCE_ACCURACY_VALUE', '');
#383 = (
   NAMED_UNIT (*)
   SI_UNIT ($, .STERADIAN.)
   SOLID_ANGLE_UNIT ()
);
#384 = (
   NAMED_UNIT (*)
   PLANE_ANGLE_UNIT ()
   SI_UNIT ($, .RADIAN.)
);
#385 = SHAPE_REPRESENTATION('', (), #380);
#386 = PRODUCT_DEFINITION_SHAPE('', '', #387);
#387 = PRODUCT_DEFINITION('', '', #390, #394);
#388 = APPLICATION_CONTEXT('configuration controlled 3D designs of mechanical parts and assemblies');
#389 = APPLICATION_PROTOCOL_DEFINITION('International Standard', 'automotive_design', 2002, #388);
#390 = PRODUCT_DEFINITION_FORMATION_WITH_SPECIFIED_SOURCE('', '', #391, .NOT_KNOWN.);
#391 = PRODUCT('2P210-0200-NC       N20C', '2P210-0200-NC       N20C', '', (#392));
#392 = PRODUCT_CONTEXT('', #388, 'mechanical');
#393 = PRODUCT_RELATED_PRODUCT_CATEGORY('detail', '', (#391));
#394 = PRODUCT_DEFINITION_CONTEXT('part definition', #388, 'design');
#395 = SHAPE_DEFINITION_REPRESENTATION(#386, #385);
#396 = CONSTRUCTIVE_GEOMETRY_REPRESENTATION('supplemental geometry', (#367, #371, #375), #380);
#397 = CONSTRUCTIVE_GEOMETRY_REPRESENTATION_RELATIONSHIP('', '', #385, #396);
#398 = SHAPE_REPRESENTATION_RELATIONSHIP('', '', #385, #399);
#399 = SHAPE_REPRESENTATION('', (#341), #380);
#400 = SHAPE_REPRESENTATION_RELATIONSHIP('', '', #385, #401);
#401 = ADVANCED_BREP_SHAPE_REPRESENTATION('', (#1, #233), #380);
ENDSEC;
END-ISO-10303-21;
