ISO-10303-21;
HEADER;
FILE_DESCRIPTION(('STEP'), '1');
FILE_NAME('C:\\Users\\ds2002\\OneDrive - Sandvik\\HomeShare\\Documents\\Batchrepair\\CorSRT2\\NEW_MILSQ_SLD\\Output\\MOD000000000000000020082311300000.stp', '2019-01-02T12:05:07', (''), (''), 'Express v3.0.0.0', 'Express Tool', 'Unknown');
FILE_SCHEMA(('AUTOMOTIVE_DESIGN'));
ENDSEC;

DATA;
#1 = MANIFOLD_SOLID_BREP('NOCUT', #2);
#2 = CLOSED_SHELL('', (#3, #50, #89, #136, #145, #176, #215));
#3 = ADVANCED_FACE('', (#4), #31, .T.);
#4 = FACE_OUTER_BOUND('', #5, .T.);
#5 = EDGE_LOOP('', (#6, #16, #23, #24));
#6 = ORIENTED_EDGE('', *, *, #7, .F.);
#7 = EDGE_CURVE('', #8, #10, #12, .T.);
#8 = VERTEX_POINT('', #9);
#9 = CARTESIAN_POINT('', (-0.86, 2.50195341065804E-15, -40.));
#10 = VERTEX_POINT('', #11);
#11 = CARTESIAN_POINT('', (-0.75, 2.95446040294299E-15, -47.5));
#12 = LINE('', #13, #14);
#13 = CARTESIAN_POINT('', (-0.86, 2.50195341065804E-15, -40.));
#14 = VECTOR('', #15, 7.50080662329059);
#15 = DIRECTION('', (0.11, 4.5250699228495E-16, -7.5));
#16 = ORIENTED_EDGE('', *, *, #17, .T.);
#17 = EDGE_CURVE('', #8, #8, #18, .T.);
#18 = CIRCLE('', #19, 0.859999999999998);
#19 = AXIS2_PLACEMENT_3D('', #20, #21, #22);
#20 = CARTESIAN_POINT('', (-3.46944695195361E-18, 2.692290834716E-15, -40.));
#21 = DIRECTION('', (0., 0., -1.));
#22 = DIRECTION('', (-1., -2.21322586113913E-16, 0.));
#23 = ORIENTED_EDGE('', *, *, #7, .T.);
#24 = ORIENTED_EDGE('', *, *, #25, .F.);
#25 = EDGE_CURVE('', #10, #10, #26, .T.);
#26 = CIRCLE('', #27, 0.75);
#27 = AXIS2_PLACEMENT_3D('', #28, #29, #30);
#28 = CARTESIAN_POINT('', (-9.0205620750794E-17, 2.98372437868011E-15, -47.5));
#29 = DIRECTION('', (0., 0., -1.));
#30 = DIRECTION('', (-1., -3.90186343161574E-17, 0.));
#31 = (
   BOUNDED_SURFACE ()
   B_SPLINE_SURFACE (2, 1, ((#32, #33), (#34, #35), (#36, #37), (#38, #39), (#40, #41), (#42, #43), (#44, #45), (#46, #47), (#48, #49)), .UNSPECIFIED., .T., .F., .U.)
   B_SPLINE_SURFACE_WITH_KNOTS ((3, 2, 2, 2, 3), (2, 2), (0., 0.25, 0.5, 0.75, 1.), (0., 1.), .UNSPECIFIED.)
   GEOMETRIC_REPRESENTATION_ITEM ()
   RATIONAL_B_SPLINE_SURFACE (((1., 1.), (0.707106781186548, 0.707106781186548), (1., 1.), (0.707106781186548, 0.707106781186548), (1., 1.), (0.707106781186548, 0.707106781186548), (1., 1.), (0.707106781186548, 0.707106781186548), (1., 1.)))
   REPRESENTATION_ITEM ('')
   SURFACE ()
);
#32 = CARTESIAN_POINT('', (-0.86, 2.50195341065804E-15, -40.));
#33 = CARTESIAN_POINT('', (-0.750000000000062, 3.15725413150911E-15, -47.5));
#34 = CARTESIAN_POINT('', (-0.86, 0.860000000000003, -40.));
#35 = CARTESIAN_POINT('', (-0.750000000000062, 0.750000000000003, -47.5));
#36 = CARTESIAN_POINT('', (-7.07484368845452E-18, 0.860000000000003, -40.));
#37 = CARTESIAN_POINT('', (-6.19632308505575E-14, 0.750000000000003, -47.5));
#38 = CARTESIAN_POINT('', (0.86, 0.860000000000003, -40.));
#39 = CARTESIAN_POINT('', (0.749999999999938, 0.750000000000003, -47.5));
#40 = CARTESIAN_POINT('', (0.86, 2.65488097611309E-15, -40.));
#41 = CARTESIAN_POINT('', (0.749999999999938, 3.29062119440596E-15, -47.5));
#42 = CARTESIAN_POINT('', (0.86, -0.859999999999997, -40.));
#43 = CARTESIAN_POINT('', (0.749999999999938, -0.749999999999997, -47.5));
#44 = CARTESIAN_POINT('', (2.51172346493271E-16, -0.859999999999997, -40.));
#45 = CARTESIAN_POINT('', (-6.17380152777246E-14, -0.749999999999997, -47.5));
#46 = CARTESIAN_POINT('', (-0.86, -0.859999999999998, -40.));
#47 = CARTESIAN_POINT('', (-0.750000000000062, -0.749999999999997, -47.5));
#48 = CARTESIAN_POINT('', (-0.86, 2.50195341065804E-15, -40.));
#49 = CARTESIAN_POINT('', (-0.750000000000062, 3.15725413150911E-15, -47.5));
#50 = ADVANCED_FACE('', (#51), #70, .T.);
#51 = FACE_OUTER_BOUND('', #52, .T.);
#52 = EDGE_LOOP('', (#53, #61, #68, #69));
#53 = ORIENTED_EDGE('', *, *, #54, .F.);
#54 = EDGE_CURVE('', #55, #8, #57, .T.);
#55 = VERTEX_POINT('', #56);
#56 = CARTESIAN_POINT('', (-1.5, 1.99005104861445E-15, -31.));
#57 = LINE('', #58, #59);
#58 = CARTESIAN_POINT('', (-1.5, 1.99005104861445E-15, -31.));
#59 = VECTOR('', #60, 9.02272686054499);
#60 = DIRECTION('', (0.64, 5.1190236204359E-16, -9.));
#61 = ORIENTED_EDGE('', *, *, #62, .T.);
#62 = EDGE_CURVE('', #55, #55, #63, .T.);
#63 = CIRCLE('', #64, 1.5);
#64 = AXIS2_PLACEMENT_3D('', #65, #66, #67);
#65 = CARTESIAN_POINT('', (-5.20417042793042E-16, 5.55111512312578E-16, -31.));
#66 = DIRECTION('', (7.71155311656167E-30, 8.06119657463327E-15, -1.));
#67 = DIRECTION('', (-1., 9.56626357534581E-16, 0.));
#68 = ORIENTED_EDGE('', *, *, #54, .T.);
#69 = ORIENTED_EDGE('', *, *, #17, .F.);
#70 = (
   BOUNDED_SURFACE ()
   B_SPLINE_SURFACE (2, 1, ((#71, #72), (#73, #74), (#75, #76), (#77, #78), (#79, #80), (#81, #82), (#83, #84), (#85, #86), (#87, #88)), .UNSPECIFIED., .T., .F., .U.)
   B_SPLINE_SURFACE_WITH_KNOTS ((3, 2, 2, 2, 3), (2, 2), (0., 0.25, 0.5, 0.75, 1.), (0., 1.), .UNSPECIFIED.)
   GEOMETRIC_REPRESENTATION_ITEM ()
   RATIONAL_B_SPLINE_SURFACE (((1., 1.), (0.707106781186548, 0.707106781186548), (1., 1.), (0.707106781186548, 0.707106781186548), (1., 1.), (0.707106781186548, 0.707106781186548), (1., 1.), (0.707106781186548, 0.707106781186548), (1., 1.)))
   REPRESENTATION_ITEM ('')
   SURFACE ()
);
#71 = CARTESIAN_POINT('', (-1.5, 1.99005104861445E-15, -31.));
#72 = CARTESIAN_POINT('', (-0.86, 3.38028244187456E-15, -40.));
#73 = CARTESIAN_POINT('', (-1.5, 1.5, -31.));
#74 = CARTESIAN_POINT('', (-0.859999999999999, 0.860000000000004, -40.));
#75 = CARTESIAN_POINT('', (1.67615793375337E-15, 1.5, -31.));
#76 = CARTESIAN_POINT('', (1.07942100464528E-15, 0.860000000000003, -40.));
#77 = CARTESIAN_POINT('', (1.5, 1.5, -31.));
#78 = CARTESIAN_POINT('', (0.860000000000001, 0.860000000000002, -40.));
#79 = CARTESIAN_POINT('', (1.5, -8.07153306579706E-16, -31.));
#80 = CARTESIAN_POINT('', (0.86, 1.77655194489658E-15, -40.));
#81 = CARTESIAN_POINT('', (1.5, -1.5, -31.));
#82 = CARTESIAN_POINT('', (0.86, -0.859999999999998, -40.));
#83 = CARTESIAN_POINT('', (-9.37349401568686E-16, -1.5, -31.));
#84 = CARTESIAN_POINT('', (-4.18989867606028E-16, -0.859999999999998, -40.));
#85 = CARTESIAN_POINT('', (-1.5, -1.5, -31.));
#86 = CARTESIAN_POINT('', (-0.860000000000001, -0.859999999999997, -40.));
#87 = CARTESIAN_POINT('', (-1.5, 1.99005104861445E-15, -31.));
#88 = CARTESIAN_POINT('', (-0.86, 3.38028244187456E-15, -40.));
#89 = ADVANCED_FACE('', (#90), #117, .T.);
#90 = FACE_OUTER_BOUND('', #91, .T.);
#91 = EDGE_LOOP('', (#92, #102, #109, #110));
#92 = ORIENTED_EDGE('', *, *, #93, .T.);
#93 = EDGE_CURVE('', #94, #96, #98, .T.);
#94 = VERTEX_POINT('', #95);
#95 = CARTESIAN_POINT('', (-1.5, 1.01033360929657E-16, -0.149999999999999));
#96 = VERTEX_POINT('', #97);
#97 = CARTESIAN_POINT('', (-1.35, 8.26636589424463E-17, 0.));
#98 = LINE('', #99, #100);
#99 = CARTESIAN_POINT('', (-1.5, 1.01033360929657E-16, -0.149999999999999));
#100 = VECTOR('', #101, 0.212132034355963);
#101 = DIRECTION('', (0.15, -1.83697019872107E-17, 0.149999999999999));
#102 = ORIENTED_EDGE('', *, *, #103, .T.);
#103 = EDGE_CURVE('', #96, #96, #104, .T.);
#104 = CIRCLE('', #105, 1.35);
#105 = AXIS2_PLACEMENT_3D('', #106, #107, #108);
#106 = CARTESIAN_POINT('', (3.12250225675825E-17, -9.43689570931383E-16, -6.77927340424307E-32));
#107 = DIRECTION('', (-3.66424011441042E-33, 6.12323399573676E-17, -1.));
#108 = DIRECTION('', (-1., 7.60261651758392E-16, 5.02168400314301E-32));
#109 = ORIENTED_EDGE('', *, *, #93, .F.);
#110 = ORIENTED_EDGE('', *, *, #111, .F.);
#111 = EDGE_CURVE('', #94, #94, #112, .T.);
#112 = CIRCLE('', #113, 1.5);
#113 = AXIS2_PLACEMENT_3D('', #114, #115, #116);
#114 = CARTESIAN_POINT('', (-4.16333634234434E-16, 8.32667268468867E-17, -0.149999999999999));
#115 = DIRECTION('', (0., 0., -1.));
#116 = DIRECTION('', (-1., 1.18444227218468E-17, 0.));
#117 = (
   BOUNDED_SURFACE ()
   B_SPLINE_SURFACE (1, 2, ((#118, #119, #120, #121, #122, #123, #124, #125, #126), (#127, #128, #129, #130, #131, #132, #133, #134, #135)), .UNSPECIFIED., .F., .T., .U.)
   B_SPLINE_SURFACE_WITH_KNOTS ((2, 2), (3, 2, 2, 2, 3), (0., 1.), (0., 0.25, 0.5, 0.75, 1.), .UNSPECIFIED.)
   GEOMETRIC_REPRESENTATION_ITEM ()
   RATIONAL_B_SPLINE_SURFACE (((1., 0.707106781186548, 1., 0.707106781186548, 1., 0.707106781186548, 1., 0.707106781186548, 1.), (1., 0.707106781186548, 1., 0.707106781186548, 1., 0.707106781186548, 1., 0.707106781186548, 1.)))
   REPRESENTATION_ITEM ('')
   SURFACE ()
);
#118 = CARTESIAN_POINT('', (-1.5, 7.45646513326421E-16, -0.149999999999998));
#119 = CARTESIAN_POINT('', (-1.5, 1.5, -0.149999999999992));
#120 = CARTESIAN_POINT('', (1.08421770752944E-15, 1.5, -0.149999999999993));
#121 = CARTESIAN_POINT('', (1.5, 1.5, -0.149999999999994));
#122 = CARTESIAN_POINT('', (1.5, -6.72971795916834E-16, -0.15));
#123 = CARTESIAN_POINT('', (1.5, -1.5, -0.150000000000006));
#124 = CARTESIAN_POINT('', (-1.50703581841717E-16, -1.5, -0.150000000000005));
#125 = CARTESIAN_POINT('', (-1.5, -1.5, -0.150000000000004));
#126 = CARTESIAN_POINT('', (-1.5, 7.45646513326421E-16, -0.149999999999998));
#127 = CARTESIAN_POINT('', (-1.35, 8.2663658942446E-17, -2.95822839457879E-31));
#128 = CARTESIAN_POINT('', (-1.35, 1.35, 5.24580379135393E-15));
#129 = CARTESIAN_POINT('', (1.0998146837693E-15, 1.35, 4.46705276603574E-15));
#130 = CARTESIAN_POINT('', (1.35, 1.35, 3.68830174071755E-15));
#131 = CARTESIAN_POINT('', (1.35, -1.19409281937648E-15, -1.55750205063638E-15));
#132 = CARTESIAN_POINT('', (1.35, -1.35, -6.80330584199031E-15));
#133 = CARTESIAN_POINT('', (-1.16144766647444E-17, -1.35, -6.02455481667212E-15));
#134 = CARTESIAN_POINT('', (-1.35, -1.35, -5.24580379135393E-15));
#135 = CARTESIAN_POINT('', (-1.35, 8.2663658942446E-17, -2.95822839457879E-31));
#136 = ADVANCED_FACE('', (#137), #140, .T.);
#137 = FACE_OUTER_BOUND('', #138, .T.);
#138 = EDGE_LOOP('', (#139));
#139 = ORIENTED_EDGE('', *, *, #103, .F.);
#140 = B_SPLINE_SURFACE_WITH_KNOTS('', 1, 1, ((#141, #142), (#143, #144)), .UNSPECIFIED., .F., .F., .U., (2, 2), (2, 2), (0.75010714012405, 3.45010714012405), (0.75010714012405, 3.45010714012405), .UNSPECIFIED.);
#141 = CARTESIAN_POINT('', (1.35, -1.35, -8.26636589424463E-17));
#142 = CARTESIAN_POINT('', (-1.35, -1.35, -8.26636589424463E-17));
#143 = CARTESIAN_POINT('', (1.35, 1.35, 8.26636589424465E-17));
#144 = CARTESIAN_POINT('', (-1.35, 1.35, 8.26636589424465E-17));
#145 = ADVANCED_FACE('', (#146), #157, .T.);
#146 = FACE_OUTER_BOUND('', #147, .T.);
#147 = EDGE_LOOP('', (#148, #154, #155, #156));
#148 = ORIENTED_EDGE('', *, *, #149, .T.);
#149 = EDGE_CURVE('', #55, #94, #150, .T.);
#150 = LINE('', #151, #152);
#151 = CARTESIAN_POINT('', (-1.5, 1.99005104861445E-15, -31.));
#152 = VECTOR('', #153, 30.85);
#153 = DIRECTION('', (0., -1.88901768768479E-15, 30.85));
#154 = ORIENTED_EDGE('', *, *, #111, .T.);
#155 = ORIENTED_EDGE('', *, *, #149, .F.);
#156 = ORIENTED_EDGE('', *, *, #62, .F.);
#157 = (
   BOUNDED_SURFACE ()
   B_SPLINE_SURFACE (1, 2, ((#158, #159, #160, #161, #162, #163, #164, #165, #166), (#167, #168, #169, #170, #171, #172, #173, #174, #175)), .UNSPECIFIED., .F., .T., .U.)
   B_SPLINE_SURFACE_WITH_KNOTS ((2, 2), (3, 2, 2, 2, 3), (0., 1.), (0., 2.35619449019235, 4.71238898038469, 7.06858347057704, 9.42477796076938), .UNSPECIFIED.)
   GEOMETRIC_REPRESENTATION_ITEM ()
   RATIONAL_B_SPLINE_SURFACE (((1., 0.707106781186548, 1., 0.707106781186548, 1., 0.707106781186548, 1., 0.707106781186548, 1.), (1., 0.707106781186548, 1., 0.707106781186548, 1., 0.707106781186548, 1., 0.707106781186548, 1.)))
   REPRESENTATION_ITEM ('')
   SURFACE ()
);
#158 = CARTESIAN_POINT('', (-1.5, 1.23901196117044E-15, -31.));
#159 = CARTESIAN_POINT('', (-1.5, 1.5, -31.));
#160 = CARTESIAN_POINT('', (5.22662999882741E-16, 1.5, -31.));
#161 = CARTESIAN_POINT('', (1.5, 1.5, -31.));
#162 = CARTESIAN_POINT('', (1.5, 4.9899729317688E-16, -31.));
#163 = CARTESIAN_POINT('', (1.5, -1.5, -31.));
#164 = CARTESIAN_POINT('', (-3.36546482387188E-17, -1.5, -31.));
#165 = CARTESIAN_POINT('', (-1.5, -1.5, -31.));
#166 = CARTESIAN_POINT('', (-1.5, 1.23901196117044E-15, -31.));
#167 = CARTESIAN_POINT('', (-1.5, 1.01033360929657E-16, -0.149999999999999));
#168 = CARTESIAN_POINT('', (-1.5, 1.5, -0.149999999999999));
#169 = CARTESIAN_POINT('', (5.2266299988274E-16, 1.5, -0.149999999999999));
#170 = CARTESIAN_POINT('', (1.5, 1.5, -0.149999999999999));
#171 = CARTESIAN_POINT('', (1.5, -6.38981307063906E-16, -0.149999999999999));
#172 = CARTESIAN_POINT('', (1.5, -1.5, -0.149999999999999));
#173 = CARTESIAN_POINT('', (-3.36546482387192E-17, -1.5, -0.149999999999999));
#174 = CARTESIAN_POINT('', (-1.5, -1.5, -0.149999999999999));
#175 = CARTESIAN_POINT('', (-1.5, 1.01033360929657E-16, -0.149999999999999));
#176 = ADVANCED_FACE('', (#177), #196, .T.);
#177 = FACE_OUTER_BOUND('', #178, .T.);
#178 = EDGE_LOOP('', (#179, #188, #194, #195));
#179 = ORIENTED_EDGE('', *, *, #180, .F.);
#180 = EDGE_CURVE('', #181, #181, #183, .T.);
#181 = VERTEX_POINT('', #182);
#182 = CARTESIAN_POINT('', (-0.75, 3.01569274290036E-15, -48.5));
#183 = CIRCLE('', #184, 0.75);
#184 = AXIS2_PLACEMENT_3D('', #185, #186, #187);
#185 = CARTESIAN_POINT('', (-2.0122792321331E-16, 3.02535774210355E-15, -48.5));
#186 = DIRECTION('', (0., 0., -1.));
#187 = DIRECTION('', (-1., -1.28866656042553E-17, 0.));
#188 = ORIENTED_EDGE('', *, *, #189, .F.);
#189 = EDGE_CURVE('', #10, #181, #190, .T.);
#190 = LINE('', #191, #192);
#191 = CARTESIAN_POINT('', (-0.75, 2.95446040294299E-15, -47.5));
#192 = VECTOR('', #193, 1.);
#193 = DIRECTION('', (0., 6.12323399573699E-17, -1.));
#194 = ORIENTED_EDGE('', *, *, #25, .T.);
#195 = ORIENTED_EDGE('', *, *, #189, .T.);
#196 = (
   BOUNDED_SURFACE ()
   B_SPLINE_SURFACE (2, 1, ((#197, #198), (#199, #200), (#201, #202), (#203, #204), (#205, #206), (#207, #208), (#209, #210), (#211, #212), (#213, #214)), .UNSPECIFIED., .T., .F., .U.)
   B_SPLINE_SURFACE_WITH_KNOTS ((3, 2, 2, 2, 3), (2, 2), (0., 1.17809724509617, 2.35619449019235, 3.53429173528852, 4.71238898038469), (0., 0.4), .UNSPECIFIED.)
   GEOMETRIC_REPRESENTATION_ITEM ()
   RATIONAL_B_SPLINE_SURFACE (((1., 1.), (0.707106781186548, 0.707106781186548), (1., 1.), (0.707106781186548, 0.707106781186548), (1., 1.), (0.707106781186548, 0.707106781186548), (1., 1.), (0.707106781186548, 0.707106781186548), (1., 1.)))
   REPRESENTATION_ITEM ('')
   SURFACE ()
);
#197 = CARTESIAN_POINT('', (-0.75, 2.95446040294299E-15, -47.5));
#198 = CARTESIAN_POINT('', (-0.75, 2.9683381907508E-15, -48.5));
#199 = CARTESIAN_POINT('', (-0.75, 0.750000000000003, -47.5));
#200 = CARTESIAN_POINT('', (-0.75, 0.750000000000003, -48.5));
#201 = CARTESIAN_POINT('', (5.318130651714E-17, 0.750000000000003, -47.5));
#202 = CARTESIAN_POINT('', (5.318130651714E-17, 0.750000000000003, -48.5));
#203 = CARTESIAN_POINT('', (0.75, 0.750000000000003, -47.5));
#204 = CARTESIAN_POINT('', (0.75, 0.750000000000003, -48.5));
#205 = CARTESIAN_POINT('', (0.75, 3.21585916681579E-15, -47.5));
#206 = CARTESIAN_POINT('', (0.75, 3.22973695462361E-15, -48.5));
#207 = CARTESIAN_POINT('', (0.750000000000001, -0.749999999999997, -47.5));
#208 = CARTESIAN_POINT('', (0.750000000000001, -0.749999999999997, -48.5));
#209 = CARTESIAN_POINT('', (4.06428580325995E-16, -0.749999999999997, -47.5));
#210 = CARTESIAN_POINT('', (4.06428580325995E-16, -0.749999999999997, -48.5));
#211 = CARTESIAN_POINT('', (-0.75, -0.749999999999997, -47.5));
#212 = CARTESIAN_POINT('', (-0.75, -0.749999999999997, -48.5));
#213 = CARTESIAN_POINT('', (-0.75, 2.95446040294299E-15, -47.5));
#214 = CARTESIAN_POINT('', (-0.75, 2.9683381907508E-15, -48.5));
#215 = ADVANCED_FACE('', (#216), #219, .T.);
#216 = FACE_OUTER_BOUND('', #217, .T.);
#217 = EDGE_LOOP('', (#218));
#218 = ORIENTED_EDGE('', *, *, #180, .T.);
#219 = B_SPLINE_SURFACE_WITH_KNOTS('', 1, 1, ((#220, #221), (#222, #223)), .UNSPECIFIED., .F., .F., .U., (2, 2), (2, 2), (50.8396833923362, 52.3396833923362), (48.0196798579365, 49.5196798579365), .UNSPECIFIED.);
#220 = CARTESIAN_POINT('', (-0.750000000000001, 0.75, -48.5));
#221 = CARTESIAN_POINT('', (-0.750000000000001, -0.75, -48.5));
#222 = CARTESIAN_POINT('', (0.749999999999999, 0.75, -48.5));
#223 = CARTESIAN_POINT('', (0.749999999999999, -0.75, -48.5));
#224 = DRAUGHTING_MODEL('', (#232, #307, #346, #351, #356, #361, #366), #380);
#225 = PRESENTATION_STYLE_ASSIGNMENT((#226));
#226 = SURFACE_STYLE_USAGE(.POSITIVE., #227);
#227 = SURFACE_SIDE_STYLE('', (#228));
#228 = SURFACE_STYLE_FILL_AREA(#229);
#229 = FILL_AREA_STYLE('', (#230));
#230 = FILL_AREA_STYLE_COLOUR('', #231);
#231 = COLOUR_RGB('', 0.50196078431373, 0.50196078431373, 0.50196078431373);
#232 = STYLED_ITEM('', (#225), #1);
#233 = MANIFOLD_SOLID_BREP('CUT', #234);
#234 = CLOSED_SHELL('', (#235, #252, #291));
#235 = ADVANCED_FACE('', (#236), #247, .T.);
#236 = FACE_OUTER_BOUND('', #237, .T.);
#237 = EDGE_LOOP('', (#238));
#238 = ORIENTED_EDGE('', *, *, #239, .F.);
#239 = EDGE_CURVE('', #240, #240, #242, .T.);
#240 = VERTEX_POINT('', #241);
#241 = CARTESIAN_POINT('', (-0.75, 3.01569274290036E-15, -48.5));
#242 = CIRCLE('', #243, 0.75);
#243 = AXIS2_PLACEMENT_3D('', #244, #245, #246);
#244 = CARTESIAN_POINT('', (-2.0122792321331E-16, 3.02535774210355E-15, -48.5));
#245 = DIRECTION('', (0., 0., -1.));
#246 = DIRECTION('', (-1., -1.28866656042553E-17, 0.));
#247 = B_SPLINE_SURFACE_WITH_KNOTS('', 1, 1, ((#248, #249), (#250, #251)), .UNSPECIFIED., .F., .F., .U., (2, 2), (2, 2), (48.0196798579365, 49.5196798579365), (50.8396833923362, 52.3396833923362), .UNSPECIFIED.);
#248 = CARTESIAN_POINT('', (-0.75, 0.75, -48.5));
#249 = CARTESIAN_POINT('', (0.75, 0.75, -48.5));
#250 = CARTESIAN_POINT('', (-0.75, -0.75, -48.5));
#251 = CARTESIAN_POINT('', (0.75, -0.75, -48.5));
#252 = ADVANCED_FACE('', (#253), #272, .T.);
#253 = FACE_OUTER_BOUND('', #254, .T.);
#254 = EDGE_LOOP('', (#255, #256, #264, #271));
#255 = ORIENTED_EDGE('', *, *, #239, .T.);
#256 = ORIENTED_EDGE('', *, *, #257, .T.);
#257 = EDGE_CURVE('', #240, #258, #260, .T.);
#258 = VERTEX_POINT('', #259);
#259 = CARTESIAN_POINT('', (-0.75, 3.10754125283641E-15, -50.));
#260 = LINE('', #261, #262);
#261 = CARTESIAN_POINT('', (-0.75, 3.01569274290036E-15, -48.5));
#262 = VECTOR('', #263, 1.5);
#263 = DIRECTION('', (0., 9.18485099360498E-17, -1.5));
#264 = ORIENTED_EDGE('', *, *, #265, .F.);
#265 = EDGE_CURVE('', #258, #258, #266, .T.);
#266 = CIRCLE('', #267, 0.75);
#267 = AXIS2_PLACEMENT_3D('', #268, #269, #270);
#268 = CARTESIAN_POINT('', (-2.04697370165263E-16, 3.09474668114262E-15, -50.));
#269 = DIRECTION('', (0., 0., -1.));
#270 = DIRECTION('', (-1., 1.70594289250481E-17, 0.));
#271 = ORIENTED_EDGE('', *, *, #257, .F.);
#272 = (
   BOUNDED_SURFACE ()
   B_SPLINE_SURFACE (2, 1, ((#273, #274), (#275, #276), (#277, #278), (#279, #280), (#281, #282), (#283, #284), (#285, #286), (#287, #288), (#289, #290)), .UNSPECIFIED., .T., .F., .U.)
   B_SPLINE_SURFACE_WITH_KNOTS ((3, 2, 2, 2, 3), (2, 2), (0., 1.17809724509617, 2.35619449019235, 3.53429173528852, 4.71238898038469), (0.4, 1.), .UNSPECIFIED.)
   GEOMETRIC_REPRESENTATION_ITEM ()
   RATIONAL_B_SPLINE_SURFACE (((1., 1.), (0.707106781186548, 0.707106781186548), (1., 1.), (0.707106781186548, 0.707106781186548), (1., 1.), (0.707106781186548, 0.707106781186548), (1., 1.), (0.707106781186548, 0.707106781186548), (1., 1.)))
   REPRESENTATION_ITEM ('')
   SURFACE ()
);
#273 = CARTESIAN_POINT('', (-0.75, 3.01569274290036E-15, -48.5));
#274 = CARTESIAN_POINT('', (-0.75, 3.09895946974725E-15, -50.));
#275 = CARTESIAN_POINT('', (-0.75, 0.750000000000003, -48.5));
#276 = CARTESIAN_POINT('', (-0.75, 0.750000000000003, -50.));
#277 = CARTESIAN_POINT('', (-1.39558907477738E-17, 0.750000000000003, -48.5));
#278 = CARTESIAN_POINT('', (-1.39558907477738E-17, 0.750000000000003, -50.));
#279 = CARTESIAN_POINT('', (0.75, 0.750000000000003, -48.5));
#280 = CARTESIAN_POINT('', (0.75, 0.750000000000003, -50.));
#281 = CARTESIAN_POINT('', (0.75, 3.18238240247405E-15, -48.5));
#282 = CARTESIAN_POINT('', (0.75, 3.26564912932094E-15, -50.));
#283 = CARTESIAN_POINT('', (0.75, -0.749999999999997, -48.5));
#284 = CARTESIAN_POINT('', (0.75, -0.749999999999997, -50.));
#285 = CARTESIAN_POINT('', (2.4458227876197E-16, -0.749999999999997, -48.5));
#286 = CARTESIAN_POINT('', (2.4458227876197E-16, -0.749999999999997, -50.));
#287 = CARTESIAN_POINT('', (-0.75, -0.749999999999997, -48.5));
#288 = CARTESIAN_POINT('', (-0.75, -0.749999999999997, -50.));
#289 = CARTESIAN_POINT('', (-0.75, 3.01569274290036E-15, -48.5));
#290 = CARTESIAN_POINT('', (-0.75, 3.09895946974725E-15, -50.));
#291 = ADVANCED_FACE('', (#292), #295, .T.);
#292 = FACE_OUTER_BOUND('', #293, .T.);
#293 = EDGE_LOOP('', (#294));
#294 = ORIENTED_EDGE('', *, *, #265, .T.);
#295 = B_SPLINE_SURFACE_WITH_KNOTS('', 1, 1, ((#296, #297), (#298, #299)), .UNSPECIFIED., .F., .F., .U., (2, 2), (2, 2), (0.4167261889578, 1.9167261889578), (0.416726188957803, 1.9167261889578), .UNSPECIFIED.);
#296 = CARTESIAN_POINT('', (0.75, -0.749999999999997, -50.));
#297 = CARTESIAN_POINT('', (0.75, 0.750000000000003, -50.));
#298 = CARTESIAN_POINT('', (-0.75, -0.749999999999997, -50.));
#299 = CARTESIAN_POINT('', (-0.75, 0.750000000000003, -50.));
#300 = PRESENTATION_STYLE_ASSIGNMENT((#301));
#301 = SURFACE_STYLE_USAGE(.POSITIVE., #302);
#302 = SURFACE_SIDE_STYLE('', (#303));
#303 = SURFACE_STYLE_FILL_AREA(#304);
#304 = FILL_AREA_STYLE('', (#305));
#305 = FILL_AREA_STYLE_COLOUR('', #306);
#306 = COLOUR_RGB('', 0.8, 0.8, 0.8);
#307 = STYLED_ITEM('', (#300), #233);
#308 = TRIMMED_CURVE('cutting part line', #309, (#313), (#314), .T., .CARTESIAN.);
#309 = LINE('', #310, #311);
#310 = CARTESIAN_POINT('', (-5.4553762094325E-31, -2.96976848793233E-15, -48.5));
#311 = VECTOR('', #312, 0.75);
#312 = DIRECTION('', (0.75, -1.37772764904081E-16, 0.));
#313 = CARTESIAN_POINT('', (-5.4553762094325E-31, -2.96976848793233E-15, -48.5));
#314 = CARTESIAN_POINT('', (0.75, -3.10754125283641E-15, -48.5));
#315 = TRIMMED_CURVE('cutting part line', #316, (#320), (#321), .T., .CARTESIAN.);
#316 = LINE('', #317, #318);
#317 = CARTESIAN_POINT('', (0.75, -3.10754125283641E-15, -48.5));
#318 = VECTOR('', #319, 1.5);
#319 = DIRECTION('', (0., -9.18485099360498E-17, -1.5));
#320 = CARTESIAN_POINT('', (0.75, -3.10754125283641E-15, -48.5));
#321 = CARTESIAN_POINT('', (0.75, -3.19938976277246E-15, -50.));
#322 = TRIMMED_CURVE('cutting part line', #323, (#327), (#328), .T., .CARTESIAN.);
#323 = LINE('', #324, #325);
#324 = CARTESIAN_POINT('', (0.75, -3.19938976277246E-15, -50.));
#325 = VECTOR('', #326, 0.75);
#326 = DIRECTION('', (-0.75, 1.37772764904081E-16, 0.));
#327 = CARTESIAN_POINT('', (0.75, -3.19938976277246E-15, -50.));
#328 = CARTESIAN_POINT('', (-3.74939945665464E-31, -3.06161699786838E-15, -50.));
#329 = TRIMMED_CURVE('cutting part line', #330, (#334), (#335), .T., .CARTESIAN.);
#330 = LINE('', #331, #332);
#331 = CARTESIAN_POINT('', (-5.62409918498196E-31, -3.06161699786838E-15, -50.));
#332 = VECTOR('', #333, 1.5);
#333 = DIRECTION('', (1.68722975549458E-32, 9.18485099360498E-17, 1.5));
#334 = CARTESIAN_POINT('', (-5.62409918498196E-31, -3.06161699786838E-15, -50.));
#335 = CARTESIAN_POINT('', (-5.4553762094325E-31, -2.96976848793233E-15, -48.5));
#336 = COMPOSITE_CURVE('cutting part line', (#337, #338, #339, #340), .U.);
#337 = COMPOSITE_CURVE_SEGMENT(.CONTINUOUS., .T., #308);
#338 = COMPOSITE_CURVE_SEGMENT(.CONTINUOUS., .T., #315);
#339 = COMPOSITE_CURVE_SEGMENT(.CONTINUOUS., .T., #322);
#340 = COMPOSITE_CURVE_SEGMENT(.CONTINUOUS., .T., #329);
#341 = GEOMETRIC_SET('', (#336, #379));
#342 = PRESENTATION_STYLE_ASSIGNMENT((#343));
#343 = CURVE_STYLE('', #345, POSITIVE_LENGTH_MEASURE(1.E-6), #344);
#344 = COLOUR_RGB('', 0., 0., 1.);
#345 = DRAUGHTING_PRE_DEFINED_CURVE_FONT('continuous');
#346 = STYLED_ITEM('', (#342), #336);
#347 = PRESENTATION_STYLE_ASSIGNMENT((#348));
#348 = CURVE_STYLE('', #350, POSITIVE_LENGTH_MEASURE(1.E-6), #349);
#349 = COLOUR_RGB('', 0., 0., 1.);
#350 = DRAUGHTING_PRE_DEFINED_CURVE_FONT('continuous');
#351 = OVER_RIDING_STYLED_ITEM('', (#347), #308, #346);
#352 = PRESENTATION_STYLE_ASSIGNMENT((#353));
#353 = CURVE_STYLE('', #355, POSITIVE_LENGTH_MEASURE(1.E-6), #354);
#354 = COLOUR_RGB('', 0., 0., 1.);
#355 = DRAUGHTING_PRE_DEFINED_CURVE_FONT('continuous');
#356 = OVER_RIDING_STYLED_ITEM('', (#352), #315, #346);
#357 = PRESENTATION_STYLE_ASSIGNMENT((#358));
#358 = CURVE_STYLE('', #360, POSITIVE_LENGTH_MEASURE(1.E-6), #359);
#359 = COLOUR_RGB('', 0., 0., 1.);
#360 = DRAUGHTING_PRE_DEFINED_CURVE_FONT('continuous');
#361 = OVER_RIDING_STYLED_ITEM('', (#357), #322, #346);
#362 = PRESENTATION_STYLE_ASSIGNMENT((#363));
#363 = CURVE_STYLE('', #365, POSITIVE_LENGTH_MEASURE(1.E-6), #364);
#364 = COLOUR_RGB('', 0., 0., 1.);
#365 = DRAUGHTING_PRE_DEFINED_CURVE_FONT('continuous');
#366 = OVER_RIDING_STYLED_ITEM('', (#362), #329, #346);
#367 = AXIS2_PLACEMENT_3D('CIP', #368, #369, #370);
#368 = CARTESIAN_POINT('', (1.87469972832732E-31, 3.06161699786838E-15, -50.));
#369 = DIRECTION('', (-3.74939945665465E-33, -6.12323399573677E-17, 1.));
#370 = DIRECTION('', (1., -6.12323399573677E-17, 0.));
#371 = AXIS2_PLACEMENT_3D('MCS', #372, #373, #374);
#372 = CARTESIAN_POINT('', (1.0498318478633E-31, 1.71450551880629E-15, -28.));
#373 = DIRECTION('', (-3.74939945665465E-33, -6.12323399573677E-17, 1.));
#374 = DIRECTION('', (1., -6.12323399573677E-17, 0.));
#375 = AXIS2_PLACEMENT_3D('PCS', #376, #377, #378);
#376 = CARTESIAN_POINT('', (0., 0., 0.));
#377 = DIRECTION('', (0., 0., 1.));
#378 = DIRECTION('', (1., 0., 0.));
#379 = CARTESIAN_POINT('CRP', (0.75, 0., -50.));
#380 = (
   GEOMETRIC_REPRESENTATION_CONTEXT (3)
   GLOBAL_UNCERTAINTY_ASSIGNED_CONTEXT ((#382))
   GLOBAL_UNIT_ASSIGNED_CONTEXT ((#381, #383, #384))
   REPRESENTATION_CONTEXT ('', '3D')
);
#381 = (
   LENGTH_UNIT ()
   NAMED_UNIT (*)
   SI_UNIT (.MILLI., .METRE.)
);
#382 = UNCERTAINTY_MEASURE_WITH_UNIT(LENGTH_MEASURE(1.E-6), #381, 'DISTANCE_ACCURACY_VALUE', '');
#383 = (
   NAMED_UNIT (*)
   SI_UNIT ($, .STERADIAN.)
   SOLID_ANGLE_UNIT ()
);
#384 = (
   NAMED_UNIT (*)
   PLANE_ANGLE_UNIT ()
   SI_UNIT ($, .RADIAN.)
);
#385 = SHAPE_REPRESENTATION('', (), #380);
#386 = PRODUCT_DEFINITION_SHAPE('', '', #387);
#387 = PRODUCT_DEFINITION('', '', #390, #394);
#388 = APPLICATION_CONTEXT('configuration controlled 3D designs of mechanical parts and assemblies');
#389 = APPLICATION_PROTOCOL_DEFINITION('International Standard', 'automotive_design', 2002, #388);
#390 = PRODUCT_DEFINITION_FORMATION_WITH_SPECIFIED_SOURCE('', '', #391, .NOT_KNOWN.);
#391 = PRODUCT('EmptyName', 'EmptyName', '', (#392));
#392 = PRODUCT_CONTEXT('', #388, 'mechanical');
#393 = PRODUCT_RELATED_PRODUCT_CATEGORY('detail', '', (#391));
#394 = PRODUCT_DEFINITION_CONTEXT('part definition', #388, 'design');
#395 = SHAPE_DEFINITION_REPRESENTATION(#386, #385);
#396 = CONSTRUCTIVE_GEOMETRY_REPRESENTATION('supplemental geometry', (#367, #371, #375), #380);
#397 = CONSTRUCTIVE_GEOMETRY_REPRESENTATION_RELATIONSHIP('', '', #385, #396);
#398 = SHAPE_REPRESENTATION_RELATIONSHIP('', '', #385, #399);
#399 = SHAPE_REPRESENTATION('', (#341), #380);
#400 = SHAPE_REPRESENTATION_RELATIONSHIP('', '', #385, #401);
#401 = ADVANCED_BREP_SHAPE_REPRESENTATION('', (#1, #233), #380);
ENDSEC;
END-ISO-10303-21;
