ISO-10303-21;
HEADER;
FILE_DESCRIPTION(('STEP'), '1');
FILE_NAME('C:\\Users\\ds2002\\OneDrive - Sandvik\\HomeShare\\Documents\\Batchrepair\\CorSRT2\\NEW_MILSQ_SLD\\Output\\MOD000000000000000020082311200000.stp', '2019-01-02T12:11:47', (''), (''), 'Express v3.0.0.0', 'Express Tool', 'Unknown');
FILE_SCHEMA(('AUTOMOTIVE_DESIGN'));
ENDSEC;

DATA;
#1 = MANIFOLD_SOLID_BREP('NOCUT', #2);
#2 = CLOSED_SHELL('', (#3, #50, #89, #128, #167, #176, #215));
#3 = ADVANCED_FACE('', (#4), #31, .T.);
#4 = FACE_OUTER_BOUND('', #5, .T.);
#5 = EDGE_LOOP('', (#6, #16, #23, #24));
#6 = ORIENTED_EDGE('', *, *, #7, .F.);
#7 = EDGE_CURVE('', #8, #10, #12, .T.);
#8 = VERTEX_POINT('', #9);
#9 = CARTESIAN_POINT('', (-0.58, 2.48480835546998E-15, -40.));
#10 = VERTEX_POINT('', #11);
#11 = CARTESIAN_POINT('', (-0.5, 2.96976848793233E-15, -48.));
#12 = LINE('', #13, #14);
#13 = CARTESIAN_POINT('', (-0.58, 2.48480835546998E-15, -40.));
#14 = VECTOR('', #15, 8.0003999900005);
#15 = DIRECTION('', (0.08, 4.8496013246235E-16, -8.));
#16 = ORIENTED_EDGE('', *, *, #17, .T.);
#17 = EDGE_CURVE('', #8, #8, #18, .T.);
#18 = CIRCLE('', #19, 0.58);
#19 = AXIS2_PLACEMENT_3D('', #20, #21, #22);
#20 = CARTESIAN_POINT('', (2.94902990916057E-17, 2.17881268582687E-15, -40.));
#21 = DIRECTION('', (-2.19978410580823E-29, -4.1695844351551E-14, -1.));
#22 = DIRECTION('', (-1., 5.27578740763984E-16, 0.));
#23 = ORIENTED_EDGE('', *, *, #7, .T.);
#24 = ORIENTED_EDGE('', *, *, #25, .F.);
#25 = EDGE_CURVE('', #10, #10, #26, .T.);
#26 = CIRCLE('', #27, 0.5);
#27 = AXIS2_PLACEMENT_3D('', #28, #29, #30);
#28 = CARTESIAN_POINT('', (-1.56125112837913E-17, 3.10862446895044E-15, -48.));
#29 = DIRECTION('', (0., 0., -1.));
#30 = DIRECTION('', (-1., -2.77711962036216E-16, 0.));
#31 = (
   BOUNDED_SURFACE ()
   B_SPLINE_SURFACE (2, 1, ((#32, #33), (#34, #35), (#36, #37), (#38, #39), (#40, #41), (#42, #43), (#44, #45), (#46, #47), (#48, #49)), .UNSPECIFIED., .T., .F., .U.)
   B_SPLINE_SURFACE_WITH_KNOTS ((3, 2, 2, 2, 3), (2, 2), (0., 0.25, 0.5, 0.75, 1.), (0., 1.), .UNSPECIFIED.)
   GEOMETRIC_REPRESENTATION_ITEM ()
   RATIONAL_B_SPLINE_SURFACE (((1., 1.), (0.707106781186548, 0.707106781186548), (1., 1.), (0.707106781186548, 0.707106781186548), (1., 1.), (0.707106781186548, 0.707106781186548), (1., 1.), (0.707106781186548, 0.707106781186548), (1., 1.)))
   REPRESENTATION_ITEM ('')
   SURFACE ()
);
#32 = CARTESIAN_POINT('', (-0.58, 2.48480835546998E-15, -40.));
#33 = CARTESIAN_POINT('', (-0.500000000000098, 3.61168604291554E-15, -48.));
#34 = CARTESIAN_POINT('', (-0.579999999999999, 0.580000000000003, -40.));
#35 = CARTESIAN_POINT('', (-0.500000000000097, 0.500000000000004, -48.));
#36 = CARTESIAN_POINT('', (8.34266042160301E-16, 0.580000000000002, -40.));
#37 = CARTESIAN_POINT('', (-9.72472198100774E-14, 0.500000000000003, -48.));
#38 = CARTESIAN_POINT('', (0.580000000000001, 0.580000000000001, -40.));
#39 = CARTESIAN_POINT('', (0.499999999999903, 0.500000000000003, -48.));
#40 = CARTESIAN_POINT('', (0.58, 1.38873501822173E-15, -40.));
#41 = CARTESIAN_POINT('', (0.499999999999902, 2.6667952349429E-15, -48.));
#42 = CARTESIAN_POINT('', (0.58, -0.579999999999999, -40.));
#43 = CARTESIAN_POINT('', (0.499999999999902, -0.499999999999997, -48.));
#44 = CARTESIAN_POINT('', (-1.90777780737408E-16, -0.579999999999998, -40.));
#45 = CARTESIAN_POINT('', (-9.81308782780927E-14, -0.499999999999997, -48.));
#46 = CARTESIAN_POINT('', (-0.58, -0.579999999999998, -40.));
#47 = CARTESIAN_POINT('', (-0.500000000000098, -0.499999999999996, -48.));
#48 = CARTESIAN_POINT('', (-0.58, 2.48480835546998E-15, -40.));
#49 = CARTESIAN_POINT('', (-0.500000000000098, 3.61168604291554E-15, -48.));
#50 = ADVANCED_FACE('', (#51), #70, .T.);
#51 = FACE_OUTER_BOUND('', #52, .T.);
#52 = EDGE_LOOP('', (#53, #61, #68, #69));
#53 = ORIENTED_EDGE('', *, *, #54, .F.);
#54 = EDGE_CURVE('', #55, #8, #57, .T.);
#55 = VERTEX_POINT('', #56);
#56 = CARTESIAN_POINT('', (-1.5, 2.23498040844392E-15, -35.));
#57 = LINE('', #58, #59);
#58 = CARTESIAN_POINT('', (-1.5, 2.23498040844392E-15, -35.));
#59 = VECTOR('', #60, 5.08393548346161);
#60 = DIRECTION('', (0.92, 2.4982794702606E-16, -5.));
#61 = ORIENTED_EDGE('', *, *, #62, .T.);
#62 = EDGE_CURVE('', #55, #55, #63, .T.);
#63 = CIRCLE('', #64, 1.5);
#64 = AXIS2_PLACEMENT_3D('', #65, #66, #67);
#65 = CARTESIAN_POINT('', (2.77555756156289E-16, 6.93889390390723E-16, -35.));
#66 = DIRECTION('', (0., 0., -1.));
#67 = DIRECTION('', (-1., 1.02739401203546E-15, 0.));
#68 = ORIENTED_EDGE('', *, *, #54, .T.);
#69 = ORIENTED_EDGE('', *, *, #17, .F.);
#70 = (
   BOUNDED_SURFACE ()
   B_SPLINE_SURFACE (2, 1, ((#71, #72), (#73, #74), (#75, #76), (#77, #78), (#79, #80), (#81, #82), (#83, #84), (#85, #86), (#87, #88)), .UNSPECIFIED., .T., .F., .U.)
   B_SPLINE_SURFACE_WITH_KNOTS ((3, 2, 2, 2, 3), (2, 2), (0., 0.25, 0.5, 0.75, 1.), (0., 1.), .UNSPECIFIED.)
   GEOMETRIC_REPRESENTATION_ITEM ()
   RATIONAL_B_SPLINE_SURFACE (((1., 1.), (0.707106781186548, 0.707106781186548), (1., 1.), (0.707106781186548, 0.707106781186548), (1., 1.), (0.707106781186548, 0.707106781186548), (1., 1.), (0.707106781186548, 0.707106781186548), (1., 1.)))
   REPRESENTATION_ITEM ('')
   SURFACE ()
);
#71 = CARTESIAN_POINT('', (-1.5, 2.23498040844392E-15, -35.));
#72 = CARTESIAN_POINT('', (-0.58, 2.77470121280744E-15, -40.));
#73 = CARTESIAN_POINT('', (-1.5, 1.5, -35.));
#74 = CARTESIAN_POINT('', (-0.58, 0.580000000000003, -40.));
#75 = CARTESIAN_POINT('', (1.72679826427343E-15, 1.5, -35.));
#76 = CARTESIAN_POINT('', (8.37929525961587E-16, 0.580000000000003, -40.));
#77 = CARTESIAN_POINT('', (1.5, 1.5, -35.));
#78 = CARTESIAN_POINT('', (0.580000000000001, 0.580000000000002, -40.));
#79 = CARTESIAN_POINT('', (1.5, -6.63504607790371E-16, -35.));
#80 = CARTESIAN_POINT('', (0.580000000000001, 1.65395367319685E-15, -40.));
#81 = CARTESIAN_POINT('', (1.5, -1.5, -35.));
#82 = CARTESIAN_POINT('', (0.58, -0.579999999999999, -40.));
#83 = CARTESIAN_POINT('', (-9.87989732088753E-16, -1.5, -35.));
#84 = CARTESIAN_POINT('', (-2.11788499298459E-16, -0.579999999999998, -40.));
#85 = CARTESIAN_POINT('', (-1.5, -1.5, -35.));
#86 = CARTESIAN_POINT('', (-0.580000000000001, -0.579999999999998, -40.));
#87 = CARTESIAN_POINT('', (-1.5, 2.23498040844392E-15, -35.));
#88 = CARTESIAN_POINT('', (-0.58, 2.77470121280744E-15, -40.));
#89 = ADVANCED_FACE('', (#90), #109, .T.);
#90 = FACE_OUTER_BOUND('', #91, .T.);
#91 = EDGE_LOOP('', (#92, #100, #107, #108));
#92 = ORIENTED_EDGE('', *, *, #93, .T.);
#93 = EDGE_CURVE('', #55, #94, #96, .T.);
#94 = VERTEX_POINT('', #95);
#95 = CARTESIAN_POINT('', (-1.5, 1.01033360929657E-16, -0.149999999999999));
#96 = LINE('', #97, #98);
#97 = CARTESIAN_POINT('', (-1.5, 2.23498040844392E-15, -35.));
#98 = VECTOR('', #99, 34.85);
#99 = DIRECTION('', (0., -2.13394704751426E-15, 34.85));
#100 = ORIENTED_EDGE('', *, *, #101, .T.);
#101 = EDGE_CURVE('', #94, #94, #102, .T.);
#102 = CIRCLE('', #103, 1.5);
#103 = AXIS2_PLACEMENT_3D('', #104, #105, #106);
#104 = CARTESIAN_POINT('', (1.52655665885959E-16, -3.60822483003176E-16, -0.149999999999999));
#105 = DIRECTION('', (0., 0., -1.));
#106 = DIRECTION('', (-1., 3.07903895955222E-16, 0.));
#107 = ORIENTED_EDGE('', *, *, #93, .F.);
#108 = ORIENTED_EDGE('', *, *, #62, .F.);
#109 = (
   BOUNDED_SURFACE ()
   B_SPLINE_SURFACE (1, 2, ((#110, #111, #112, #113, #114, #115, #116, #117, #118), (#119, #120, #121, #122, #123, #124, #125, #126, #127)), .UNSPECIFIED., .F., .T., .U.)
   B_SPLINE_SURFACE_WITH_KNOTS ((2, 2), (3, 2, 2, 2, 3), (0., 1.), (0., 2.35619449019235, 4.71238898038469, 7.06858347057704, 9.42477796076938), .UNSPECIFIED.)
   GEOMETRIC_REPRESENTATION_ITEM ()
   RATIONAL_B_SPLINE_SURFACE (((1., 0.707106781186548, 1., 0.707106781186548, 1., 0.707106781186548, 1., 0.707106781186548, 1.), (1., 0.707106781186548, 1., 0.707106781186548, 1., 0.707106781186548, 1., 0.707106781186548, 1.)))
   REPRESENTATION_ITEM ('')
   SURFACE ()
);
#110 = CARTESIAN_POINT('', (-1.5, 1.54432329294236E-15, -35.));
#111 = CARTESIAN_POINT('', (-1.5, 1.5, -35.));
#112 = CARTESIAN_POINT('', (5.22662999882741E-16, 1.5, -35.));
#113 = CARTESIAN_POINT('', (1.5, 1.5, -35.));
#114 = CARTESIAN_POINT('', (1.5, 8.04308624948797E-16, -35.));
#115 = CARTESIAN_POINT('', (1.5, -1.5, -35.));
#116 = CARTESIAN_POINT('', (-3.36546482387189E-17, -1.5, -35.));
#117 = CARTESIAN_POINT('', (-1.5, -1.5, -35.));
#118 = CARTESIAN_POINT('', (-1.5, 1.54432329294236E-15, -35.));
#119 = CARTESIAN_POINT('', (-1.5, 1.01033360929657E-16, -0.149999999999999));
#120 = CARTESIAN_POINT('', (-1.5, 1.5, -0.149999999999999));
#121 = CARTESIAN_POINT('', (5.2266299988274E-16, 1.5, -0.149999999999999));
#122 = CARTESIAN_POINT('', (1.5, 1.5, -0.149999999999999));
#123 = CARTESIAN_POINT('', (1.5, -6.38981307063906E-16, -0.149999999999999));
#124 = CARTESIAN_POINT('', (1.5, -1.5, -0.149999999999999));
#125 = CARTESIAN_POINT('', (-3.36546482387192E-17, -1.5, -0.149999999999999));
#126 = CARTESIAN_POINT('', (-1.5, -1.5, -0.149999999999999));
#127 = CARTESIAN_POINT('', (-1.5, 1.01033360929657E-16, -0.149999999999999));
#128 = ADVANCED_FACE('', (#129), #148, .T.);
#129 = FACE_OUTER_BOUND('', #130, .T.);
#130 = EDGE_LOOP('', (#131, #139, #146, #147));
#131 = ORIENTED_EDGE('', *, *, #132, .T.);
#132 = EDGE_CURVE('', #94, #133, #135, .T.);
#133 = VERTEX_POINT('', #134);
#134 = CARTESIAN_POINT('', (-1.35, 8.26636589424463E-17, 0.));
#135 = LINE('', #136, #137);
#136 = CARTESIAN_POINT('', (-1.5, 1.01033360929657E-16, -0.149999999999999));
#137 = VECTOR('', #138, 0.212132034355963);
#138 = DIRECTION('', (0.15, -1.83697019872107E-17, 0.149999999999999));
#139 = ORIENTED_EDGE('', *, *, #140, .T.);
#140 = EDGE_CURVE('', #133, #133, #141, .T.);
#141 = CIRCLE('', #142, 1.35);
#142 = AXIS2_PLACEMENT_3D('', #143, #144, #145);
#143 = CARTESIAN_POINT('', (4.61436444609831E-16, -6.38378239159465E-16, -7.7875102531819E-16));
#144 = DIRECTION('', (-5.76852611346806E-16, 1.6649441676109E-15, -1.));
#145 = DIRECTION('', (-1., 5.34105109705119E-16, 5.76852611346807E-16));
#146 = ORIENTED_EDGE('', *, *, #132, .F.);
#147 = ORIENTED_EDGE('', *, *, #101, .F.);
#148 = (
   BOUNDED_SURFACE ()
   B_SPLINE_SURFACE (1, 2, ((#149, #150, #151, #152, #153, #154, #155, #156, #157), (#158, #159, #160, #161, #162, #163, #164, #165, #166)), .UNSPECIFIED., .F., .T., .U.)
   B_SPLINE_SURFACE_WITH_KNOTS ((2, 2), (3, 2, 2, 2, 3), (0., 1.), (0., 0.25, 0.5, 0.75, 1.), .UNSPECIFIED.)
   GEOMETRIC_REPRESENTATION_ITEM ()
   RATIONAL_B_SPLINE_SURFACE (((1., 0.707106781186548, 1., 0.707106781186548, 1., 0.707106781186548, 1., 0.707106781186548, 1.), (1., 0.707106781186548, 1., 0.707106781186548, 1., 0.707106781186548, 1., 0.707106781186548, 1.)))
   REPRESENTATION_ITEM ('')
   SURFACE ()
);
#149 = CARTESIAN_POINT('', (-1.5, 7.45646513326421E-16, -0.149999999999998));
#150 = CARTESIAN_POINT('', (-1.5, 1.5, -0.149999999999992));
#151 = CARTESIAN_POINT('', (1.08421770752944E-15, 1.5, -0.149999999999993));
#152 = CARTESIAN_POINT('', (1.5, 1.5, -0.149999999999994));
#153 = CARTESIAN_POINT('', (1.5, -6.72971795916834E-16, -0.15));
#154 = CARTESIAN_POINT('', (1.5, -1.5, -0.150000000000006));
#155 = CARTESIAN_POINT('', (-1.50703581841717E-16, -1.5, -0.150000000000005));
#156 = CARTESIAN_POINT('', (-1.5, -1.5, -0.150000000000004));
#157 = CARTESIAN_POINT('', (-1.5, 7.45646513326421E-16, -0.149999999999998));
#158 = CARTESIAN_POINT('', (-1.35, 8.2663658942446E-17, -2.95822839457879E-31));
#159 = CARTESIAN_POINT('', (-1.35, 1.35, 5.24580379135393E-15));
#160 = CARTESIAN_POINT('', (1.0998146837693E-15, 1.35, 4.46705276603574E-15));
#161 = CARTESIAN_POINT('', (1.35, 1.35, 3.68830174071755E-15));
#162 = CARTESIAN_POINT('', (1.35, -1.19409281937648E-15, -1.55750205063638E-15));
#163 = CARTESIAN_POINT('', (1.35, -1.35, -6.80330584199031E-15));
#164 = CARTESIAN_POINT('', (-1.16144766647444E-17, -1.35, -6.02455481667212E-15));
#165 = CARTESIAN_POINT('', (-1.35, -1.35, -5.24580379135393E-15));
#166 = CARTESIAN_POINT('', (-1.35, 8.2663658942446E-17, -2.95822839457879E-31));
#167 = ADVANCED_FACE('', (#168), #171, .T.);
#168 = FACE_OUTER_BOUND('', #169, .T.);
#169 = EDGE_LOOP('', (#170));
#170 = ORIENTED_EDGE('', *, *, #140, .F.);
#171 = B_SPLINE_SURFACE_WITH_KNOTS('', 1, 1, ((#172, #173), (#174, #175)), .UNSPECIFIED., .F., .F., .U., (2, 2), (2, 2), (0.0454545454545454, 0.954545454545454), (0.0454545454545454, 0.954545454545454), .UNSPECIFIED.);
#172 = CARTESIAN_POINT('', (1.35, -1.35, -8.26636589424464E-17));
#173 = CARTESIAN_POINT('', (-1.35, -1.35, -8.26636589424463E-17));
#174 = CARTESIAN_POINT('', (1.35, 1.35, 8.26636589424463E-17));
#175 = CARTESIAN_POINT('', (-1.35, 1.35, 8.26636589424464E-17));
#176 = ADVANCED_FACE('', (#177), #196, .T.);
#177 = FACE_OUTER_BOUND('', #178, .T.);
#178 = EDGE_LOOP('', (#179, #188, #194, #195));
#179 = ORIENTED_EDGE('', *, *, #180, .F.);
#180 = EDGE_CURVE('', #181, #181, #183, .T.);
#181 = VERTEX_POINT('', #182);
#182 = CARTESIAN_POINT('', (-0.5, 3.0310008278897E-15, -49.));
#183 = CIRCLE('', #184, 0.5);
#184 = AXIS2_PLACEMENT_3D('', #185, #186, #187);
#185 = CARTESIAN_POINT('', (7.63278329429795E-17, 2.77555756156289E-15, -49.));
#186 = DIRECTION('', (0., 0., -1.));
#187 = DIRECTION('', (-1., 5.10886532653617E-16, 0.));
#188 = ORIENTED_EDGE('', *, *, #189, .F.);
#189 = EDGE_CURVE('', #10, #181, #190, .T.);
#190 = LINE('', #191, #192);
#191 = CARTESIAN_POINT('', (-0.5, 2.96976848793233E-15, -48.));
#192 = VECTOR('', #193, 1.);
#193 = DIRECTION('', (0., 6.12323399573699E-17, -1.));
#194 = ORIENTED_EDGE('', *, *, #25, .T.);
#195 = ORIENTED_EDGE('', *, *, #189, .T.);
#196 = (
   BOUNDED_SURFACE ()
   B_SPLINE_SURFACE (2, 1, ((#197, #198), (#199, #200), (#201, #202), (#203, #204), (#205, #206), (#207, #208), (#209, #210), (#211, #212), (#213, #214)), .UNSPECIFIED., .T., .F., .U.)
   B_SPLINE_SURFACE_WITH_KNOTS ((3, 2, 2, 2, 3), (2, 2), (0., 0.785398163397448, 1.5707963267949, 2.35619449019234, 3.14159265358979), (0., 0.5), .UNSPECIFIED.)
   GEOMETRIC_REPRESENTATION_ITEM ()
   RATIONAL_B_SPLINE_SURFACE (((1., 1.), (0.707106781186548, 0.707106781186548), (1., 1.), (0.707106781186548, 0.707106781186548), (1., 1.), (0.707106781186548, 0.707106781186548), (1., 1.), (0.707106781186548, 0.707106781186548), (1., 1.)))
   REPRESENTATION_ITEM ('')
   SURFACE ()
);
#197 = CARTESIAN_POINT('', (-0.5, 2.96976848793233E-15, -48.));
#198 = CARTESIAN_POINT('', (-0.500000000000014, 2.87262397327763E-15, -49.));
#199 = CARTESIAN_POINT('', (-0.5, 0.500000000000003, -48.));
#200 = CARTESIAN_POINT('', (-0.500000000000014, 0.500000000000003, -49.));
#201 = CARTESIAN_POINT('', (1.94819778958337E-16, 0.500000000000003, -48.));
#202 = CARTESIAN_POINT('', (-1.40160349362436E-14, 0.500000000000003, -49.));
#203 = CARTESIAN_POINT('', (0.5, 0.500000000000003, -48.));
#204 = CARTESIAN_POINT('', (0.499999999999986, 0.500000000000003, -49.));
#205 = CARTESIAN_POINT('', (0.5, 2.83686800446022E-15, -48.));
#206 = CARTESIAN_POINT('', (0.499999999999986, 2.73972348980552E-15, -49.));
#207 = CARTESIAN_POINT('', (0.5, -0.499999999999997, -48.));
#208 = CARTESIAN_POINT('', (0.499999999999986, -0.499999999999997, -49.));
#209 = CARTESIAN_POINT('', (1.23151635443598E-16, -0.499999999999997, -48.));
#210 = CARTESIAN_POINT('', (-1.40877030797583E-14, -0.499999999999997, -49.));
#211 = CARTESIAN_POINT('', (-0.5, -0.499999999999997, -48.));
#212 = CARTESIAN_POINT('', (-0.500000000000014, -0.499999999999997, -49.));
#213 = CARTESIAN_POINT('', (-0.5, 2.96976848793233E-15, -48.));
#214 = CARTESIAN_POINT('', (-0.500000000000014, 2.87262397327763E-15, -49.));
#215 = ADVANCED_FACE('', (#216), #219, .T.);
#216 = FACE_OUTER_BOUND('', #217, .T.);
#217 = EDGE_LOOP('', (#218));
#218 = ORIENTED_EDGE('', *, *, #180, .T.);
#219 = B_SPLINE_SURFACE_WITH_KNOTS('', 1, 1, ((#220, #221), (#222, #223)), .UNSPECIFIED., .F., .F., .U., (2, 2), (2, 2), (0.509366358796595, 0.519330551151086), (0.480669448848913, 0.490633641203405), .UNSPECIFIED.);
#220 = CARTESIAN_POINT('', (-0.500000000000014, 0.500000000000021, -49.));
#221 = CARTESIAN_POINT('', (-0.500000000000014, -0.499999999999986, -49.));
#222 = CARTESIAN_POINT('', (0.499999999999993, 0.500000000000021, -49.));
#223 = CARTESIAN_POINT('', (0.499999999999993, -0.499999999999986, -49.));
#224 = DRAUGHTING_MODEL('', (#232, #307, #346, #351, #356, #361, #366), #380);
#225 = PRESENTATION_STYLE_ASSIGNMENT((#226));
#226 = SURFACE_STYLE_USAGE(.POSITIVE., #227);
#227 = SURFACE_SIDE_STYLE('', (#228));
#228 = SURFACE_STYLE_FILL_AREA(#229);
#229 = FILL_AREA_STYLE('', (#230));
#230 = FILL_AREA_STYLE_COLOUR('', #231);
#231 = COLOUR_RGB('', 0.50196078431373, 0.50196078431373, 0.50196078431373);
#232 = STYLED_ITEM('', (#225), #1);
#233 = MANIFOLD_SOLID_BREP('CUT', #234);
#234 = CLOSED_SHELL('', (#235, #252, #291));
#235 = ADVANCED_FACE('', (#236), #247, .T.);
#236 = FACE_OUTER_BOUND('', #237, .T.);
#237 = EDGE_LOOP('', (#238));
#238 = ORIENTED_EDGE('', *, *, #239, .F.);
#239 = EDGE_CURVE('', #240, #240, #242, .T.);
#240 = VERTEX_POINT('', #241);
#241 = CARTESIAN_POINT('', (-0.5, 3.0310008278897E-15, -49.));
#242 = CIRCLE('', #243, 0.5);
#243 = AXIS2_PLACEMENT_3D('', #244, #245, #246);
#244 = CARTESIAN_POINT('', (7.63278329429795E-17, 2.77555756156289E-15, -49.));
#245 = DIRECTION('', (0., 0., -1.));
#246 = DIRECTION('', (-1., 5.10886532653617E-16, 0.));
#247 = B_SPLINE_SURFACE_WITH_KNOTS('', 1, 1, ((#248, #249), (#250, #251)), .UNSPECIFIED., .F., .F., .U., (2, 2), (2, 2), (0.480669448848914, 0.490633641203405), (0.509366358796595, 0.519330551151086), .UNSPECIFIED.);
#248 = CARTESIAN_POINT('', (-0.500000000000007, 0.500000000000007, -49.));
#249 = CARTESIAN_POINT('', (0.5, 0.500000000000007, -49.));
#250 = CARTESIAN_POINT('', (-0.500000000000007, -0.5, -49.));
#251 = CARTESIAN_POINT('', (0.5, -0.5, -49.));
#252 = ADVANCED_FACE('', (#253), #272, .T.);
#253 = FACE_OUTER_BOUND('', #254, .T.);
#254 = EDGE_LOOP('', (#255, #256, #264, #271));
#255 = ORIENTED_EDGE('', *, *, #239, .T.);
#256 = ORIENTED_EDGE('', *, *, #257, .T.);
#257 = EDGE_CURVE('', #240, #258, #260, .T.);
#258 = VERTEX_POINT('', #259);
#259 = CARTESIAN_POINT('', (-0.5, 3.09223316784707E-15, -50.));
#260 = LINE('', #261, #262);
#261 = CARTESIAN_POINT('', (-0.5, 3.0310008278897E-15, -49.));
#262 = VECTOR('', #263, 1.);
#263 = DIRECTION('', (0., 6.12323399573699E-17, -1.));
#264 = ORIENTED_EDGE('', *, *, #265, .F.);
#265 = EDGE_CURVE('', #258, #258, #266, .T.);
#266 = CIRCLE('', #267, 0.5);
#267 = AXIS2_PLACEMENT_3D('', #268, #269, #270);
#268 = CARTESIAN_POINT('', (3.64291929955129E-17, 2.83106871279415E-15, -50.));
#269 = DIRECTION('', (0., 0., -1.));
#270 = DIRECTION('', (-1., 5.22328910105842E-16, 0.));
#271 = ORIENTED_EDGE('', *, *, #257, .F.);
#272 = (
   BOUNDED_SURFACE ()
   B_SPLINE_SURFACE (2, 1, ((#273, #274), (#275, #276), (#277, #278), (#279, #280), (#281, #282), (#283, #284), (#285, #286), (#287, #288), (#289, #290)), .UNSPECIFIED., .T., .F., .U.)
   B_SPLINE_SURFACE_WITH_KNOTS ((3, 2, 2, 2, 3), (2, 2), (0., 0.785398163397448, 1.5707963267949, 2.35619449019234, 3.14159265358979), (0.5, 1.), .UNSPECIFIED.)
   GEOMETRIC_REPRESENTATION_ITEM ()
   RATIONAL_B_SPLINE_SURFACE (((1., 1.), (0.707106781186548, 0.707106781186548), (1., 1.), (0.707106781186548, 0.707106781186548), (1., 1.), (0.707106781186548, 0.707106781186548), (1., 1.), (0.707106781186548, 0.707106781186548), (1., 1.)))
   REPRESENTATION_ITEM ('')
   SURFACE ()
);
#273 = CARTESIAN_POINT('', (-0.5, 3.0310008278897E-15, -49.));
#274 = CARTESIAN_POINT('', (-0.5, 3.08651197912096E-15, -50.));
#275 = CARTESIAN_POINT('', (-0.5, 0.500000000000003, -49.));
#276 = CARTESIAN_POINT('', (-0.5, 0.500000000000003, -50.));
#277 = CARTESIAN_POINT('', (3.75748038758107E-16, 0.500000000000003, -49.));
#278 = CARTESIAN_POINT('', (3.75748038758107E-16, 0.500000000000003, -50.));
#279 = CARTESIAN_POINT('', (0.5, 0.500000000000003, -49.));
#280 = CARTESIAN_POINT('', (0.5, 0.500000000000003, -50.));
#281 = CARTESIAN_POINT('', (0.5, 2.58134663519345E-15, -49.));
#282 = CARTESIAN_POINT('', (0.5, 2.63685778642471E-15, -50.));
#283 = CARTESIAN_POINT('', (0.5, -0.499999999999997, -49.));
#284 = CARTESIAN_POINT('', (0.5, -0.499999999999997, -50.));
#285 = CARTESIAN_POINT('', (-1.2673813980775E-17, -0.499999999999997, -49.));
#286 = CARTESIAN_POINT('', (-1.2673813980775E-17, -0.499999999999997, -50.));
#287 = CARTESIAN_POINT('', (-0.5, -0.499999999999997, -49.));
#288 = CARTESIAN_POINT('', (-0.5, -0.499999999999997, -50.));
#289 = CARTESIAN_POINT('', (-0.5, 3.0310008278897E-15, -49.));
#290 = CARTESIAN_POINT('', (-0.5, 3.08651197912096E-15, -50.));
#291 = ADVANCED_FACE('', (#292), #295, .T.);
#292 = FACE_OUTER_BOUND('', #293, .T.);
#293 = EDGE_LOOP('', (#294));
#294 = ORIENTED_EDGE('', *, *, #265, .T.);
#295 = B_SPLINE_SURFACE_WITH_KNOTS('', 1, 1, ((#296, #297), (#298, #299)), .UNSPECIFIED., .F., .F., .U., (2, 2), (2, 2), (0.0454545454545455, 0.954545454545454), (0.0454545454545454, 0.954545454545454), .UNSPECIFIED.);
#296 = CARTESIAN_POINT('', (0.5, -0.499999999999997, -50.));
#297 = CARTESIAN_POINT('', (0.5, 0.500000000000003, -50.));
#298 = CARTESIAN_POINT('', (-0.5, -0.499999999999997, -50.));
#299 = CARTESIAN_POINT('', (-0.5, 0.500000000000003, -50.));
#300 = PRESENTATION_STYLE_ASSIGNMENT((#301));
#301 = SURFACE_STYLE_USAGE(.POSITIVE., #302);
#302 = SURFACE_SIDE_STYLE('', (#303));
#303 = SURFACE_STYLE_FILL_AREA(#304);
#304 = FILL_AREA_STYLE('', (#305));
#305 = FILL_AREA_STYLE_COLOUR('', #306);
#306 = COLOUR_RGB('', 0.8, 0.8, 0.8);
#307 = STYLED_ITEM('', (#300), #233);
#308 = TRIMMED_CURVE('cutting part line', #309, (#313), (#314), .T., .CARTESIAN.);
#309 = LINE('', #310, #311);
#310 = CARTESIAN_POINT('', (0.500038082010974, 0., -49.));
#311 = VECTOR('', #312, 0.500038082010974);
#312 = DIRECTION('', (-0.500038082010974, 0., 0.));
#313 = CARTESIAN_POINT('', (0.500038082010974, 0., -49.));
#314 = CARTESIAN_POINT('', (-1.73472347597681E-18, 0., -49.));
#315 = TRIMMED_CURVE('cutting part line', #316, (#320), (#321), .T., .CARTESIAN.);
#316 = LINE('', #317, #318);
#317 = CARTESIAN_POINT('', (0., 0., -49.));
#318 = VECTOR('', #319, 1.00000000000001);
#319 = DIRECTION('', (0., 0., -1.00000000000001));
#320 = CARTESIAN_POINT('', (0., 0., -49.));
#321 = CARTESIAN_POINT('', (0., 0., -50.));
#322 = TRIMMED_CURVE('cutting part line', #323, (#327), (#328), .T., .CARTESIAN.);
#323 = LINE('', #324, #325);
#324 = CARTESIAN_POINT('', (-1.73472347597681E-18, 0., -50.));
#325 = VECTOR('', #326, 0.500038082010977);
#326 = DIRECTION('', (0.500038082010977, 2.77513483070255E-17, 0.));
#327 = CARTESIAN_POINT('', (-1.73472347597681E-18, 0., -50.));
#328 = CARTESIAN_POINT('', (0.500038082010977, 2.77513483070255E-17, -50.));
#329 = TRIMMED_CURVE('cutting part line', #330, (#334), (#335), .T., .CARTESIAN.);
#330 = LINE('', #331, #332);
#331 = CARTESIAN_POINT('', (0.500038082010977, 2.77513483070255E-17, -50.));
#332 = VECTOR('', #333, 1.);
#333 = DIRECTION('', (-2.88657986402541E-15, -2.77513483070255E-17, 1.));
#334 = CARTESIAN_POINT('', (0.500038082010977, 2.77513483070255E-17, -50.));
#335 = CARTESIAN_POINT('', (0.500038082010974, 0., -49.));
#336 = COMPOSITE_CURVE('cutting part line', (#337, #338, #339, #340), .U.);
#337 = COMPOSITE_CURVE_SEGMENT(.CONTINUOUS., .T., #308);
#338 = COMPOSITE_CURVE_SEGMENT(.CONTINUOUS., .T., #315);
#339 = COMPOSITE_CURVE_SEGMENT(.CONTINUOUS., .T., #322);
#340 = COMPOSITE_CURVE_SEGMENT(.CONTINUOUS., .T., #329);
#341 = GEOMETRIC_SET('', (#336, #379));
#342 = PRESENTATION_STYLE_ASSIGNMENT((#343));
#343 = CURVE_STYLE('', #345, POSITIVE_LENGTH_MEASURE(1.E-6), #344);
#344 = COLOUR_RGB('', 0., 0., 1.);
#345 = DRAUGHTING_PRE_DEFINED_CURVE_FONT('continuous');
#346 = STYLED_ITEM('', (#342), #336);
#347 = PRESENTATION_STYLE_ASSIGNMENT((#348));
#348 = CURVE_STYLE('', #350, POSITIVE_LENGTH_MEASURE(1.E-6), #349);
#349 = COLOUR_RGB('', 0., 0., 1.);
#350 = DRAUGHTING_PRE_DEFINED_CURVE_FONT('continuous');
#351 = OVER_RIDING_STYLED_ITEM('', (#347), #308, #346);
#352 = PRESENTATION_STYLE_ASSIGNMENT((#353));
#353 = CURVE_STYLE('', #355, POSITIVE_LENGTH_MEASURE(1.E-6), #354);
#354 = COLOUR_RGB('', 0., 0., 1.);
#355 = DRAUGHTING_PRE_DEFINED_CURVE_FONT('continuous');
#356 = OVER_RIDING_STYLED_ITEM('', (#352), #315, #346);
#357 = PRESENTATION_STYLE_ASSIGNMENT((#358));
#358 = CURVE_STYLE('', #360, POSITIVE_LENGTH_MEASURE(1.E-6), #359);
#359 = COLOUR_RGB('', 0., 0., 1.);
#360 = DRAUGHTING_PRE_DEFINED_CURVE_FONT('continuous');
#361 = OVER_RIDING_STYLED_ITEM('', (#357), #322, #346);
#362 = PRESENTATION_STYLE_ASSIGNMENT((#363));
#363 = CURVE_STYLE('', #365, POSITIVE_LENGTH_MEASURE(1.E-6), #364);
#364 = COLOUR_RGB('', 0., 0., 1.);
#365 = DRAUGHTING_PRE_DEFINED_CURVE_FONT('continuous');
#366 = OVER_RIDING_STYLED_ITEM('', (#362), #329, #346);
#367 = AXIS2_PLACEMENT_3D('MCS', #368, #369, #370);
#368 = CARTESIAN_POINT('', (0., 0., -6.));
#369 = DIRECTION('', (0., 0., 1.));
#370 = DIRECTION('', (1., 0., 0.));
#371 = AXIS2_PLACEMENT_3D('PCS', #372, #373, #374);
#372 = CARTESIAN_POINT('', (0., 0., 0.));
#373 = DIRECTION('', (0., 0., 1.));
#374 = DIRECTION('', (1., 0., 0.));
#375 = AXIS2_PLACEMENT_3D('CIP', #376, #377, #378);
#376 = CARTESIAN_POINT('', (0., 0., -50.));
#377 = DIRECTION('', (0., 0., 1.));
#378 = DIRECTION('', (1., 0., 0.));
#379 = CARTESIAN_POINT('CRP', (0.500038082010977, 0., -50.));
#380 = (
   GEOMETRIC_REPRESENTATION_CONTEXT (3)
   GLOBAL_UNCERTAINTY_ASSIGNED_CONTEXT ((#382))
   GLOBAL_UNIT_ASSIGNED_CONTEXT ((#381, #383, #384))
   REPRESENTATION_CONTEXT ('', '3D')
);
#381 = (
   LENGTH_UNIT ()
   NAMED_UNIT (*)
   SI_UNIT (.MILLI., .METRE.)
);
#382 = UNCERTAINTY_MEASURE_WITH_UNIT(LENGTH_MEASURE(1.E-6), #381, 'DISTANCE_ACCURACY_VALUE', '');
#383 = (
   NAMED_UNIT (*)
   SI_UNIT ($, .STERADIAN.)
   SOLID_ANGLE_UNIT ()
);
#384 = (
   NAMED_UNIT (*)
   PLANE_ANGLE_UNIT ()
   SI_UNIT ($, .RADIAN.)
);
#385 = SHAPE_REPRESENTATION('', (), #380);
#386 = PRODUCT_DEFINITION_SHAPE('', '', #387);
#387 = PRODUCT_DEFINITION('', '', #390, #394);
#388 = APPLICATION_CONTEXT('configuration controlled 3D designs of mechanical parts and assemblies');
#389 = APPLICATION_PROTOCOL_DEFINITION('International Standard', 'automotive_design', 2002, #388);
#390 = PRODUCT_DEFINITION_FORMATION_WITH_SPECIFIED_SOURCE('', '', #391, .NOT_KNOWN.);
#391 = PRODUCT('product-name', '2P210-0100-NC       N20C', '', (#392));
#392 = PRODUCT_CONTEXT('', #388, 'mechanical');
#393 = PRODUCT_RELATED_PRODUCT_CATEGORY('detail', '', (#391));
#394 = PRODUCT_DEFINITION_CONTEXT('part definition', #388, 'design');
#395 = SHAPE_DEFINITION_REPRESENTATION(#386, #385);
#396 = CONSTRUCTIVE_GEOMETRY_REPRESENTATION('supplemental geometry', (#367, #371, #375), #380);
#397 = CONSTRUCTIVE_GEOMETRY_REPRESENTATION_RELATIONSHIP('', '', #385, #396);
#398 = SHAPE_REPRESENTATION_RELATIONSHIP('', '', #385, #399);
#399 = SHAPE_REPRESENTATION('', (#341), #380);
#400 = SHAPE_REPRESENTATION_RELATIONSHIP('', '', #385, #401);
#401 = ADVANCED_BREP_SHAPE_REPRESENTATION('', (#1, #233), #380);
ENDSEC;
END-ISO-10303-21;
