ISO-10303-21;
HEADER;
FILE_DESCRIPTION(('STEP'), '1');
FILE_NAME('C:\\Users\\ds2002\\OneDrive - Sandvik\\HomeShare\\Documents\\Batchrepair\\CorSRT2\\NEW_MILSQ_SLD\\Output\\MOD000000000000000020082310500000.stp', '2019-01-02T12:11:45', (''), (''), 'Express v3.0.0.0', 'Express Tool', 'Unknown');
FILE_SCHEMA(('AUTOMOTIVE_DESIGN'));
ENDSEC;

DATA;
#1 = MANIFOLD_SOLID_BREP('NOCUT', #2);
#2 = CLOSED_SHELL('', (#3, #50, #89, #98, #137));
#3 = ADVANCED_FACE('', (#4), #31, .T.);
#4 = FACE_OUTER_BOUND('', #5, .T.);
#5 = EDGE_LOOP('', (#6, #16, #23, #24));
#6 = ORIENTED_EDGE('', *, *, #7, .T.);
#7 = EDGE_CURVE('', #8, #10, #12, .T.);
#8 = VERTEX_POINT('', #9);
#9 = CARTESIAN_POINT('', (-4.5, 2.72483912810286E-15, -40.));
#10 = VERTEX_POINT('', #11);
#11 = CARTESIAN_POINT('', (-4.5, 3.0310008278897E-16, -0.450000000000003));
#12 = LINE('', #13, #14);
#13 = CARTESIAN_POINT('', (-4.5, 2.72483912810286E-15, -40.));
#14 = VECTOR('', #15, 39.55);
#15 = DIRECTION('', (0., -2.42173904531389E-15, 39.55));
#16 = ORIENTED_EDGE('', *, *, #17, .T.);
#17 = EDGE_CURVE('', #10, #10, #18, .T.);
#18 = CIRCLE('', #19, 4.5);
#19 = AXIS2_PLACEMENT_3D('', #20, #21, #22);
#20 = CARTESIAN_POINT('', (1.47104550762833E-15, -4.44089209850063E-16, -0.450000000000003));
#21 = DIRECTION('', (-1.2335811384724E-17, 4.01322996111201E-17, -1.));
#22 = DIRECTION('', (-1., 1.66042065030896E-16, 1.2335811384724E-17));
#23 = ORIENTED_EDGE('', *, *, #7, .F.);
#24 = ORIENTED_EDGE('', *, *, #25, .F.);
#25 = EDGE_CURVE('', #8, #8, #26, .T.);
#26 = CIRCLE('', #27, 4.5);
#27 = AXIS2_PLACEMENT_3D('', #28, #29, #30);
#28 = CARTESIAN_POINT('', (1.27675647831893E-15, 2.22044604925031E-15, -40.));
#29 = DIRECTION('', (-1.57898385724467E-15, 5.13693435022355E-15, -1.));
#30 = DIRECTION('', (-1., 1.12087350856121E-16, 1.57898385724467E-15));
#31 = (
   BOUNDED_SURFACE ()
   B_SPLINE_SURFACE (1, 2, ((#32, #33, #34, #35, #36, #37, #38, #39, #40), (#41, #42, #43, #44, #45, #46, #47, #48, #49)), .UNSPECIFIED., .F., .T., .U.)
   B_SPLINE_SURFACE_WITH_KNOTS ((2, 2), (3, 2, 2, 2, 3), (0., 1.), (0., 7.06858347057703, 14.1371669411541, 21.2057504117311, 28.2743338823081), .UNSPECIFIED.)
   GEOMETRIC_REPRESENTATION_ITEM ()
   RATIONAL_B_SPLINE_SURFACE (((1., 0.707106781186548, 1., 0.707106781186548, 1., 0.707106781186548, 1., 0.707106781186548, 1.), (1., 0.707106781186548, 1., 0.707106781186548, 1., 0.707106781186548, 1., 0.707106781186548, 1.)))
   REPRESENTATION_ITEM ('')
   SURFACE ()
);
#32 = CARTESIAN_POINT('', (-4.5, 2.19047922465174E-15, -40.));
#33 = CARTESIAN_POINT('', (-4.5, 4.5, -40.));
#34 = CARTESIAN_POINT('', (1.45480793019338E-15, 4.5, -40.));
#35 = CARTESIAN_POINT('', (4.5, 4.5, -40.));
#36 = CARTESIAN_POINT('', (4.5, 1.24719169898998E-15, -40.));
#37 = CARTESIAN_POINT('', (4.5, -4.5, -40.));
#38 = CARTESIAN_POINT('', (1.06261146414793E-15, -4.5, -40.));
#39 = CARTESIAN_POINT('', (-4.5, -4.5, -40.));
#40 = CARTESIAN_POINT('', (-4.5, 2.19047922465174E-15, -40.));
#41 = CARTESIAN_POINT('', (-4.5, 3.0310008278897E-16, -0.450000000000003));
#42 = CARTESIAN_POINT('', (-4.5, 4.5, -0.450000000000003));
#43 = CARTESIAN_POINT('', (1.94268927045921E-15, 4.5, -0.450000000000003));
#44 = CARTESIAN_POINT('', (4.5, 4.5, -0.450000000000003));
#45 = CARTESIAN_POINT('', (4.5, -6.40187442872786E-16, -0.450000000000003));
#46 = CARTESIAN_POINT('', (4.5, -4.5, -0.450000000000003));
#47 = CARTESIAN_POINT('', (1.55049280441376E-15, -4.5, -0.450000000000003));
#48 = CARTESIAN_POINT('', (-4.5, -4.5, -0.450000000000003));
#49 = CARTESIAN_POINT('', (-4.5, 3.0310008278897E-16, -0.450000000000003));
#50 = ADVANCED_FACE('', (#51), #70, .T.);
#51 = FACE_OUTER_BOUND('', #52, .T.);
#52 = EDGE_LOOP('', (#53, #61, #68, #69));
#53 = ORIENTED_EDGE('', *, *, #54, .T.);
#54 = EDGE_CURVE('', #10, #55, #57, .T.);
#55 = VERTEX_POINT('', #56);
#56 = CARTESIAN_POINT('', (-4.05, 2.47990976827339E-16, 0.));
#57 = LINE('', #58, #59);
#58 = CARTESIAN_POINT('', (-4.5, 3.0310008278897E-16, -0.450000000000003));
#59 = VECTOR('', #60, 0.636396103067895);
#60 = DIRECTION('', (0.45, -5.5109105961631E-17, 0.450000000000003));
#61 = ORIENTED_EDGE('', *, *, #62, .T.);
#62 = EDGE_CURVE('', #55, #55, #63, .T.);
#63 = CIRCLE('', #64, 4.05);
#64 = AXIS2_PLACEMENT_3D('', #65, #66, #67);
#65 = CARTESIAN_POINT('', (1.2490009027033E-15, 1.11022302462516E-16, 1.23259516440783E-32));
#66 = DIRECTION('', (5.11428742624571E-33, 6.12323399573676E-17, -1.));
#67 = DIRECTION('', (-1., 3.38194257690922E-17, -3.0434448503897E-33));
#68 = ORIENTED_EDGE('', *, *, #54, .F.);
#69 = ORIENTED_EDGE('', *, *, #17, .F.);
#70 = (
   BOUNDED_SURFACE ()
   B_SPLINE_SURFACE (1, 2, ((#71, #72, #73, #74, #75, #76, #77, #78, #79), (#80, #81, #82, #83, #84, #85, #86, #87, #88)), .UNSPECIFIED., .F., .T., .U.)
   B_SPLINE_SURFACE_WITH_KNOTS ((2, 2), (3, 2, 2, 2, 3), (0., 1.), (0., 0.25, 0.5, 0.75, 1.), .UNSPECIFIED.)
   GEOMETRIC_REPRESENTATION_ITEM ()
   RATIONAL_B_SPLINE_SURFACE (((1., 0.707106781186548, 1., 0.707106781186548, 1., 0.707106781186548, 1., 0.707106781186548, 1.), (1., 0.707106781186548, 1., 0.707106781186548, 1., 0.707106781186548, 1., 0.707106781186548, 1.)))
   REPRESENTATION_ITEM ('')
   SURFACE ()
);
#71 = CARTESIAN_POINT('', (-4.5, 2.6320971842343E-16, -0.450000000000003));
#72 = CARTESIAN_POINT('', (-4.5, 4.5, -0.450000000000003));
#73 = CARTESIAN_POINT('', (1.12564278885606E-15, 4.5, -0.450000000000003));
#74 = CARTESIAN_POINT('', (4.5, 4.5, -0.450000000000003));
#75 = CARTESIAN_POINT('', (4.5, 5.0992594611791E-16, -0.450000000000003));
#76 = CARTESIAN_POINT('', (4.5, -4.5, -0.450000000000003));
#77 = CARTESIAN_POINT('', (1.92345007616685E-15, -4.5, -0.450000000000003));
#78 = CARTESIAN_POINT('', (-4.5, -4.5, -0.450000000000003));
#79 = CARTESIAN_POINT('', (-4.5, 2.6320971842343E-16, -0.450000000000003));
#80 = CARTESIAN_POINT('', (-4.05, 2.47990976827339E-16, 1.50530108472392E-47));
#81 = CARTESIAN_POINT('', (-4.05, 4.05, 3.16803699858773E-31));
#82 = CARTESIAN_POINT('', (1.13797860024079E-15, 4.05, 3.29129651502852E-31));
#83 = CARTESIAN_POINT('', (4.05, 4.05, 3.4145560314693E-31));
#84 = CARTESIAN_POINT('', (4.05, 4.7003558175237E-16, 2.46519032881566E-32));
#85 = CARTESIAN_POINT('', (4.05, -4.05, -2.92151796570617E-31));
#86 = CARTESIAN_POINT('', (1.85600515882049E-15, -4.05, -3.04477748214695E-31));
#87 = CARTESIAN_POINT('', (-4.05, -4.05, -3.16803699858774E-31));
#88 = CARTESIAN_POINT('', (-4.05, 2.47990976827339E-16, 1.50530108472392E-47));
#89 = ADVANCED_FACE('', (#90), #93, .T.);
#90 = FACE_OUTER_BOUND('', #91, .T.);
#91 = EDGE_LOOP('', (#92));
#92 = ORIENTED_EDGE('', *, *, #62, .F.);
#93 = B_SPLINE_SURFACE_WITH_KNOTS('', 1, 1, ((#94, #95), (#96, #97)), .UNSPECIFIED., .F., .F., .U., (2, 2), (2, 2), (0.0454545454545454, 0.954545454545455), (0.0454545454545454, 0.954545454545454), .UNSPECIFIED.);
#94 = CARTESIAN_POINT('', (4.05, -4.05, -2.47990976827339E-16));
#95 = CARTESIAN_POINT('', (-4.05, -4.05, -2.47990976827339E-16));
#96 = CARTESIAN_POINT('', (4.05, 4.05, 2.47990976827339E-16));
#97 = CARTESIAN_POINT('', (-4.05, 4.05, 2.47990976827339E-16));
#98 = ADVANCED_FACE('', (#99), #118, .T.);
#99 = FACE_OUTER_BOUND('', #100, .T.);
#100 = EDGE_LOOP('', (#101, #110, #116, #117));
#101 = ORIENTED_EDGE('', *, *, #102, .F.);
#102 = EDGE_CURVE('', #103, #103, #105, .T.);
#103 = VERTEX_POINT('', #104);
#104 = CARTESIAN_POINT('', (-4.5, 3.45962720759127E-15, -52.));
#105 = CIRCLE('', #106, 4.5);
#106 = AXIS2_PLACEMENT_3D('', #107, #108, #109);
#107 = CARTESIAN_POINT('', (1.09634523681734E-15, 1.22124532708767E-15, -52.));
#108 = DIRECTION('', (0., 0., -1.));
#109 = DIRECTION('', (-1., 4.97418195667466E-16, 0.));
#110 = ORIENTED_EDGE('', *, *, #111, .F.);
#111 = EDGE_CURVE('', #8, #103, #112, .T.);
#112 = LINE('', #113, #114);
#113 = CARTESIAN_POINT('', (-4.5, 2.72483912810286E-15, -40.));
#114 = VECTOR('', #115, 12.);
#115 = DIRECTION('', (0., 7.3478807948841E-16, -12.));
#116 = ORIENTED_EDGE('', *, *, #25, .T.);
#117 = ORIENTED_EDGE('', *, *, #111, .T.);
#118 = (
   BOUNDED_SURFACE ()
   B_SPLINE_SURFACE (2, 1, ((#119, #120), (#121, #122), (#123, #124), (#125, #126), (#127, #128), (#129, #130), (#131, #132), (#133, #134), (#135, #136)), .UNSPECIFIED., .T., .F., .U.)
   B_SPLINE_SURFACE_WITH_KNOTS ((3, 2, 2, 2, 3), (2, 2), (0., 7.06858347057703, 14.1371669411541, 21.2057504117311, 28.2743338823081), (0., 0.250783699059561), .UNSPECIFIED.)
   GEOMETRIC_REPRESENTATION_ITEM ()
   RATIONAL_B_SPLINE_SURFACE (((1., 1.), (0.707106781186548, 0.707106781186548), (1., 1.), (0.707106781186548, 0.707106781186548), (1., 1.), (0.707106781186548, 0.707106781186548), (1., 1.), (0.707106781186548, 0.707106781186548), (1., 1.)))
   REPRESENTATION_ITEM ('')
   SURFACE ()
);
#119 = CARTESIAN_POINT('', (-4.5, 2.72483912810286E-15, -40.));
#120 = CARTESIAN_POINT('', (-4.5, 9.48482288702609E-16, -52.));
#121 = CARTESIAN_POINT('', (-4.5, 4.5, -40.));
#122 = CARTESIAN_POINT('', (-4.5, 4.5, -52.));
#123 = CARTESIAN_POINT('', (1.53335960297895E-15, 4.5, -40.));
#124 = CARTESIAN_POINT('', (1.53335960297895E-15, 4.5, -52.));
#125 = CARTESIAN_POINT('', (4.5, 4.5, -40.));
#126 = CARTESIAN_POINT('', (4.5, 4.5, -52.));
#127 = CARTESIAN_POINT('', (4.5, 7.12831795538857E-16, -40.));
#128 = CARTESIAN_POINT('', (4.5, -1.06352504386139E-15, -52.));
#129 = CARTESIAN_POINT('', (4.5, -4.5, -40.));
#130 = CARTESIAN_POINT('', (4.5, -4.5, -52.));
#131 = CARTESIAN_POINT('', (7.24433300312569E-17, -4.5, -40.));
#132 = CARTESIAN_POINT('', (7.24433300312563E-17, -4.5, -52.));
#133 = CARTESIAN_POINT('', (-4.5, -4.5, -40.));
#134 = CARTESIAN_POINT('', (-4.5, -4.5, -52.));
#135 = CARTESIAN_POINT('', (-4.5, 2.72483912810286E-15, -40.));
#136 = CARTESIAN_POINT('', (-4.5, 9.48482288702609E-16, -52.));
#137 = ADVANCED_FACE('', (#138), #141, .T.);
#138 = FACE_OUTER_BOUND('', #139, .T.);
#139 = EDGE_LOOP('', (#140));
#140 = ORIENTED_EDGE('', *, *, #102, .T.);
#141 = B_SPLINE_SURFACE_WITH_KNOTS('', 1, 1, ((#142, #143), (#144, #145)), .UNSPECIFIED., .F., .F., .U., (2, 2), (2, 2), (0.479296018277588, 0.5299057558641), (0.4700942441359, 0.520703981722412), .UNSPECIFIED.);
#142 = CARTESIAN_POINT('', (-4.50000000000001, 4.50000000000003, -52.));
#143 = CARTESIAN_POINT('', (-4.50000000000001, -4.49999999999997, -52.));
#144 = CARTESIAN_POINT('', (4.49999999999996, 4.50000000000003, -52.));
#145 = CARTESIAN_POINT('', (4.49999999999996, -4.49999999999997, -52.));
#146 = DRAUGHTING_MODEL('', (#154, #278, #326, #331, #336, #341, #346, #351), #365);
#147 = PRESENTATION_STYLE_ASSIGNMENT((#148));
#148 = SURFACE_STYLE_USAGE(.POSITIVE., #149);
#149 = SURFACE_SIDE_STYLE('', (#150));
#150 = SURFACE_STYLE_FILL_AREA(#151);
#151 = FILL_AREA_STYLE('', (#152));
#152 = FILL_AREA_STYLE_COLOUR('', #153);
#153 = COLOUR_RGB('', 0.50196078431373, 0.50196078431373, 0.50196078431373);
#154 = STYLED_ITEM('', (#147), #1);
#155 = MANIFOLD_SOLID_BREP('CUT', #156);
#156 = CLOSED_SHELL('', (#157, #174, #213, #262));
#157 = ADVANCED_FACE('', (#158), #169, .T.);
#158 = FACE_OUTER_BOUND('', #159, .T.);
#159 = EDGE_LOOP('', (#160));
#160 = ORIENTED_EDGE('', *, *, #161, .F.);
#161 = EDGE_CURVE('', #162, #162, #164, .T.);
#162 = VERTEX_POINT('', #163);
#163 = CARTESIAN_POINT('', (-4.5, 3.45962720759127E-15, -52.));
#164 = CIRCLE('', #165, 4.5);
#165 = AXIS2_PLACEMENT_3D('', #166, #167, #168);
#166 = CARTESIAN_POINT('', (1.09634523681734E-15, 1.22124532708767E-15, -52.));
#167 = DIRECTION('', (0., 0., -1.));
#168 = DIRECTION('', (-1., 4.97418195667466E-16, 0.));
#169 = B_SPLINE_SURFACE_WITH_KNOTS('', 1, 1, ((#170, #171), (#172, #173)), .UNSPECIFIED., .F., .F., .U., (2, 2), (2, 2), (0.4700942441359, 0.520703981722412), (0.479296018277588, 0.5299057558641), .UNSPECIFIED.);
#170 = CARTESIAN_POINT('', (-4.5, 4.5, -52.));
#171 = CARTESIAN_POINT('', (4.5, 4.5, -52.));
#172 = CARTESIAN_POINT('', (-4.5, -4.5, -52.));
#173 = CARTESIAN_POINT('', (4.5, -4.5, -52.));
#174 = ADVANCED_FACE('', (#175), #194, .T.);
#175 = FACE_OUTER_BOUND('', #176, .T.);
#176 = EDGE_LOOP('', (#177, #178, #186, #193));
#177 = ORIENTED_EDGE('', *, *, #161, .T.);
#178 = ORIENTED_EDGE('', *, *, #179, .T.);
#179 = EDGE_CURVE('', #162, #180, #182, .T.);
#180 = VERTEX_POINT('', #181);
#181 = CARTESIAN_POINT('', (-4.5, 5.6548065950629E-15, -87.85));
#182 = LINE('', #183, #184);
#183 = CARTESIAN_POINT('', (-4.5, 3.45962720759127E-15, -52.));
#184 = VECTOR('', #185, 35.85);
#185 = DIRECTION('', (0., 2.19517938747163E-15, -35.85));
#186 = ORIENTED_EDGE('', *, *, #187, .F.);
#187 = EDGE_CURVE('', #180, #180, #188, .T.);
#188 = CIRCLE('', #189, 4.5);
#189 = AXIS2_PLACEMENT_3D('', #190, #191, #192);
#190 = CARTESIAN_POINT('', (1.52655665885959E-15, 5.44009282066327E-15, -87.85));
#191 = DIRECTION('', (0., 0., -1.));
#192 = DIRECTION('', (-1., 4.77141720888072E-17, 0.));
#193 = ORIENTED_EDGE('', *, *, #179, .F.);
#194 = (
   BOUNDED_SURFACE ()
   B_SPLINE_SURFACE (2, 1, ((#195, #196), (#197, #198), (#199, #200), (#201, #202), (#203, #204), (#205, #206), (#207, #208), (#209, #210), (#211, #212)), .UNSPECIFIED., .T., .F., .U.)
   B_SPLINE_SURFACE_WITH_KNOTS ((3, 2, 2, 2, 3), (2, 2), (0., 7.06858347057703, 14.1371669411541, 21.2057504117311, 28.2743338823081), (0.250783699059561, 1.), .UNSPECIFIED.)
   GEOMETRIC_REPRESENTATION_ITEM ()
   RATIONAL_B_SPLINE_SURFACE (((1., 1.), (0.707106781186548, 0.707106781186548), (1., 1.), (0.707106781186548, 0.707106781186548), (1., 1.), (0.707106781186548, 0.707106781186548), (1., 1.), (0.707106781186548, 0.707106781186548), (1., 1.)))
   REPRESENTATION_ITEM ('')
   SURFACE ()
);
#195 = CARTESIAN_POINT('', (-4.5, 3.45962720759127E-15, -52.));
#196 = CARTESIAN_POINT('', (-4.5, 9.23278693564208E-15, -87.85));
#197 = CARTESIAN_POINT('', (-4.5, 4.5, -52.));
#198 = CARTESIAN_POINT('', (-4.5, 4.50000000000001, -87.85));
#199 = CARTESIAN_POINT('', (4.33593806583171E-15, 4.5, -52.));
#200 = CARTESIAN_POINT('', (4.33593806583172E-15, 4.50000000000001, -87.85));
#201 = CARTESIAN_POINT('', (4.5, 4.5, -52.));
#202 = CARTESIAN_POINT('', (4.5, 4.5, -87.85));
#203 = CARTESIAN_POINT('', (4.5, -3.57466996275005E-15, -52.));
#204 = CARTESIAN_POINT('', (4.5, 2.19848976530076E-15, -87.85));
#205 = CARTESIAN_POINT('', (4.5, -4.5, -52.));
#206 = CARTESIAN_POINT('', (4.5, -4.5, -87.85));
#207 = CARTESIAN_POINT('', (-2.1472680448933E-15, -4.5, -52.));
#208 = CARTESIAN_POINT('', (-2.14726804489329E-15, -4.49999999999999, -87.85));
#209 = CARTESIAN_POINT('', (-4.5, -4.5, -52.));
#210 = CARTESIAN_POINT('', (-4.5, -4.49999999999999, -87.85));
#211 = CARTESIAN_POINT('', (-4.5, 3.45962720759127E-15, -52.));
#212 = CARTESIAN_POINT('', (-4.5, 9.23278693564208E-15, -87.85));
#213 = ADVANCED_FACE('', (#214), #234, .T.);
#214 = FACE_OUTER_BOUND('', #215, .T.);
#215 = EDGE_LOOP('', (#216, #225, #226, #227));
#216 = ORIENTED_EDGE('', *, *, #217, .F.);
#217 = EDGE_CURVE('', #180, #218, #220, .T.);
#218 = VERTEX_POINT('', #219);
#219 = CARTESIAN_POINT('', (-4.35, 5.6548065950629E-15, -88.));
#220 = CIRCLE('', #221, 0.15000000000004);
#221 = AXIS2_PLACEMENT_3D('', #222, #223, #224);
#222 = CARTESIAN_POINT('', (-4.34999999999996, 5.64562174406928E-15, -87.85));
#223 = DIRECTION('', (-6.1232339957423E-17, -1., -6.12323399574172E-17));
#224 = DIRECTION('', (-1., 6.12323399574346E-17, -1.89478062869314E-13));
#225 = ORIENTED_EDGE('', *, *, #187, .T.);
#226 = ORIENTED_EDGE('', *, *, #217, .T.);
#227 = ORIENTED_EDGE('', *, *, #228, .F.);
#228 = EDGE_CURVE('', #218, #218, #229, .T.);
#229 = CIRCLE('', #230, 4.35);
#230 = AXIS2_PLACEMENT_3D('', #231, #232, #233);
#231 = CARTESIAN_POINT('', (2.63677968348475E-16, 1.88737914186277E-15, -88.));
#232 = DIRECTION('', (0., 0., -1.));
#233 = DIRECTION('', (-1., 8.66075276597732E-16, 0.));
#234 = (
   BOUNDED_SURFACE ()
   B_SPLINE_SURFACE (2, 2, ((#235, #236, #237), (#238, #239, #240), (#241, #242, #243), (#244, #245, #246), (#247, #248, #249), (#250, #251, #252), (#253, #254, #255), (#256, #257, #258), (#259, #260, #261)), .UNSPECIFIED., .T., .F., .U.)
   B_SPLINE_SURFACE_WITH_KNOTS ((3, 2, 2, 2, 3), (3, 3), (0., 0.25, 0.5, 0.75, 1.), (0., 1.), .UNSPECIFIED.)
   GEOMETRIC_REPRESENTATION_ITEM ()
   RATIONAL_B_SPLINE_SURFACE (((1., 0.707106781186562, 1.), (0.707106781186548, 0.50000000000001, 0.707106781186548), (1., 0.707106781186562, 1.), (0.707106781186548, 0.50000000000001, 0.707106781186548), (1., 0.707106781186562, 1.), (0.707106781186548, 0.50000000000001, 0.707106781186548), (1., 0.707106781186562, 1.), (0.707106781186548, 0.50000000000001, 0.707106781186548), (1., 0.707106781186562, 1.)))
   REPRESENTATION_ITEM ('')
   SURFACE ()
);
#235 = CARTESIAN_POINT('', (-4.5, 5.6548065950629E-15, -87.85));
#236 = CARTESIAN_POINT('', (-4.49999999999999, 5.66399144605651E-15, -88.));
#237 = CARTESIAN_POINT('', (-4.35, 5.6548065950629E-15, -88.));
#238 = CARTESIAN_POINT('', (-4.5, 4.50000000000001, -87.85));
#239 = CARTESIAN_POINT('', (-4.49999999999999, 4.5, -88.));
#240 = CARTESIAN_POINT('', (-4.35, 4.35000000000001, -88.));
#241 = CARTESIAN_POINT('', (2.02846212939953E-16, 4.50000000000001, -87.85));
#242 = CARTESIAN_POINT('', (2.12031063933564E-16, 4.5, -88.));
#243 = CARTESIAN_POINT('', (2.12031063933558E-16, 4.35000000000001, -88.));
#244 = CARTESIAN_POINT('', (4.5, 4.50000000000001, -87.85));
#245 = CARTESIAN_POINT('', (4.49999999999999, 4.5, -88.));
#246 = CARTESIAN_POINT('', (4.35, 4.35000000000001, -88.));
#247 = CARTESIAN_POINT('', (4.5, 6.44260392065504E-15, -87.85));
#248 = CARTESIAN_POINT('', (4.49999999999999, 6.43341906966143E-15, -88.));
#249 = CARTESIAN_POINT('', (4.35, 6.42423421866783E-15, -88.));
#250 = CARTESIAN_POINT('', (4.5, -4.49999999999999, -87.85));
#251 = CARTESIAN_POINT('', (4.49999999999999, -4.49999999999998, -88.));
#252 = CARTESIAN_POINT('', (4.35, -4.34999999999999, -88.));
#253 = CARTESIAN_POINT('', (1.5417345981484E-15, -4.49999999999999, -87.85));
#254 = CARTESIAN_POINT('', (1.53254974715479E-15, -4.49999999999999, -88.));
#255 = CARTESIAN_POINT('', (1.51418004516758E-15, -4.34999999999999, -88.));
#256 = CARTESIAN_POINT('', (-4.5, -4.5, -87.85));
#257 = CARTESIAN_POINT('', (-4.49999999999999, -4.49999999999999, -88.));
#258 = CARTESIAN_POINT('', (-4.35, -4.35, -88.));
#259 = CARTESIAN_POINT('', (-4.5, 5.6548065950629E-15, -87.85));
#260 = CARTESIAN_POINT('', (-4.49999999999999, 5.66399144605651E-15, -88.));
#261 = CARTESIAN_POINT('', (-4.35, 5.6548065950629E-15, -88.));
#262 = ADVANCED_FACE('', (#263), #266, .T.);
#263 = FACE_OUTER_BOUND('', #264, .T.);
#264 = EDGE_LOOP('', (#265));
#265 = ORIENTED_EDGE('', *, *, #228, .T.);
#266 = B_SPLINE_SURFACE_WITH_KNOTS('', 1, 1, ((#267, #268), (#269, #270)), .UNSPECIFIED., .F., .F., .U., (2, 2), (2, 2), (0.0454545454545454, 0.954545454545454), (0.0454545454545454, 0.954545454545454), .UNSPECIFIED.);
#267 = CARTESIAN_POINT('', (4.35, -4.35, -88.));
#268 = CARTESIAN_POINT('', (4.35, 4.35000000000001, -88.));
#269 = CARTESIAN_POINT('', (-4.35, -4.35, -88.));
#270 = CARTESIAN_POINT('', (-4.35, 4.35000000000001, -88.));
#271 = PRESENTATION_STYLE_ASSIGNMENT((#272));
#272 = SURFACE_STYLE_USAGE(.POSITIVE., #273);
#273 = SURFACE_SIDE_STYLE('', (#274));
#274 = SURFACE_STYLE_FILL_AREA(#275);
#275 = FILL_AREA_STYLE('', (#276));
#276 = FILL_AREA_STYLE_COLOUR('', #277);
#277 = COLOUR_RGB('', 0.8, 0.8, 0.8);
#278 = STYLED_ITEM('', (#271), #155);
#279 = TRIMMED_CURVE('cutting part line', #280, (#284), (#285), .T., .CARTESIAN.);
#280 = LINE('', #281, #282);
#281 = CARTESIAN_POINT('', (2.63677968348475E-16, 0., -88.));
#282 = VECTOR('', #283, 4.35);
#283 = DIRECTION('', (4.35, 0., 0.));
#284 = CARTESIAN_POINT('', (2.63677968348475E-16, 0., -88.));
#285 = CARTESIAN_POINT('', (4.35, 0., -88.));
#286 = TRIMMED_CURVE('cutting part line', #287, (#292), (#293), .T., .CARTESIAN.);
#287 = CIRCLE('', #288, 0.14999999999999);
#288 = AXIS2_PLACEMENT_3D('', #289, #290, #291);
#289 = CARTESIAN_POINT('', (4.35, 5.39411702335321E-15, -87.85));
#290 = DIRECTION('', (-3.70074341541746E-16, -1., 1.85037170770903E-16));
#291 = DIRECTION('', (-1.77635683940035E-14, -1.85037170770896E-16, -1.));
#292 = CARTESIAN_POINT('', (4.35, 5.36636144773758E-15, -88.));
#293 = CARTESIAN_POINT('', (4.49999999999999, 5.33860587212196E-15, -87.85));
#294 = TRIMMED_CURVE('cutting part line', #295, (#299), (#300), .T., .CARTESIAN.);
#295 = LINE('', #296, #297);
#296 = CARTESIAN_POINT('', (4.5, 5.77228044786131E-15, -87.85));
#297 = VECTOR('', #298, 35.85);
#298 = DIRECTION('', (0., -5.77228044786131E-15, 35.85));
#299 = CARTESIAN_POINT('', (4.5, 5.77228044786131E-15, -87.85));
#300 = CARTESIAN_POINT('', (4.5, 0., -52.));
#301 = TRIMMED_CURVE('cutting part line', #302, (#306), (#307), .T., .CARTESIAN.);
#302 = LINE('', #303, #304);
#303 = CARTESIAN_POINT('', (4.5, 0., -52.));
#304 = VECTOR('', #305, 4.5);
#305 = DIRECTION('', (-4.5, 0., 0.));
#306 = CARTESIAN_POINT('', (4.5, 0., -52.));
#307 = CARTESIAN_POINT('', (0., 0., -52.));
#308 = TRIMMED_CURVE('cutting part line', #309, (#313), (#314), .T., .CARTESIAN.);
#309 = LINE('', #310, #311);
#310 = CARTESIAN_POINT('', (0., 0., -52.));
#311 = VECTOR('', #312, 36.);
#312 = DIRECTION('', (0., 0., -36.));
#313 = CARTESIAN_POINT('', (0., 0., -52.));
#314 = CARTESIAN_POINT('', (0., 0., -88.));
#315 = COMPOSITE_CURVE('cutting part line', (#316, #317, #318, #319, #320), .U.);
#316 = COMPOSITE_CURVE_SEGMENT(.CONTINUOUS., .T., #279);
#317 = COMPOSITE_CURVE_SEGMENT(.CONTINUOUS., .T., #286);
#318 = COMPOSITE_CURVE_SEGMENT(.CONTINUOUS., .T., #294);
#319 = COMPOSITE_CURVE_SEGMENT(.CONTINUOUS., .T., #301);
#320 = COMPOSITE_CURVE_SEGMENT(.CONTINUOUS., .T., #308);
#321 = GEOMETRIC_SET('', (#315, #364));
#322 = PRESENTATION_STYLE_ASSIGNMENT((#323));
#323 = CURVE_STYLE('', #325, POSITIVE_LENGTH_MEASURE(1.E-6), #324);
#324 = COLOUR_RGB('', 0., 0., 1.);
#325 = DRAUGHTING_PRE_DEFINED_CURVE_FONT('continuous');
#326 = STYLED_ITEM('', (#322), #315);
#327 = PRESENTATION_STYLE_ASSIGNMENT((#328));
#328 = CURVE_STYLE('', #330, POSITIVE_LENGTH_MEASURE(1.E-6), #329);
#329 = COLOUR_RGB('', 0., 0., 1.);
#330 = DRAUGHTING_PRE_DEFINED_CURVE_FONT('continuous');
#331 = OVER_RIDING_STYLED_ITEM('', (#327), #279, #326);
#332 = PRESENTATION_STYLE_ASSIGNMENT((#333));
#333 = CURVE_STYLE('', #335, POSITIVE_LENGTH_MEASURE(1.E-6), #334);
#334 = COLOUR_RGB('', 0., 0., 1.);
#335 = DRAUGHTING_PRE_DEFINED_CURVE_FONT('continuous');
#336 = OVER_RIDING_STYLED_ITEM('', (#332), #286, #326);
#337 = PRESENTATION_STYLE_ASSIGNMENT((#338));
#338 = CURVE_STYLE('', #340, POSITIVE_LENGTH_MEASURE(1.E-6), #339);
#339 = COLOUR_RGB('', 0., 0., 1.);
#340 = DRAUGHTING_PRE_DEFINED_CURVE_FONT('continuous');
#341 = OVER_RIDING_STYLED_ITEM('', (#337), #294, #326);
#342 = PRESENTATION_STYLE_ASSIGNMENT((#343));
#343 = CURVE_STYLE('', #345, POSITIVE_LENGTH_MEASURE(1.E-6), #344);
#344 = COLOUR_RGB('', 0., 0., 1.);
#345 = DRAUGHTING_PRE_DEFINED_CURVE_FONT('continuous');
#346 = OVER_RIDING_STYLED_ITEM('', (#342), #301, #326);
#347 = PRESENTATION_STYLE_ASSIGNMENT((#348));
#348 = CURVE_STYLE('', #350, POSITIVE_LENGTH_MEASURE(1.E-6), #349);
#349 = COLOUR_RGB('', 0., 0., 1.);
#350 = DRAUGHTING_PRE_DEFINED_CURVE_FONT('continuous');
#351 = OVER_RIDING_STYLED_ITEM('', (#347), #308, #326);
#352 = AXIS2_PLACEMENT_3D('MCS', #353, #354, #355);
#353 = CARTESIAN_POINT('', (0., 0., -36.));
#354 = DIRECTION('', (0., 0., 1.));
#355 = DIRECTION('', (1., 0., 0.));
#356 = AXIS2_PLACEMENT_3D('PCS', #357, #358, #359);
#357 = CARTESIAN_POINT('', (0., 0., 0.));
#358 = DIRECTION('', (0., 0., 1.));
#359 = DIRECTION('', (1., 0., 0.));
#360 = AXIS2_PLACEMENT_3D('CIP', #361, #362, #363);
#361 = CARTESIAN_POINT('', (0., 0., -88.));
#362 = DIRECTION('', (0., 0., 1.));
#363 = DIRECTION('', (1., 0., 0.));
#364 = CARTESIAN_POINT('CRP', (4.5, 0., -88.));
#365 = (
   GEOMETRIC_REPRESENTATION_CONTEXT (3)
   GLOBAL_UNCERTAINTY_ASSIGNED_CONTEXT ((#367))
   GLOBAL_UNIT_ASSIGNED_CONTEXT ((#366, #368, #369))
   REPRESENTATION_CONTEXT ('', '3D')
);
#366 = (
   LENGTH_UNIT ()
   NAMED_UNIT (*)
   SI_UNIT (.MILLI., .METRE.)
);
#367 = UNCERTAINTY_MEASURE_WITH_UNIT(LENGTH_MEASURE(1.E-6), #366, 'DISTANCE_ACCURACY_VALUE', '');
#368 = (
   NAMED_UNIT (*)
   SI_UNIT ($, .STERADIAN.)
   SOLID_ANGLE_UNIT ()
);
#369 = (
   NAMED_UNIT (*)
   PLANE_ANGLE_UNIT ()
   SI_UNIT ($, .RADIAN.)
);
#370 = SHAPE_REPRESENTATION('', (), #365);
#371 = PRODUCT_DEFINITION_SHAPE('', '', #372);
#372 = PRODUCT_DEFINITION('', '', #375, #379);
#373 = APPLICATION_CONTEXT('configuration controlled 3D designs of mechanical parts and assemblies');
#374 = APPLICATION_PROTOCOL_DEFINITION('International Standard', 'automotive_design', 2002, #373);
#375 = PRODUCT_DEFINITION_FORMATION_WITH_SPECIFIED_SOURCE('', '', #376, .NOT_KNOWN.);
#376 = PRODUCT('product-name', '2P170-0900-NA       H10F', '', (#377));
#377 = PRODUCT_CONTEXT('', #373, 'mechanical');
#378 = PRODUCT_RELATED_PRODUCT_CATEGORY('detail', '', (#376));
#379 = PRODUCT_DEFINITION_CONTEXT('part definition', #373, 'design');
#380 = SHAPE_DEFINITION_REPRESENTATION(#371, #370);
#381 = CONSTRUCTIVE_GEOMETRY_REPRESENTATION('supplemental geometry', (#352, #356, #360), #365);
#382 = CONSTRUCTIVE_GEOMETRY_REPRESENTATION_RELATIONSHIP('', '', #370, #381);
#383 = SHAPE_REPRESENTATION_RELATIONSHIP('', '', #370, #384);
#384 = SHAPE_REPRESENTATION('', (#321), #365);
#385 = SHAPE_REPRESENTATION_RELATIONSHIP('', '', #370, #386);
#386 = ADVANCED_BREP_SHAPE_REPRESENTATION('', (#1, #155), #365);
ENDSEC;
END-ISO-10303-21;
