ISO-10303-21;
HEADER;
FILE_DESCRIPTION(('STEP'), '1');
FILE_NAME('C:\\Users\\ds2002\\OneDrive - Sandvik\\HomeShare\\Documents\\Batchrepair\\CorSRT2\\NEW_MILSQ_SLD\\Output\\MOD000000000000000020082310200000.stp', '2019-01-02T12:11:41', (''), (''), 'Express v3.0.0.0', 'Express Tool', 'Unknown');
FILE_SCHEMA(('AUTOMOTIVE_DESIGN'));
ENDSEC;

DATA;
#1 = MANIFOLD_SOLID_BREP('NOCUT', #2);
#2 = CLOSED_SHELL('', (#3, #50, #89, #98, #137));
#3 = ADVANCED_FACE('', (#4), #31, .T.);
#4 = FACE_OUTER_BOUND('', #5, .T.);
#5 = EDGE_LOOP('', (#6, #16, #23, #24));
#6 = ORIENTED_EDGE('', *, *, #7, .T.);
#7 = EDGE_CURVE('', #8, #10, #12, .T.);
#8 = VERTEX_POINT('', #9);
#9 = CARTESIAN_POINT('', (-3., 2.38806125833734E-15, -36.));
#10 = VERTEX_POINT('', #11);
#11 = CARTESIAN_POINT('', (-3., 2.02066721859313E-16, -0.299999999999997));
#12 = LINE('', #13, #14);
#13 = CARTESIAN_POINT('', (-3., 2.38806125833734E-15, -36.));
#14 = VECTOR('', #15, 35.7);
#15 = DIRECTION('', (0., -2.18599453647803E-15, 35.7));
#16 = ORIENTED_EDGE('', *, *, #17, .T.);
#17 = EDGE_CURVE('', #10, #10, #18, .T.);
#18 = CIRCLE('', #19, 3.);
#19 = AXIS2_PLACEMENT_3D('', #20, #21, #22);
#20 = CARTESIAN_POINT('', (1.346145417358E-15, -1.88737914186277E-15, -0.299999999999997));
#21 = DIRECTION('', (-1.85037170770859E-17, 6.01984494166833E-17, -1.));
#22 = DIRECTION('', (-1., 6.96481954574026E-16, 1.85037170770859E-17));
#23 = ORIENTED_EDGE('', *, *, #7, .F.);
#24 = ORIENTED_EDGE('', *, *, #25, .F.);
#25 = EDGE_CURVE('', #8, #8, #26, .T.);
#26 = CIRCLE('', #27, 3.);
#27 = AXIS2_PLACEMENT_3D('', #28, #29, #30);
#28 = CARTESIAN_POINT('', (6.66133814775094E-16, 1.99840144432528E-15, -36.));
#29 = DIRECTION('', (0., 0., -1.));
#30 = DIRECTION('', (-1., 1.29886604670686E-16, 0.));
#31 = (
   BOUNDED_SURFACE ()
   B_SPLINE_SURFACE (1, 2, ((#32, #33, #34, #35, #36, #37, #38, #39, #40), (#41, #42, #43, #44, #45, #46, #47, #48, #49)), .UNSPECIFIED., .F., .T., .U.)
   B_SPLINE_SURFACE_WITH_KNOTS ((2, 2), (3, 2, 2, 2, 3), (0., 1.), (0., 4.7123889803847, 9.4247779607694, 14.1371669411541, 18.8495559215388), .UNSPECIFIED.)
   GEOMETRIC_REPRESENTATION_ITEM ()
   RATIONAL_B_SPLINE_SURFACE (((1., 0.707106781186548, 1., 0.707106781186548, 1., 0.707106781186548, 1., 0.707106781186548, 1.), (1., 0.707106781186548, 1., 0.707106781186548, 1., 0.707106781186548, 1., 0.707106781186548, 1.)))
   REPRESENTATION_ITEM ('')
   SURFACE ()
);
#32 = CARTESIAN_POINT('', (-3., 2.14495701495334E-15, -36.));
#33 = CARTESIAN_POINT('', (-3., 3., -36.));
#34 = CARTESIAN_POINT('', (2.59131156155601E-15, 3., -36.));
#35 = CARTESIAN_POINT('', (3., 3., -36.));
#36 = CARTESIAN_POINT('', (3., -1.66654067274662E-15, -36.));
#37 = CARTESIAN_POINT('', (3., -3., -36.));
#38 = CARTESIAN_POINT('', (-8.52792086399734E-16, -3., -36.));
#39 = CARTESIAN_POINT('', (-3., -3., -36.));
#40 = CARTESIAN_POINT('', (-3., 2.14495701495334E-15, -36.));
#41 = CARTESIAN_POINT('', (-3., 2.02066721859312E-16, -0.299999999999997));
#42 = CARTESIAN_POINT('', (-3., 3., -0.299999999999997));
#43 = CARTESIAN_POINT('', (3.25189426120798E-15, 3., -0.299999999999997));
#44 = CARTESIAN_POINT('', (3., 3., -0.299999999999997));
#45 = CARTESIAN_POINT('', (3., -3.60943096584064E-15, -0.299999999999997));
#46 = CARTESIAN_POINT('', (3., -3., -0.299999999999997));
#47 = CARTESIAN_POINT('', (-1.92209386747767E-16, -3., -0.299999999999997));
#48 = CARTESIAN_POINT('', (-3., -3., -0.299999999999997));
#49 = CARTESIAN_POINT('', (-3., 2.02066721859312E-16, -0.299999999999997));
#50 = ADVANCED_FACE('', (#51), #70, .T.);
#51 = FACE_OUTER_BOUND('', #52, .T.);
#52 = EDGE_LOOP('', (#53, #61, #68, #69));
#53 = ORIENTED_EDGE('', *, *, #54, .T.);
#54 = EDGE_CURVE('', #10, #55, #57, .T.);
#55 = VERTEX_POINT('', #56);
#56 = CARTESIAN_POINT('', (-2.7, 1.65327317884893E-16, 0.));
#57 = LINE('', #58, #59);
#58 = CARTESIAN_POINT('', (-3., 2.02066721859313E-16, -0.299999999999997));
#59 = VECTOR('', #60, 0.424264068711926);
#60 = DIRECTION('', (0.3, -3.673940397442E-17, 0.299999999999997));
#61 = ORIENTED_EDGE('', *, *, #62, .T.);
#62 = EDGE_CURVE('', #55, #55, #63, .T.);
#63 = CIRCLE('', #64, 2.7);
#64 = AXIS2_PLACEMENT_3D('', #65, #66, #67);
#65 = CARTESIAN_POINT('', (9.22872889219661E-16, -1.27675647831893E-15, -8.0118685686509E-32));
#66 = DIRECTION('', (3.03091835913145E-33, 6.12323399573678E-17, -1.));
#67 = DIRECTION('', (-1., 5.34105109705119E-16, 2.96735872912996E-32));
#68 = ORIENTED_EDGE('', *, *, #54, .F.);
#69 = ORIENTED_EDGE('', *, *, #17, .F.);
#70 = (
   BOUNDED_SURFACE ()
   B_SPLINE_SURFACE (1, 2, ((#71, #72, #73, #74, #75, #76, #77, #78, #79), (#80, #81, #82, #83, #84, #85, #86, #87, #88)), .UNSPECIFIED., .F., .T., .U.)
   B_SPLINE_SURFACE_WITH_KNOTS ((2, 2), (3, 2, 2, 2, 3), (0., 1.), (0., 0.25, 0.5, 0.75, 1.), .UNSPECIFIED.)
   GEOMETRIC_REPRESENTATION_ITEM ()
   RATIONAL_B_SPLINE_SURFACE (((1., 0.707106781186548, 1., 0.707106781186548, 1., 0.707106781186548, 1., 0.707106781186548, 1.), (1., 0.707106781186548, 1., 0.707106781186548, 1., 0.707106781186548, 1., 0.707106781186548, 1.)))
   REPRESENTATION_ITEM ('')
   SURFACE ()
);
#71 = CARTESIAN_POINT('', (-3., 1.49129302665284E-15, -0.299999999999997));
#72 = CARTESIAN_POINT('', (-3., 3., -0.299999999999985));
#73 = CARTESIAN_POINT('', (2.34149119846292E-15, 3., -0.299999999999985));
#74 = CARTESIAN_POINT('', (3., 3., -0.299999999999985));
#75 = CARTESIAN_POINT('', (3., -1.34594359183367E-15, -0.299999999999997));
#76 = CARTESIAN_POINT('', (3., -3., -0.300000000000009));
#77 = CARTESIAN_POINT('', (-1.28351380279387E-16, -3., -0.300000000000009));
#78 = CARTESIAN_POINT('', (-3., -3., -0.300000000000009));
#79 = CARTESIAN_POINT('', (-3., 1.49129302665284E-15, -0.299999999999997));
#80 = CARTESIAN_POINT('', (-2.7, 1.65327317884893E-16, -2.18952885050753E-47));
#81 = CARTESIAN_POINT('', (-2.7, 2.7, 1.04916075827078E-14));
#82 = CARTESIAN_POINT('', (2.19962936753859E-15, 2.7, 1.04916075827078E-14));
#83 = CARTESIAN_POINT('', (2.7, 2.7, 1.04916075827078E-14));
#84 = CARTESIAN_POINT('', (2.7, -2.38818563875297E-15, 1.12461399303431E-30));
#85 = CARTESIAN_POINT('', (2.7, -2.7, -1.04916075827078E-14));
#86 = CARTESIAN_POINT('', (-2.32289533294833E-17, -2.7, -1.04916075827078E-14));
#87 = CARTESIAN_POINT('', (-2.7, -2.7, -1.04916075827078E-14));
#88 = CARTESIAN_POINT('', (-2.7, 1.65327317884893E-16, -2.18952885050753E-47));
#89 = ADVANCED_FACE('', (#90), #93, .T.);
#90 = FACE_OUTER_BOUND('', #91, .T.);
#91 = EDGE_LOOP('', (#92));
#92 = ORIENTED_EDGE('', *, *, #62, .F.);
#93 = B_SPLINE_SURFACE_WITH_KNOTS('', 1, 1, ((#94, #95), (#96, #97)), .UNSPECIFIED., .F., .F., .U., (2, 2), (2, 2), (0.0454545454545454, 0.954545454545454), (0.0454545454545454, 0.954545454545454), .UNSPECIFIED.);
#94 = CARTESIAN_POINT('', (2.7, -2.7, -1.65327317884893E-16));
#95 = CARTESIAN_POINT('', (-2.7, -2.7, -1.65327317884893E-16));
#96 = CARTESIAN_POINT('', (2.7, 2.7, 1.65327317884893E-16));
#97 = CARTESIAN_POINT('', (-2.7, 2.7, 1.65327317884893E-16));
#98 = ADVANCED_FACE('', (#99), #118, .T.);
#99 = FACE_OUTER_BOUND('', #100, .T.);
#100 = EDGE_LOOP('', (#101, #110, #116, #117));
#101 = ORIENTED_EDGE('', *, *, #102, .F.);
#102 = EDGE_CURVE('', #103, #103, #105, .T.);
#103 = VERTEX_POINT('', #104);
#104 = CARTESIAN_POINT('', (-3., 2.69422295812418E-15, -41.));
#105 = CIRCLE('', #106, 3.);
#106 = AXIS2_PLACEMENT_3D('', #107, #108, #109);
#107 = CARTESIAN_POINT('', (9.71445146547012E-16, 2.38697950294409E-15, -41.));
#108 = DIRECTION('', (0., 0., -1.));
#109 = DIRECTION('', (-1., 1.02414485060031E-16, 0.));
#110 = ORIENTED_EDGE('', *, *, #111, .F.);
#111 = EDGE_CURVE('', #8, #103, #112, .T.);
#112 = LINE('', #113, #114);
#113 = CARTESIAN_POINT('', (-3., 2.38806125833734E-15, -36.));
#114 = VECTOR('', #115, 5.);
#115 = DIRECTION('', (0., 3.0616169978684E-16, -5.));
#116 = ORIENTED_EDGE('', *, *, #25, .T.);
#117 = ORIENTED_EDGE('', *, *, #111, .T.);
#118 = (
   BOUNDED_SURFACE ()
   B_SPLINE_SURFACE (2, 1, ((#119, #120), (#121, #122), (#123, #124), (#125, #126), (#127, #128), (#129, #130), (#131, #132), (#133, #134), (#135, #136)), .UNSPECIFIED., .T., .F., .U.)
   B_SPLINE_SURFACE_WITH_KNOTS ((3, 2, 2, 2, 3), (2, 2), (0., 4.7123889803847, 9.4247779607694, 14.1371669411541, 18.8495559215388), (0., 0.173310225303293), .UNSPECIFIED.)
   GEOMETRIC_REPRESENTATION_ITEM ()
   RATIONAL_B_SPLINE_SURFACE (((1., 1.), (0.707106781186548, 0.707106781186548), (1., 1.), (0.707106781186548, 0.707106781186548), (1., 1.), (0.707106781186548, 0.707106781186548), (1., 1.), (0.707106781186548, 0.707106781186548), (1., 1.)))
   REPRESENTATION_ITEM ('')
   SURFACE ()
);
#119 = CARTESIAN_POINT('', (-3., 2.38806125833734E-15, -36.));
#120 = CARTESIAN_POINT('', (-3., 1.49988283863721E-15, -41.));
#121 = CARTESIAN_POINT('', (-3., 3., -36.));
#122 = CARTESIAN_POINT('', (-3., 3., -41.));
#123 = CARTESIAN_POINT('', (2.06558636038709E-15, 3., -36.));
#124 = CARTESIAN_POINT('', (2.06558636038709E-15, 3., -41.));
#125 = CARTESIAN_POINT('', (3., 3., -36.));
#126 = CARTESIAN_POINT('', (3., 3., -41.));
#127 = CARTESIAN_POINT('', (3., -1.90964491613062E-15, -36.));
#128 = CARTESIAN_POINT('', (3., -2.79782333583074E-15, -41.));
#129 = CARTESIAN_POINT('', (3., -3., -36.));
#130 = CARTESIAN_POINT('', (3., -3., -41.));
#131 = CARTESIAN_POINT('', (-1.86472577433666E-15, -3., -36.));
#132 = CARTESIAN_POINT('', (-1.86472577433666E-15, -3., -41.));
#133 = CARTESIAN_POINT('', (-3., -3., -36.));
#134 = CARTESIAN_POINT('', (-3., -3., -41.));
#135 = CARTESIAN_POINT('', (-3., 2.38806125833734E-15, -36.));
#136 = CARTESIAN_POINT('', (-3., 1.49988283863721E-15, -41.));
#137 = ADVANCED_FACE('', (#138), #141, .T.);
#138 = FACE_OUTER_BOUND('', #139, .T.);
#139 = EDGE_LOOP('', (#140));
#140 = ORIENTED_EDGE('', *, *, #102, .T.);
#141 = B_SPLINE_SURFACE_WITH_KNOTS('', 1, 1, ((#142, #143), (#144, #145)), .UNSPECIFIED., .F., .F., .U., (2, 2), (2, 2), (0.483101959808224, 0.528867495135914), (0.471132504864086, 0.516898040191776), .UNSPECIFIED.);
#142 = CARTESIAN_POINT('', (-3.00000000000001, 3.00000000000002, -41.));
#143 = CARTESIAN_POINT('', (-3.00000000000001, -2.99999999999997, -41.));
#144 = CARTESIAN_POINT('', (2.99999999999999, 3.00000000000002, -41.));
#145 = CARTESIAN_POINT('', (2.99999999999999, -2.99999999999997, -41.));
#146 = DRAUGHTING_MODEL('', (#154, #278, #326, #331, #336, #341, #346, #351), #365);
#147 = PRESENTATION_STYLE_ASSIGNMENT((#148));
#148 = SURFACE_STYLE_USAGE(.POSITIVE., #149);
#149 = SURFACE_SIDE_STYLE('', (#150));
#150 = SURFACE_STYLE_FILL_AREA(#151);
#151 = FILL_AREA_STYLE('', (#152));
#152 = FILL_AREA_STYLE_COLOUR('', #153);
#153 = COLOUR_RGB('', 0.50196078431373, 0.50196078431373, 0.50196078431373);
#154 = STYLED_ITEM('', (#147), #1);
#155 = MANIFOLD_SOLID_BREP('CUT', #156);
#156 = CLOSED_SHELL('', (#157, #174, #213, #262));
#157 = ADVANCED_FACE('', (#158), #169, .T.);
#158 = FACE_OUTER_BOUND('', #159, .T.);
#159 = EDGE_LOOP('', (#160));
#160 = ORIENTED_EDGE('', *, *, #161, .F.);
#161 = EDGE_CURVE('', #162, #162, #164, .T.);
#162 = VERTEX_POINT('', #163);
#163 = CARTESIAN_POINT('', (-3., 2.69422295812418E-15, -41.));
#164 = CIRCLE('', #165, 3.);
#165 = AXIS2_PLACEMENT_3D('', #166, #167, #168);
#166 = CARTESIAN_POINT('', (9.71445146547012E-16, 2.38697950294409E-15, -41.));
#167 = DIRECTION('', (0., 0., -1.));
#168 = DIRECTION('', (-1., 1.02414485060031E-16, 0.));
#169 = B_SPLINE_SURFACE_WITH_KNOTS('', 1, 1, ((#170, #171), (#172, #173)), .UNSPECIFIED., .F., .F., .U., (2, 2), (2, 2), (0.471132504864086, 0.516898040191776), (0.483101959808224, 0.528867495135914), .UNSPECIFIED.);
#170 = CARTESIAN_POINT('', (-3., 3.00000000000001, -41.));
#171 = CARTESIAN_POINT('', (3., 3.00000000000001, -41.));
#172 = CARTESIAN_POINT('', (-3., -3., -41.));
#173 = CARTESIAN_POINT('', (3., -3., -41.));
#174 = ADVANCED_FACE('', (#175), #194, .T.);
#175 = FACE_OUTER_BOUND('', #176, .T.);
#176 = EDGE_LOOP('', (#177, #178, #186, #193));
#177 = ORIENTED_EDGE('', *, *, #161, .T.);
#178 = ORIENTED_EDGE('', *, *, #179, .T.);
#179 = EDGE_CURVE('', #162, #180, #182, .T.);
#180 = VERTEX_POINT('', #181);
#181 = CARTESIAN_POINT('', (-3., 4.15461426610739E-15, -64.85));
#182 = LINE('', #183, #184);
#183 = CARTESIAN_POINT('', (-3., 2.69422295812418E-15, -41.));
#184 = VECTOR('', #185, 23.85);
#185 = DIRECTION('', (0., 1.46039130798321E-15, -23.85));
#186 = ORIENTED_EDGE('', *, *, #187, .F.);
#187 = EDGE_CURVE('', #180, #180, #188, .T.);
#188 = CIRCLE('', #189, 3.);
#189 = AXIS2_PLACEMENT_3D('', #190, #191, #192);
#190 = CARTESIAN_POINT('', (6.93889390390723E-17, 4.44089209850063E-16, -64.85));
#191 = DIRECTION('', (0., 0., -1.));
#192 = DIRECTION('', (-1., 1.23684168541911E-15, 0.));
#193 = ORIENTED_EDGE('', *, *, #179, .F.);
#194 = (
   BOUNDED_SURFACE ()
   B_SPLINE_SURFACE (2, 1, ((#195, #196), (#197, #198), (#199, #200), (#201, #202), (#203, #204), (#205, #206), (#207, #208), (#209, #210), (#211, #212)), .UNSPECIFIED., .T., .F., .U.)
   B_SPLINE_SURFACE_WITH_KNOTS ((3, 2, 2, 2, 3), (2, 2), (0., 4.7123889803847, 9.4247779607694, 14.1371669411541, 18.8495559215388), (0.173310225303293, 1.), .UNSPECIFIED.)
   GEOMETRIC_REPRESENTATION_ITEM ()
   RATIONAL_B_SPLINE_SURFACE (((1., 1.), (0.707106781186548, 0.707106781186548), (1., 1.), (0.707106781186548, 0.707106781186548), (1., 1.), (0.707106781186548, 0.707106781186548), (1., 1.), (0.707106781186548, 0.707106781186548), (1., 1.)))
   REPRESENTATION_ITEM ('')
   SURFACE ()
);
#195 = CARTESIAN_POINT('', (-3., 2.69422295812418E-15, -41.));
#196 = CARTESIAN_POINT('', (-3., 3.97097943644311E-15, -64.85));
#197 = CARTESIAN_POINT('', (-3., 3., -41.));
#198 = CARTESIAN_POINT('', (-3., 3., -64.85));
#199 = CARTESIAN_POINT('', (3.45421550918346E-15, 3., -41.));
#200 = CARTESIAN_POINT('', (3.45421550918346E-15, 3., -64.85));
#201 = CARTESIAN_POINT('', (3., 3., -41.));
#202 = CARTESIAN_POINT('', (3., 3., -64.85));
#203 = CARTESIAN_POINT('', (3., -3.99216345531771E-15, -41.));
#204 = CARTESIAN_POINT('', (3., -2.71540697699878E-15, -64.85));
#205 = CARTESIAN_POINT('', (3., -3., -41.));
#206 = CARTESIAN_POINT('', (3., -3., -64.85));
#207 = CARTESIAN_POINT('', (-2.86477686451422E-15, -3., -41.));
#208 = CARTESIAN_POINT('', (-2.86477686451422E-15, -3., -64.85));
#209 = CARTESIAN_POINT('', (-3., -3., -41.));
#210 = CARTESIAN_POINT('', (-3., -3., -64.85));
#211 = CARTESIAN_POINT('', (-3., 2.69422295812418E-15, -41.));
#212 = CARTESIAN_POINT('', (-3., 3.97097943644311E-15, -64.85));
#213 = ADVANCED_FACE('', (#214), #234, .T.);
#214 = FACE_OUTER_BOUND('', #215, .T.);
#215 = EDGE_LOOP('', (#216, #225, #226, #227));
#216 = ORIENTED_EDGE('', *, *, #217, .F.);
#217 = EDGE_CURVE('', #180, #218, #220, .T.);
#218 = VERTEX_POINT('', #219);
#219 = CARTESIAN_POINT('', (-2.85, 4.1546142661074E-15, -65.));
#220 = CIRCLE('', #221, 0.150000000000001);
#221 = AXIS2_PLACEMENT_3D('', #222, #223, #224);
#222 = CARTESIAN_POINT('', (-2.85, 4.14542941511379E-15, -64.85));
#223 = DIRECTION('', (-6.12323399573349E-17, -1., -6.12323399573975E-17));
#224 = DIRECTION('', (-1., 6.12323399573349E-17, 0.));
#225 = ORIENTED_EDGE('', *, *, #187, .T.);
#226 = ORIENTED_EDGE('', *, *, #217, .T.);
#227 = ORIENTED_EDGE('', *, *, #228, .F.);
#228 = EDGE_CURVE('', #218, #218, #229, .T.);
#229 = CIRCLE('', #230, 2.85);
#230 = AXIS2_PLACEMENT_3D('', #231, #232, #233);
#231 = CARTESIAN_POINT('', (8.32667268468867E-17, 1.38777878078145E-15, -65.));
#232 = DIRECTION('', (0., 0., -1.));
#233 = DIRECTION('', (-1., 9.70819468535423E-16, 0.));
#234 = (
   BOUNDED_SURFACE ()
   B_SPLINE_SURFACE (2, 2, ((#235, #236, #237), (#238, #239, #240), (#241, #242, #243), (#244, #245, #246), (#247, #248, #249), (#250, #251, #252), (#253, #254, #255), (#256, #257, #258), (#259, #260, #261)), .UNSPECIFIED., .T., .F., .U.)
   B_SPLINE_SURFACE_WITH_KNOTS ((3, 2, 2, 2, 3), (3, 3), (0., 0.25, 0.5, 0.75, 1.), (0., 1.), .UNSPECIFIED.)
   GEOMETRIC_REPRESENTATION_ITEM ()
   RATIONAL_B_SPLINE_SURFACE (((1., 0.707106781186547, 1.), (0.707106781186548, 0.5, 0.707106781186548), (1., 0.707106781186547, 1.), (0.707106781186548, 0.5, 0.707106781186548), (1., 0.707106781186547, 1.), (0.707106781186548, 0.5, 0.707106781186548), (1., 0.707106781186547, 1.), (0.707106781186548, 0.5, 0.707106781186548), (1., 0.707106781186547, 1.)))
   REPRESENTATION_ITEM ('')
   SURFACE ()
);
#235 = CARTESIAN_POINT('', (-3., 4.15461426610739E-15, -64.85));
#236 = CARTESIAN_POINT('', (-3., 4.163799117101E-15, -65.));
#237 = CARTESIAN_POINT('', (-2.85, 4.1546142661074E-15, -65.));
#238 = CARTESIAN_POINT('', (-3., 3., -64.85));
#239 = CARTESIAN_POINT('', (-3., 3., -65.));
#240 = CARTESIAN_POINT('', (-2.85, 2.85, -65.));
#241 = CARTESIAN_POINT('', (3.36029458269145E-15, 3., -64.85));
#242 = CARTESIAN_POINT('', (3.36947943368506E-15, 3., -65.));
#243 = CARTESIAN_POINT('', (3.36947943368507E-15, 2.85, -65.));
#244 = CARTESIAN_POINT('', (3., 3., -64.85));
#245 = CARTESIAN_POINT('', (3., 3., -65.));
#246 = CARTESIAN_POINT('', (2.85, 2.85, -65.));
#247 = CARTESIAN_POINT('', (3., -1.45575187465036E-15, -64.85));
#248 = CARTESIAN_POINT('', (3., -1.46493672564396E-15, -65.));
#249 = CARTESIAN_POINT('', (2.85, -1.47412157663758E-15, -65.));
#250 = CARTESIAN_POINT('', (3., -3., -64.85));
#251 = CARTESIAN_POINT('', (3., -3., -65.));
#252 = CARTESIAN_POINT('', (2.85, -2.85, -65.));
#253 = CARTESIAN_POINT('', (-1.88267751832209E-15, -3., -64.85));
#254 = CARTESIAN_POINT('', (-1.8918623693157E-15, -3., -65.));
#255 = CARTESIAN_POINT('', (-1.91023207130291E-15, -2.85, -65.));
#256 = CARTESIAN_POINT('', (-3., -3., -64.85));
#257 = CARTESIAN_POINT('', (-3., -3., -65.));
#258 = CARTESIAN_POINT('', (-2.85, -2.85, -65.));
#259 = CARTESIAN_POINT('', (-3., 4.15461426610739E-15, -64.85));
#260 = CARTESIAN_POINT('', (-3., 4.163799117101E-15, -65.));
#261 = CARTESIAN_POINT('', (-2.85, 4.1546142661074E-15, -65.));
#262 = ADVANCED_FACE('', (#263), #266, .T.);
#263 = FACE_OUTER_BOUND('', #264, .T.);
#264 = EDGE_LOOP('', (#265));
#265 = ORIENTED_EDGE('', *, *, #228, .T.);
#266 = B_SPLINE_SURFACE_WITH_KNOTS('', 1, 1, ((#267, #268), (#269, #270)), .UNSPECIFIED., .F., .F., .U., (2, 2), (2, 2), (0.0454545454545454, 0.954545454545454), (0.0454545454545454, 0.954545454545455), .UNSPECIFIED.);
#267 = CARTESIAN_POINT('', (2.85, -2.85, -65.));
#268 = CARTESIAN_POINT('', (2.85, 2.85, -65.));
#269 = CARTESIAN_POINT('', (-2.85, -2.85, -65.));
#270 = CARTESIAN_POINT('', (-2.85, 2.85, -65.));
#271 = PRESENTATION_STYLE_ASSIGNMENT((#272));
#272 = SURFACE_STYLE_USAGE(.POSITIVE., #273);
#273 = SURFACE_SIDE_STYLE('', (#274));
#274 = SURFACE_STYLE_FILL_AREA(#275);
#275 = FILL_AREA_STYLE('', (#276));
#276 = FILL_AREA_STYLE_COLOUR('', #277);
#277 = COLOUR_RGB('', 0.8, 0.8, 0.8);
#278 = STYLED_ITEM('', (#271), #155);
#279 = TRIMMED_CURVE('cutting part line', #280, (#284), (#285), .T., .CARTESIAN.);
#280 = LINE('', #281, #282);
#281 = CARTESIAN_POINT('', (-9.71445146547012E-17, 0., -65.));
#282 = VECTOR('', #283, 2.85);
#283 = DIRECTION('', (2.85, 0., 0.));
#284 = CARTESIAN_POINT('', (-9.71445146547012E-17, 0., -65.));
#285 = CARTESIAN_POINT('', (2.85, 0., -65.));
#286 = TRIMMED_CURVE('cutting part line', #287, (#292), (#293), .T., .CARTESIAN.);
#287 = CIRCLE('', #288, 0.149999999999988);
#288 = AXIS2_PLACEMENT_3D('', #289, #290, #291);
#289 = CARTESIAN_POINT('', (2.85000000000001, 1.62627276437994E-15, -64.85));
#290 = DIRECTION('', (1.20274161001059E-15, -1., -2.68431835804414E-30));
#291 = DIRECTION('', (-5.03301104496766E-14, -5.78497997162108E-29, -1.));
#292 = CARTESIAN_POINT('', (2.85, 1.62627276437994E-15, -65.));
#293 = CARTESIAN_POINT('', (3., 1.80668400588152E-15, -64.85));
#294 = TRIMMED_CURVE('cutting part line', #295, (#299), (#300), .T., .CARTESIAN.);
#295 = LINE('', #296, #297);
#296 = CARTESIAN_POINT('', (3., 1.27656202212317E-15, -64.85));
#297 = VECTOR('', #298, 23.85);
#298 = DIRECTION('', (0., -1.27656202212317E-15, 23.85));
#299 = CARTESIAN_POINT('', (3., 1.27656202212317E-15, -64.85));
#300 = CARTESIAN_POINT('', (3., 0., -41.));
#301 = TRIMMED_CURVE('cutting part line', #302, (#306), (#307), .T., .CARTESIAN.);
#302 = LINE('', #303, #304);
#303 = CARTESIAN_POINT('', (3., 0., -41.));
#304 = VECTOR('', #305, 3.);
#305 = DIRECTION('', (-3., 0., -7.105427357601E-15));
#306 = CARTESIAN_POINT('', (3., 0., -41.));
#307 = CARTESIAN_POINT('', (6.93889390390723E-18, 0., -41.));
#308 = TRIMMED_CURVE('cutting part line', #309, (#313), (#314), .T., .CARTESIAN.);
#309 = LINE('', #310, #311);
#310 = CARTESIAN_POINT('', (0., 0., -41.));
#311 = VECTOR('', #312, 24.);
#312 = DIRECTION('', (0., 0., -24.));
#313 = CARTESIAN_POINT('', (0., 0., -41.));
#314 = CARTESIAN_POINT('', (0., 0., -65.));
#315 = COMPOSITE_CURVE('cutting part line', (#316, #317, #318, #319, #320), .U.);
#316 = COMPOSITE_CURVE_SEGMENT(.CONTINUOUS., .T., #279);
#317 = COMPOSITE_CURVE_SEGMENT(.CONTINUOUS., .T., #286);
#318 = COMPOSITE_CURVE_SEGMENT(.CONTINUOUS., .T., #294);
#319 = COMPOSITE_CURVE_SEGMENT(.CONTINUOUS., .T., #301);
#320 = COMPOSITE_CURVE_SEGMENT(.CONTINUOUS., .T., #308);
#321 = GEOMETRIC_SET('', (#315, #364));
#322 = PRESENTATION_STYLE_ASSIGNMENT((#323));
#323 = CURVE_STYLE('', #325, POSITIVE_LENGTH_MEASURE(1.E-6), #324);
#324 = COLOUR_RGB('', 0., 0., 1.);
#325 = DRAUGHTING_PRE_DEFINED_CURVE_FONT('continuous');
#326 = STYLED_ITEM('', (#322), #315);
#327 = PRESENTATION_STYLE_ASSIGNMENT((#328));
#328 = CURVE_STYLE('', #330, POSITIVE_LENGTH_MEASURE(1.E-6), #329);
#329 = COLOUR_RGB('', 0., 0., 1.);
#330 = DRAUGHTING_PRE_DEFINED_CURVE_FONT('continuous');
#331 = OVER_RIDING_STYLED_ITEM('', (#327), #279, #326);
#332 = PRESENTATION_STYLE_ASSIGNMENT((#333));
#333 = CURVE_STYLE('', #335, POSITIVE_LENGTH_MEASURE(1.E-6), #334);
#334 = COLOUR_RGB('', 0., 0., 1.);
#335 = DRAUGHTING_PRE_DEFINED_CURVE_FONT('continuous');
#336 = OVER_RIDING_STYLED_ITEM('', (#332), #286, #326);
#337 = PRESENTATION_STYLE_ASSIGNMENT((#338));
#338 = CURVE_STYLE('', #340, POSITIVE_LENGTH_MEASURE(1.E-6), #339);
#339 = COLOUR_RGB('', 0., 0., 1.);
#340 = DRAUGHTING_PRE_DEFINED_CURVE_FONT('continuous');
#341 = OVER_RIDING_STYLED_ITEM('', (#337), #294, #326);
#342 = PRESENTATION_STYLE_ASSIGNMENT((#343));
#343 = CURVE_STYLE('', #345, POSITIVE_LENGTH_MEASURE(1.E-6), #344);
#344 = COLOUR_RGB('', 0., 0., 1.);
#345 = DRAUGHTING_PRE_DEFINED_CURVE_FONT('continuous');
#346 = OVER_RIDING_STYLED_ITEM('', (#342), #301, #326);
#347 = PRESENTATION_STYLE_ASSIGNMENT((#348));
#348 = CURVE_STYLE('', #350, POSITIVE_LENGTH_MEASURE(1.E-6), #349);
#349 = COLOUR_RGB('', 0., 0., 1.);
#350 = DRAUGHTING_PRE_DEFINED_CURVE_FONT('continuous');
#351 = OVER_RIDING_STYLED_ITEM('', (#347), #308, #326);
#352 = AXIS2_PLACEMENT_3D('MCS', #353, #354, #355);
#353 = CARTESIAN_POINT('', (0., 0., -36.));
#354 = DIRECTION('', (0., 0., 1.));
#355 = DIRECTION('', (1., 0., 0.));
#356 = AXIS2_PLACEMENT_3D('PCS', #357, #358, #359);
#357 = CARTESIAN_POINT('', (0., 0., 0.));
#358 = DIRECTION('', (0., 0., 1.));
#359 = DIRECTION('', (1., 0., 0.));
#360 = AXIS2_PLACEMENT_3D('CIP', #361, #362, #363);
#361 = CARTESIAN_POINT('', (0., 0., -65.));
#362 = DIRECTION('', (0., 0., 1.));
#363 = DIRECTION('', (1., 0., 0.));
#364 = CARTESIAN_POINT('CRP', (3., 0., -65.));
#365 = (
   GEOMETRIC_REPRESENTATION_CONTEXT (3)
   GLOBAL_UNCERTAINTY_ASSIGNED_CONTEXT ((#367))
   GLOBAL_UNIT_ASSIGNED_CONTEXT ((#366, #368, #369))
   REPRESENTATION_CONTEXT ('', '3D')
);
#366 = (
   LENGTH_UNIT ()
   NAMED_UNIT (*)
   SI_UNIT (.MILLI., .METRE.)
);
#367 = UNCERTAINTY_MEASURE_WITH_UNIT(LENGTH_MEASURE(1.E-6), #366, 'DISTANCE_ACCURACY_VALUE', '');
#368 = (
   NAMED_UNIT (*)
   SI_UNIT ($, .STERADIAN.)
   SOLID_ANGLE_UNIT ()
);
#369 = (
   NAMED_UNIT (*)
   PLANE_ANGLE_UNIT ()
   SI_UNIT ($, .RADIAN.)
);
#370 = SHAPE_REPRESENTATION('', (), #365);
#371 = PRODUCT_DEFINITION_SHAPE('', '', #372);
#372 = PRODUCT_DEFINITION('', '', #375, #379);
#373 = APPLICATION_CONTEXT('configuration controlled 3D designs of mechanical parts and assemblies');
#374 = APPLICATION_PROTOCOL_DEFINITION('International Standard', 'automotive_design', 2002, #373);
#375 = PRODUCT_DEFINITION_FORMATION_WITH_SPECIFIED_SOURCE('', '', #376, .NOT_KNOWN.);
#376 = PRODUCT('product-name', '2P170-0600-NA       H10F', '', (#377));
#377 = PRODUCT_CONTEXT('', #373, 'mechanical');
#378 = PRODUCT_RELATED_PRODUCT_CATEGORY('detail', '', (#376));
#379 = PRODUCT_DEFINITION_CONTEXT('part definition', #373, 'design');
#380 = SHAPE_DEFINITION_REPRESENTATION(#371, #370);
#381 = CONSTRUCTIVE_GEOMETRY_REPRESENTATION('supplemental geometry', (#352, #356, #360), #365);
#382 = CONSTRUCTIVE_GEOMETRY_REPRESENTATION_RELATIONSHIP('', '', #370, #381);
#383 = SHAPE_REPRESENTATION_RELATIONSHIP('', '', #370, #384);
#384 = SHAPE_REPRESENTATION('', (#321), #365);
#385 = SHAPE_REPRESENTATION_RELATIONSHIP('', '', #370, #386);
#386 = ADVANCED_BREP_SHAPE_REPRESENTATION('', (#1, #155), #365);
ENDSEC;
END-ISO-10303-21;
