ISO-10303-21;
HEADER;
FILE_DESCRIPTION(('STEP'), '1');
FILE_NAME('C:\\Users\\ds2002\\OneDrive - Sandvik\\HomeShare\\Documents\\Batchrepair\\CorSRT2\\NEW_MILSQ_SLD\\Output\\MOD000000000000000020082309800000.stp', '2019-01-02T12:11:34', (''), (''), 'Express v3.0.0.0', 'Express Tool', 'Unknown');
FILE_SCHEMA(('AUTOMOTIVE_DESIGN'));
ENDSEC;

DATA;
#1 = MANIFOLD_SOLID_BREP('NOCUT', #2);
#2 = CLOSED_SHELL('', (#3, #50, #89, #128, #137, #176));
#3 = ADVANCED_FACE('', (#4), #31, .T.);
#4 = FACE_OUTER_BOUND('', #5, .T.);
#5 = EDGE_LOOP('', (#6, #16, #23, #24));
#6 = ORIENTED_EDGE('', *, *, #7, .F.);
#7 = EDGE_CURVE('', #8, #10, #12, .T.);
#8 = VERTEX_POINT('', #9);
#9 = CARTESIAN_POINT('', (-1.5, 2.41867742831602E-15, -38.));
#10 = VERTEX_POINT('', #11);
#11 = CARTESIAN_POINT('', (-1., 2.44317036429897E-15, -38.9));
#12 = LINE('', #13, #14);
#13 = CARTESIAN_POINT('', (-1.5, 2.41867742831602E-15, -38.));
#14 = VECTOR('', #15, 1.0295630140987);
#15 = DIRECTION('', (0.5, 2.44929359829499E-17, -0.899999999999999));
#16 = ORIENTED_EDGE('', *, *, #17, .T.);
#17 = EDGE_CURVE('', #8, #8, #18, .T.);
#18 = CIRCLE('', #19, 1.5);
#19 = AXIS2_PLACEMENT_3D('', #20, #21, #22);
#20 = CARTESIAN_POINT('', (2.63677968348475E-16, 8.60422844084496E-16, -38.));
#21 = DIRECTION('', (0., 0., -1.));
#22 = DIRECTION('', (-1., 1.03883638948768E-15, 0.));
#23 = ORIENTED_EDGE('', *, *, #7, .T.);
#24 = ORIENTED_EDGE('', *, *, #25, .F.);
#25 = EDGE_CURVE('', #10, #10, #26, .T.);
#26 = CIRCLE('', #27, 1.);
#27 = AXIS2_PLACEMENT_3D('', #28, #29, #30);
#28 = CARTESIAN_POINT('', (1.21430643318376E-16, 1.77635683940025E-15, -38.9));
#29 = DIRECTION('', (0., 0., -1.));
#30 = DIRECTION('', (-1., 6.66813524898719E-16, 0.));
#31 = (
   BOUNDED_SURFACE ()
   B_SPLINE_SURFACE (2, 1, ((#32, #33), (#34, #35), (#36, #37), (#38, #39), (#40, #41), (#42, #43), (#44, #45), (#46, #47), (#48, #49)), .UNSPECIFIED., .T., .F., .U.)
   B_SPLINE_SURFACE_WITH_KNOTS ((3, 2, 2, 2, 3), (2, 2), (0., 0.25, 0.5, 0.75, 1.), (0., 1.), .UNSPECIFIED.)
   GEOMETRIC_REPRESENTATION_ITEM ()
   RATIONAL_B_SPLINE_SURFACE (((1., 1.), (0.707106781186548, 0.707106781186548), (1., 1.), (0.707106781186548, 0.707106781186548), (1., 1.), (0.707106781186548, 0.707106781186548), (1., 1.), (0.707106781186548, 0.707106781186548), (1., 1.)))
   REPRESENTATION_ITEM ('')
   SURFACE ()
);
#32 = CARTESIAN_POINT('', (-1.5, 2.41867742831602E-15, -38.));
#33 = CARTESIAN_POINT('', (-0.999999999999999, 2.81519322888793E-15, -38.9));
#34 = CARTESIAN_POINT('', (-1.5, 1.5, -38.));
#35 = CARTESIAN_POINT('', (-0.999999999999998, 1., -38.9));
#36 = CARTESIAN_POINT('', (1.73008404264395E-15, 1.5, -38.));
#37 = CARTESIAN_POINT('', (1.24128201787879E-15, 1., -38.9));
#38 = CARTESIAN_POINT('', (1.5, 1.5, -38.));
#39 = CARTESIAN_POINT('', (1., 1., -38.9));
#40 = CARTESIAN_POINT('', (1.5, -5.14134720274924E-16, -38.));
#41 = CARTESIAN_POINT('', (1., 8.59985129827304E-16, -38.9));
#42 = CARTESIAN_POINT('', (1.5, -1.5, -38.));
#43 = CARTESIAN_POINT('', (0.999999999999999, -0.999999999999999, -38.9));
#44 = CARTESIAN_POINT('', (-1.01903108607489E-15, -1.5, -38.));
#45 = CARTESIAN_POINT('', (-5.91461401267103E-16, -0.999999999999998, -38.9));
#46 = CARTESIAN_POINT('', (-1.5, -1.5, -38.));
#47 = CARTESIAN_POINT('', (-1., -0.999999999999997, -38.9));
#48 = CARTESIAN_POINT('', (-1.5, 2.41867742831602E-15, -38.));
#49 = CARTESIAN_POINT('', (-0.999999999999999, 2.81519322888793E-15, -38.9));
#50 = ADVANCED_FACE('', (#51), #70, .T.);
#51 = FACE_OUTER_BOUND('', #52, .T.);
#52 = EDGE_LOOP('', (#53, #61, #68, #69));
#53 = ORIENTED_EDGE('', *, *, #54, .T.);
#54 = EDGE_CURVE('', #8, #55, #57, .T.);
#55 = VERTEX_POINT('', #56);
#56 = CARTESIAN_POINT('', (-1.5, 1.01033360929657E-16, -0.149999999999999));
#57 = LINE('', #58, #59);
#58 = CARTESIAN_POINT('', (-1.5, 2.41867742831602E-15, -38.));
#59 = VECTOR('', #60, 37.85);
#60 = DIRECTION('', (0., -2.31764406738636E-15, 37.85));
#61 = ORIENTED_EDGE('', *, *, #62, .T.);
#62 = EDGE_CURVE('', #55, #55, #63, .T.);
#63 = CIRCLE('', #64, 1.5);
#64 = AXIS2_PLACEMENT_3D('', #65, #66, #67);
#65 = CARTESIAN_POINT('', (1.52655665885959E-16, -3.60822483003176E-16, -0.149999999999999));
#66 = DIRECTION('', (0., 0., -1.));
#67 = DIRECTION('', (-1., 3.07903895955222E-16, 0.));
#68 = ORIENTED_EDGE('', *, *, #54, .F.);
#69 = ORIENTED_EDGE('', *, *, #17, .F.);
#70 = (
   BOUNDED_SURFACE ()
   B_SPLINE_SURFACE (1, 2, ((#71, #72, #73, #74, #75, #76, #77, #78, #79), (#80, #81, #82, #83, #84, #85, #86, #87, #88)), .UNSPECIFIED., .F., .T., .U.)
   B_SPLINE_SURFACE_WITH_KNOTS ((2, 2), (3, 2, 2, 2, 3), (0., 1.), (0., 2.35619449019235, 4.71238898038469, 7.06858347057704, 9.42477796076938), .UNSPECIFIED.)
   GEOMETRIC_REPRESENTATION_ITEM ()
   RATIONAL_B_SPLINE_SURFACE (((1., 0.707106781186548, 1., 0.707106781186548, 1., 0.707106781186548, 1., 0.707106781186548, 1.), (1., 0.707106781186548, 1., 0.707106781186548, 1., 0.707106781186548, 1., 0.707106781186548, 1.)))
   REPRESENTATION_ITEM ('')
   SURFACE ()
);
#71 = CARTESIAN_POINT('', (-1.5, 1.65534559540488E-15, -38.));
#72 = CARTESIAN_POINT('', (-1.5, 1.5, -38.));
#73 = CARTESIAN_POINT('', (5.22662999882741E-16, 1.5, -38.));
#74 = CARTESIAN_POINT('', (1.5, 1.5, -38.));
#75 = CARTESIAN_POINT('', (1.5, 9.15330927411313E-16, -38.));
#76 = CARTESIAN_POINT('', (1.5, -1.5, -38.));
#77 = CARTESIAN_POINT('', (-3.36546482387187E-17, -1.5, -38.));
#78 = CARTESIAN_POINT('', (-1.5, -1.5, -38.));
#79 = CARTESIAN_POINT('', (-1.5, 1.65534559540488E-15, -38.));
#80 = CARTESIAN_POINT('', (-1.5, 1.01033360929657E-16, -0.149999999999999));
#81 = CARTESIAN_POINT('', (-1.5, 1.5, -0.149999999999999));
#82 = CARTESIAN_POINT('', (5.2266299988274E-16, 1.5, -0.149999999999999));
#83 = CARTESIAN_POINT('', (1.5, 1.5, -0.149999999999999));
#84 = CARTESIAN_POINT('', (1.5, -6.38981307063906E-16, -0.149999999999999));
#85 = CARTESIAN_POINT('', (1.5, -1.5, -0.149999999999999));
#86 = CARTESIAN_POINT('', (-3.36546482387192E-17, -1.5, -0.149999999999999));
#87 = CARTESIAN_POINT('', (-1.5, -1.5, -0.149999999999999));
#88 = CARTESIAN_POINT('', (-1.5, 1.01033360929657E-16, -0.149999999999999));
#89 = ADVANCED_FACE('', (#90), #109, .T.);
#90 = FACE_OUTER_BOUND('', #91, .T.);
#91 = EDGE_LOOP('', (#92, #100, #107, #108));
#92 = ORIENTED_EDGE('', *, *, #93, .T.);
#93 = EDGE_CURVE('', #55, #94, #96, .T.);
#94 = VERTEX_POINT('', #95);
#95 = CARTESIAN_POINT('', (-1.35, 8.26636589424463E-17, 0.));
#96 = LINE('', #97, #98);
#97 = CARTESIAN_POINT('', (-1.5, 1.01033360929657E-16, -0.149999999999999));
#98 = VECTOR('', #99, 0.212132034355963);
#99 = DIRECTION('', (0.15, -1.83697019872107E-17, 0.149999999999999));
#100 = ORIENTED_EDGE('', *, *, #101, .T.);
#101 = EDGE_CURVE('', #94, #94, #102, .T.);
#102 = CIRCLE('', #103, 1.35);
#103 = AXIS2_PLACEMENT_3D('', #104, #105, #106);
#104 = CARTESIAN_POINT('', (4.61436444609831E-16, -6.38378239159465E-16, -7.7875102531819E-16));
#105 = DIRECTION('', (-5.76852611346806E-16, 1.6649441676109E-15, -1.));
#106 = DIRECTION('', (-1., 5.34105109705119E-16, 5.76852611346807E-16));
#107 = ORIENTED_EDGE('', *, *, #93, .F.);
#108 = ORIENTED_EDGE('', *, *, #62, .F.);
#109 = (
   BOUNDED_SURFACE ()
   B_SPLINE_SURFACE (1, 2, ((#110, #111, #112, #113, #114, #115, #116, #117, #118), (#119, #120, #121, #122, #123, #124, #125, #126, #127)), .UNSPECIFIED., .F., .T., .U.)
   B_SPLINE_SURFACE_WITH_KNOTS ((2, 2), (3, 2, 2, 2, 3), (0., 1.), (0., 0.25, 0.5, 0.75, 1.), .UNSPECIFIED.)
   GEOMETRIC_REPRESENTATION_ITEM ()
   RATIONAL_B_SPLINE_SURFACE (((1., 0.707106781186548, 1., 0.707106781186548, 1., 0.707106781186548, 1., 0.707106781186548, 1.), (1., 0.707106781186548, 1., 0.707106781186548, 1., 0.707106781186548, 1., 0.707106781186548, 1.)))
   REPRESENTATION_ITEM ('')
   SURFACE ()
);
#110 = CARTESIAN_POINT('', (-1.5, 7.45646513326421E-16, -0.149999999999998));
#111 = CARTESIAN_POINT('', (-1.5, 1.5, -0.149999999999992));
#112 = CARTESIAN_POINT('', (1.08421770752944E-15, 1.5, -0.149999999999993));
#113 = CARTESIAN_POINT('', (1.5, 1.5, -0.149999999999994));
#114 = CARTESIAN_POINT('', (1.5, -6.72971795916834E-16, -0.15));
#115 = CARTESIAN_POINT('', (1.5, -1.5, -0.150000000000006));
#116 = CARTESIAN_POINT('', (-1.50703581841717E-16, -1.5, -0.150000000000005));
#117 = CARTESIAN_POINT('', (-1.5, -1.5, -0.150000000000004));
#118 = CARTESIAN_POINT('', (-1.5, 7.45646513326421E-16, -0.149999999999998));
#119 = CARTESIAN_POINT('', (-1.35, 8.2663658942446E-17, -2.95822839457879E-31));
#120 = CARTESIAN_POINT('', (-1.35, 1.35, 5.24580379135393E-15));
#121 = CARTESIAN_POINT('', (1.0998146837693E-15, 1.35, 4.46705276603574E-15));
#122 = CARTESIAN_POINT('', (1.35, 1.35, 3.68830174071755E-15));
#123 = CARTESIAN_POINT('', (1.35, -1.19409281937648E-15, -1.55750205063638E-15));
#124 = CARTESIAN_POINT('', (1.35, -1.35, -6.80330584199031E-15));
#125 = CARTESIAN_POINT('', (-1.16144766647444E-17, -1.35, -6.02455481667212E-15));
#126 = CARTESIAN_POINT('', (-1.35, -1.35, -5.24580379135393E-15));
#127 = CARTESIAN_POINT('', (-1.35, 8.2663658942446E-17, -2.95822839457879E-31));
#128 = ADVANCED_FACE('', (#129), #132, .T.);
#129 = FACE_OUTER_BOUND('', #130, .T.);
#130 = EDGE_LOOP('', (#131));
#131 = ORIENTED_EDGE('', *, *, #101, .F.);
#132 = B_SPLINE_SURFACE_WITH_KNOTS('', 1, 1, ((#133, #134), (#135, #136)), .UNSPECIFIED., .F., .F., .U., (2, 2), (2, 2), (0.0454545454545454, 0.954545454545454), (0.0454545454545454, 0.954545454545454), .UNSPECIFIED.);
#133 = CARTESIAN_POINT('', (1.35, -1.35, -8.26636589424464E-17));
#134 = CARTESIAN_POINT('', (-1.35, -1.35, -8.26636589424463E-17));
#135 = CARTESIAN_POINT('', (1.35, 1.35, 8.26636589424463E-17));
#136 = CARTESIAN_POINT('', (-1.35, 1.35, 8.26636589424464E-17));
#137 = ADVANCED_FACE('', (#138), #157, .T.);
#138 = FACE_OUTER_BOUND('', #139, .T.);
#139 = EDGE_LOOP('', (#140, #149, #155, #156));
#140 = ORIENTED_EDGE('', *, *, #141, .F.);
#141 = EDGE_CURVE('', #142, #142, #144, .T.);
#142 = VERTEX_POINT('', #143);
#143 = CARTESIAN_POINT('', (-1., 2.63299061816681E-15, -42.));
#144 = CIRCLE('', #145, 0.999999999999999);
#145 = AXIS2_PLACEMENT_3D('', #146, #147, #148);
#146 = CARTESIAN_POINT('', (-5.89805981832114E-17, 2.80331313717852E-15, -42.));
#147 = DIRECTION('', (4.11900992052031E-30, -2.41835897238997E-14, -1.));
#148 = DIRECTION('', (-1., -1.7032251901171E-16, 0.));
#149 = ORIENTED_EDGE('', *, *, #150, .F.);
#150 = EDGE_CURVE('', #10, #142, #151, .T.);
#151 = LINE('', #152, #153);
#152 = CARTESIAN_POINT('', (-1., 2.44317036429897E-15, -38.9));
#153 = VECTOR('', #154, 3.1);
#154 = DIRECTION('', (0., 1.8982025386784E-16, -3.1));
#155 = ORIENTED_EDGE('', *, *, #25, .T.);
#156 = ORIENTED_EDGE('', *, *, #150, .T.);
#157 = (
   BOUNDED_SURFACE ()
   B_SPLINE_SURFACE (2, 1, ((#158, #159), (#160, #161), (#162, #163), (#164, #165), (#166, #167), (#168, #169), (#170, #171), (#172, #173), (#174, #175)), .UNSPECIFIED., .T., .F., .U.)
   B_SPLINE_SURFACE_WITH_KNOTS ((3, 2, 2, 2, 3), (2, 2), (0., 1.5707963267949, 3.1415926535898, 4.71238898038469, 6.28318530717959), (0., 0.28310502283105), .UNSPECIFIED.)
   GEOMETRIC_REPRESENTATION_ITEM ()
   RATIONAL_B_SPLINE_SURFACE (((1., 1.), (0.707106781186548, 0.707106781186548), (1., 1.), (0.707106781186548, 0.707106781186548), (1., 1.), (0.707106781186548, 0.707106781186548), (1., 1.), (0.707106781186548, 0.707106781186548), (1., 1.)))
   REPRESENTATION_ITEM ('')
   SURFACE ()
);
#158 = CARTESIAN_POINT('', (-1., 2.44317036429897E-15, -38.9));
#159 = CARTESIAN_POINT('', (-1., 2.60970381799274E-15, -42.));
#160 = CARTESIAN_POINT('', (-0.999999999999999, 1., -38.9));
#161 = CARTESIAN_POINT('', (-0.999999999999999, 1., -42.));
#162 = CARTESIAN_POINT('', (7.68645191683171E-16, 1., -38.9));
#163 = CARTESIAN_POINT('', (7.68645191683171E-16, 1., -42.));
#164 = CARTESIAN_POINT('', (1., 1., -38.9));
#165 = CARTESIAN_POINT('', (1., 1., -42.));
#166 = CARTESIAN_POINT('', (1., 8.43429935797462E-16, -38.9));
#167 = CARTESIAN_POINT('', (1., 1.00996338949124E-15, -42.));
#168 = CARTESIAN_POINT('', (0.999999999999999, -0.999999999999999, -38.9));
#169 = CARTESIAN_POINT('', (0.999999999999999, -0.999999999999999, -42.));
#170 = CARTESIAN_POINT('', (-7.08630556903601E-16, -0.999999999999998, -38.9));
#171 = CARTESIAN_POINT('', (-7.08630556903601E-16, -0.999999999999998, -42.));
#172 = CARTESIAN_POINT('', (-1., -0.999999999999997, -38.9));
#173 = CARTESIAN_POINT('', (-1., -0.999999999999997, -42.));
#174 = CARTESIAN_POINT('', (-1., 2.44317036429897E-15, -38.9));
#175 = CARTESIAN_POINT('', (-1., 2.60970381799274E-15, -42.));
#176 = ADVANCED_FACE('', (#177), #180, .T.);
#177 = FACE_OUTER_BOUND('', #178, .T.);
#178 = EDGE_LOOP('', (#179));
#179 = ORIENTED_EDGE('', *, *, #141, .T.);
#180 = B_SPLINE_SURFACE_WITH_KNOTS('', 1, 1, ((#181, #182), (#183, #184)), .UNSPECIFIED., .F., .F., .U., (2, 2), (2, 2), (0.500199296585312, 0.520127681294295), (0.479872318705705, 0.499800703414688), .UNSPECIFIED.);
#181 = CARTESIAN_POINT('', (-1.00000000000001, 1.00000000000002, -42.));
#182 = CARTESIAN_POINT('', (-1.00000000000001, -0.999999999999979, -42.));
#183 = CARTESIAN_POINT('', (0.999999999999993, 1.00000000000002, -42.));
#184 = CARTESIAN_POINT('', (0.999999999999993, -0.999999999999979, -42.));
#185 = DRAUGHTING_MODEL('', (#193, #317, #365, #370, #375, #380, #385, #390), #404);
#186 = PRESENTATION_STYLE_ASSIGNMENT((#187));
#187 = SURFACE_STYLE_USAGE(.POSITIVE., #188);
#188 = SURFACE_SIDE_STYLE('', (#189));
#189 = SURFACE_STYLE_FILL_AREA(#190);
#190 = FILL_AREA_STYLE('', (#191));
#191 = FILL_AREA_STYLE_COLOUR('', #192);
#192 = COLOUR_RGB('', 0.50196078431373, 0.50196078431373, 0.50196078431373);
#193 = STYLED_ITEM('', (#186), #1);
#194 = MANIFOLD_SOLID_BREP('CUT', #195);
#195 = CLOSED_SHELL('', (#196, #213, #252, #301));
#196 = ADVANCED_FACE('', (#197), #208, .T.);
#197 = FACE_OUTER_BOUND('', #198, .T.);
#198 = EDGE_LOOP('', (#199));
#199 = ORIENTED_EDGE('', *, *, #200, .F.);
#200 = EDGE_CURVE('', #201, #201, #203, .T.);
#201 = VERTEX_POINT('', #202);
#202 = CARTESIAN_POINT('', (-1., 2.63299061816681E-15, -42.));
#203 = CIRCLE('', #204, 0.999999999999999);
#204 = AXIS2_PLACEMENT_3D('', #205, #206, #207);
#205 = CARTESIAN_POINT('', (-1.56125112837913E-16, 3.46944695195361E-15, -42.));
#206 = DIRECTION('', (2.02285167982575E-29, -2.41835897238998E-14, -1.));
#207 = DIRECTION('', (-1., -8.36456333786804E-16, 0.));
#208 = B_SPLINE_SURFACE_WITH_KNOTS('', 1, 1, ((#209, #210), (#211, #212)), .UNSPECIFIED., .F., .F., .U., (2, 2), (2, 2), (0.479872318705705, 0.499800703414688), (0.500199296585312, 0.520127681294295), .UNSPECIFIED.);
#209 = CARTESIAN_POINT('', (-1.00000000000001, 1., -42.));
#210 = CARTESIAN_POINT('', (1., 1., -42.));
#211 = CARTESIAN_POINT('', (-1.00000000000001, -0.999999999999993, -42.));
#212 = CARTESIAN_POINT('', (1., -0.999999999999993, -42.));
#213 = ADVANCED_FACE('', (#214), #233, .T.);
#214 = FACE_OUTER_BOUND('', #215, .T.);
#215 = EDGE_LOOP('', (#216, #217, #225, #232));
#216 = ORIENTED_EDGE('', *, *, #200, .T.);
#217 = ORIENTED_EDGE('', *, *, #218, .T.);
#218 = EDGE_CURVE('', #201, #219, #221, .T.);
#219 = VERTEX_POINT('', #220);
#220 = CARTESIAN_POINT('', (-1., 3.11366448683215E-15, -49.85));
#221 = LINE('', #222, #223);
#222 = CARTESIAN_POINT('', (-1., 2.63299061816681E-15, -42.));
#223 = VECTOR('', #224, 7.85);
#224 = DIRECTION('', (0., 4.8067386866534E-16, -7.85));
#225 = ORIENTED_EDGE('', *, *, #226, .F.);
#226 = EDGE_CURVE('', #219, #219, #227, .T.);
#227 = CIRCLE('', #228, 0.999999999999999);
#228 = AXIS2_PLACEMENT_3D('', #229, #230, #231);
#229 = CARTESIAN_POINT('', (-1.45716771982052E-16, 2.85882428840978E-15, -49.85));
#230 = DIRECTION('', (0., 0., -1.));
#231 = DIRECTION('', (-1., 2.54840198422372E-16, 0.));
#232 = ORIENTED_EDGE('', *, *, #218, .F.);
#233 = (
   BOUNDED_SURFACE ()
   B_SPLINE_SURFACE (2, 1, ((#234, #235), (#236, #237), (#238, #239), (#240, #241), (#242, #243), (#244, #245), (#246, #247), (#248, #249), (#250, #251)), .UNSPECIFIED., .T., .F., .U.)
   B_SPLINE_SURFACE_WITH_KNOTS ((3, 2, 2, 2, 3), (2, 2), (0., 1.5707963267949, 3.14159265358979, 4.71238898038469, 6.28318530717959), (0.28310502283105, 1.), .UNSPECIFIED.)
   GEOMETRIC_REPRESENTATION_ITEM ()
   RATIONAL_B_SPLINE_SURFACE (((1., 1.), (0.707106781186548, 0.707106781186548), (1., 1.), (0.707106781186548, 0.707106781186548), (1., 1.), (0.707106781186548, 0.707106781186548), (1., 1.), (0.707106781186548, 0.707106781186548), (1., 1.)))
   REPRESENTATION_ITEM ('')
   SURFACE ()
);
#234 = CARTESIAN_POINT('', (-1., 2.63299061816681E-15, -42.));
#235 = CARTESIAN_POINT('', (-1., 2.74401292062933E-15, -49.85));
#236 = CARTESIAN_POINT('', (-1., 1., -42.));
#237 = CARTESIAN_POINT('', (-1., 1., -49.85));
#238 = CARTESIAN_POINT('', (-3.59924396191362E-16, 1., -42.));
#239 = CARTESIAN_POINT('', (-3.59924396191362E-16, 1., -49.85));
#240 = CARTESIAN_POINT('', (0.999999999999999, 1., -42.));
#241 = CARTESIAN_POINT('', (0.999999999999999, 1., -49.85));
#242 = CARTESIAN_POINT('', (0.999999999999999, 2.98507803364245E-15, -42.));
#243 = CARTESIAN_POINT('', (0.999999999999999, 3.09610033610497E-15, -49.85));
#244 = CARTESIAN_POINT('', (0.999999999999999, -0.999999999999996, -42.));
#245 = CARTESIAN_POINT('', (0.999999999999999, -0.999999999999996, -49.85));
#246 = CARTESIAN_POINT('', (1.14627699199014E-16, -0.999999999999997, -42.));
#247 = CARTESIAN_POINT('', (1.14627699199014E-16, -0.999999999999997, -49.85));
#248 = CARTESIAN_POINT('', (-0.999999999999999, -0.999999999999997, -42.));
#249 = CARTESIAN_POINT('', (-0.999999999999999, -0.999999999999997, -49.85));
#250 = CARTESIAN_POINT('', (-1., 2.63299061816681E-15, -42.));
#251 = CARTESIAN_POINT('', (-1., 2.74401292062933E-15, -49.85));
#252 = ADVANCED_FACE('', (#253), #273, .T.);
#253 = FACE_OUTER_BOUND('', #254, .T.);
#254 = EDGE_LOOP('', (#255, #264, #265, #266));
#255 = ORIENTED_EDGE('', *, *, #256, .F.);
#256 = EDGE_CURVE('', #219, #257, #259, .T.);
#257 = VERTEX_POINT('', #258);
#258 = CARTESIAN_POINT('', (-0.85, 3.11366448683215E-15, -50.));
#259 = CIRCLE('', #260, 0.149999999999967);
#260 = AXIS2_PLACEMENT_3D('', #261, #262, #263);
#261 = CARTESIAN_POINT('', (-0.850000000000029, 3.10447963583855E-15, -49.85));
#262 = DIRECTION('', (-6.12323399573256E-17, -1., -6.12323399573294E-17));
#263 = DIRECTION('', (-1., 6.12323399573169E-17, 1.42108547152048E-13));
#264 = ORIENTED_EDGE('', *, *, #226, .T.);
#265 = ORIENTED_EDGE('', *, *, #256, .T.);
#266 = ORIENTED_EDGE('', *, *, #267, .F.);
#267 = EDGE_CURVE('', #257, #257, #268, .T.);
#268 = CIRCLE('', #269, 0.85);
#269 = AXIS2_PLACEMENT_3D('', #270, #271, #272);
#270 = CARTESIAN_POINT('', (-1.45716771982052E-16, 3.28903571045203E-15, -50.));
#271 = DIRECTION('', (0., 0., -1.));
#272 = DIRECTION('', (-1., -2.06319086611619E-16, 0.));
#273 = (
   BOUNDED_SURFACE ()
   B_SPLINE_SURFACE (2, 2, ((#274, #275, #276), (#277, #278, #279), (#280, #281, #282), (#283, #284, #285), (#286, #287, #288), (#289, #290, #291), (#292, #293, #294), (#295, #296, #297), (#298, #299, #300)), .UNSPECIFIED., .T., .F., .U.)
   B_SPLINE_SURFACE_WITH_KNOTS ((3, 2, 2, 2, 3), (3, 3), (0., 0.25, 0.5, 0.75, 1.), (0., 1.), .UNSPECIFIED.)
   GEOMETRIC_REPRESENTATION_ITEM ()
   RATIONAL_B_SPLINE_SURFACE (((1., 0.707106781186544, 1.), (0.707106781186548, 0.499999999999998, 0.707106781186548), (1., 0.707106781186544, 1.), (0.707106781186548, 0.499999999999998, 0.707106781186548), (1., 0.707106781186544, 1.), (0.707106781186548, 0.499999999999998, 0.707106781186548), (1., 0.707106781186544, 1.), (0.707106781186548, 0.499999999999998, 0.707106781186548), (1., 0.707106781186544, 1.)))
   REPRESENTATION_ITEM ('')
   SURFACE ()
);
#274 = CARTESIAN_POINT('', (-1., 3.11366448683215E-15, -49.85));
#275 = CARTESIAN_POINT('', (-1., 3.12284933782575E-15, -50.));
#276 = CARTESIAN_POINT('', (-0.85, 3.11366448683215E-15, -50.));
#277 = CARTESIAN_POINT('', (-1., 1., -49.85));
#278 = CARTESIAN_POINT('', (-1., 1., -50.));
#279 = CARTESIAN_POINT('', (-0.85, 0.850000000000003, -50.));
#280 = CARTESIAN_POINT('', (-4.06606464222971E-16, 1., -49.85));
#281 = CARTESIAN_POINT('', (-3.97421613229371E-16, 1., -50.));
#282 = CARTESIAN_POINT('', (-3.97421613229366E-16, 0.850000000000003, -50.));
#283 = CARTESIAN_POINT('', (1., 1., -49.85));
#284 = CARTESIAN_POINT('', (1., 1., -50.));
#285 = CARTESIAN_POINT('', (0.85, 0.850000000000004, -50.));
#286 = CARTESIAN_POINT('', (1., 3.8366717945273E-15, -49.85));
#287 = CARTESIAN_POINT('', (1., 3.8274869435337E-15, -50.));
#288 = CARTESIAN_POINT('', (0.85, 3.81830209254009E-15, -50.));
#289 = CARTESIAN_POINT('', (1., -0.999999999999996, -49.85));
#290 = CARTESIAN_POINT('', (1., -0.999999999999996, -50.));
#291 = CARTESIAN_POINT('', (0.85, -0.849999999999996, -50.));
#292 = CARTESIAN_POINT('', (4.38865523386912E-16, -0.999999999999997, -49.85));
#293 = CARTESIAN_POINT('', (4.29680672393313E-16, -0.999999999999997, -50.));
#294 = CARTESIAN_POINT('', (4.11310970406097E-16, -0.849999999999997, -50.));
#295 = CARTESIAN_POINT('', (-0.999999999999999, -0.999999999999997, -49.85));
#296 = CARTESIAN_POINT('', (-0.999999999999999, -0.999999999999997, -50.));
#297 = CARTESIAN_POINT('', (-0.849999999999999, -0.849999999999997, -50.));
#298 = CARTESIAN_POINT('', (-1., 3.11366448683215E-15, -49.85));
#299 = CARTESIAN_POINT('', (-1., 3.12284933782575E-15, -50.));
#300 = CARTESIAN_POINT('', (-0.85, 3.11366448683215E-15, -50.));
#301 = ADVANCED_FACE('', (#302), #305, .T.);
#302 = FACE_OUTER_BOUND('', #303, .T.);
#303 = EDGE_LOOP('', (#304));
#304 = ORIENTED_EDGE('', *, *, #267, .T.);
#305 = B_SPLINE_SURFACE_WITH_KNOTS('', 1, 1, ((#306, #307), (#308, #309)), .UNSPECIFIED., .F., .F., .U., (2, 2), (2, 2), (0.0454545454545454, 0.954545454545455), (0.0454545454545454, 0.954545454545455), .UNSPECIFIED.);
#306 = CARTESIAN_POINT('', (0.85, -0.849999999999997, -50.));
#307 = CARTESIAN_POINT('', (0.85, 0.850000000000003, -50.));
#308 = CARTESIAN_POINT('', (-0.85, -0.849999999999997, -50.));
#309 = CARTESIAN_POINT('', (-0.85, 0.850000000000003, -50.));
#310 = PRESENTATION_STYLE_ASSIGNMENT((#311));
#311 = SURFACE_STYLE_USAGE(.POSITIVE., #312);
#312 = SURFACE_SIDE_STYLE('', (#313));
#313 = SURFACE_STYLE_FILL_AREA(#314);
#314 = FILL_AREA_STYLE('', (#315));
#315 = FILL_AREA_STYLE_COLOUR('', #316);
#316 = COLOUR_RGB('', 0.8, 0.8, 0.8);
#317 = STYLED_ITEM('', (#310), #194);
#318 = TRIMMED_CURVE('cutting part line', #319, (#323), (#324), .T., .CARTESIAN.);
#319 = LINE('', #320, #321);
#320 = CARTESIAN_POINT('', (9.36750677027476E-17, 0., -50.));
#321 = VECTOR('', #322, 0.85);
#322 = DIRECTION('', (0.85, 0., 0.));
#323 = CARTESIAN_POINT('', (9.36750677027476E-17, 0., -50.));
#324 = CARTESIAN_POINT('', (0.85, 0., -50.));
#325 = TRIMMED_CURVE('cutting part line', #326, (#331), (#332), .T., .CARTESIAN.);
#326 = CIRCLE('', #327, 0.15000000000001);
#327 = AXIS2_PLACEMENT_3D('', #328, #329, #330);
#328 = CARTESIAN_POINT('', (0.849999999999994, 3.61559133587529E-15, -49.85));
#329 = DIRECTION('', (-1.73472347597664E-16, -1., 6.9388939039049E-17));
#330 = DIRECTION('', (3.92278802034189E-14, -6.93889390390559E-17, -1.));
#331 = CARTESIAN_POINT('', (0.85, 3.60518299501943E-15, -50.));
#332 = CARTESIAN_POINT('', (1., 3.58957048373564E-15, -49.85));
#333 = TRIMMED_CURVE('cutting part line', #334, (#338), (#339), .T., .CARTESIAN.);
#334 = LINE('', #335, #336);
#335 = CARTESIAN_POINT('', (0.999999999999999, 1.11005393228102E-16, -49.85));
#336 = VECTOR('', #337, 7.85);
#337 = DIRECTION('', (0., -1.11005393228102E-16, 7.85));
#338 = CARTESIAN_POINT('', (0.999999999999999, 1.11005393228102E-16, -49.85));
#339 = CARTESIAN_POINT('', (0.999999999999999, 0., -42.));
#340 = TRIMMED_CURVE('cutting part line', #341, (#345), (#346), .T., .CARTESIAN.);
#341 = LINE('', #342, #343);
#342 = CARTESIAN_POINT('', (1., 0., -42.));
#343 = VECTOR('', #344, 1.);
#344 = DIRECTION('', (-1., 0., 0.));
#345 = CARTESIAN_POINT('', (1., 0., -42.));
#346 = CARTESIAN_POINT('', (3.46944695195361E-18, 0., -42.));
#347 = TRIMMED_CURVE('cutting part line', #348, (#352), (#353), .T., .CARTESIAN.);
#348 = LINE('', #349, #350);
#349 = CARTESIAN_POINT('', (0., 0., -42.));
#350 = VECTOR('', #351, 7.99999999999999);
#351 = DIRECTION('', (0., 0., -7.99999999999999));
#352 = CARTESIAN_POINT('', (0., 0., -42.));
#353 = CARTESIAN_POINT('', (0., 0., -50.));
#354 = COMPOSITE_CURVE('cutting part line', (#355, #356, #357, #358, #359), .U.);
#355 = COMPOSITE_CURVE_SEGMENT(.CONTINUOUS., .T., #318);
#356 = COMPOSITE_CURVE_SEGMENT(.CONTINUOUS., .T., #325);
#357 = COMPOSITE_CURVE_SEGMENT(.CONTINUOUS., .T., #333);
#358 = COMPOSITE_CURVE_SEGMENT(.CONTINUOUS., .T., #340);
#359 = COMPOSITE_CURVE_SEGMENT(.CONTINUOUS., .T., #347);
#360 = GEOMETRIC_SET('', (#354, #403));
#361 = PRESENTATION_STYLE_ASSIGNMENT((#362));
#362 = CURVE_STYLE('', #364, POSITIVE_LENGTH_MEASURE(1.E-6), #363);
#363 = COLOUR_RGB('', 0., 0., 1.);
#364 = DRAUGHTING_PRE_DEFINED_CURVE_FONT('continuous');
#365 = STYLED_ITEM('', (#361), #354);
#366 = PRESENTATION_STYLE_ASSIGNMENT((#367));
#367 = CURVE_STYLE('', #369, POSITIVE_LENGTH_MEASURE(1.E-6), #368);
#368 = COLOUR_RGB('', 0., 0., 1.);
#369 = DRAUGHTING_PRE_DEFINED_CURVE_FONT('continuous');
#370 = OVER_RIDING_STYLED_ITEM('', (#366), #318, #365);
#371 = PRESENTATION_STYLE_ASSIGNMENT((#372));
#372 = CURVE_STYLE('', #374, POSITIVE_LENGTH_MEASURE(1.E-6), #373);
#373 = COLOUR_RGB('', 0., 0., 1.);
#374 = DRAUGHTING_PRE_DEFINED_CURVE_FONT('continuous');
#375 = OVER_RIDING_STYLED_ITEM('', (#371), #325, #365);
#376 = PRESENTATION_STYLE_ASSIGNMENT((#377));
#377 = CURVE_STYLE('', #379, POSITIVE_LENGTH_MEASURE(1.E-6), #378);
#378 = COLOUR_RGB('', 0., 0., 1.);
#379 = DRAUGHTING_PRE_DEFINED_CURVE_FONT('continuous');
#380 = OVER_RIDING_STYLED_ITEM('', (#376), #333, #365);
#381 = PRESENTATION_STYLE_ASSIGNMENT((#382));
#382 = CURVE_STYLE('', #384, POSITIVE_LENGTH_MEASURE(1.E-6), #383);
#383 = COLOUR_RGB('', 0., 0., 1.);
#384 = DRAUGHTING_PRE_DEFINED_CURVE_FONT('continuous');
#385 = OVER_RIDING_STYLED_ITEM('', (#381), #340, #365);
#386 = PRESENTATION_STYLE_ASSIGNMENT((#387));
#387 = CURVE_STYLE('', #389, POSITIVE_LENGTH_MEASURE(1.E-6), #388);
#388 = COLOUR_RGB('', 0., 0., 1.);
#389 = DRAUGHTING_PRE_DEFINED_CURVE_FONT('continuous');
#390 = OVER_RIDING_STYLED_ITEM('', (#386), #347, #365);
#391 = AXIS2_PLACEMENT_3D('MCS', #392, #393, #394);
#392 = CARTESIAN_POINT('', (0., 0., -28.));
#393 = DIRECTION('', (0., 0., 1.));
#394 = DIRECTION('', (1., 0., 0.));
#395 = AXIS2_PLACEMENT_3D('PCS', #396, #397, #398);
#396 = CARTESIAN_POINT('', (0., 0., 0.));
#397 = DIRECTION('', (0., 0., 1.));
#398 = DIRECTION('', (1., 0., 0.));
#399 = AXIS2_PLACEMENT_3D('CIP', #400, #401, #402);
#400 = CARTESIAN_POINT('', (0., 0., -50.));
#401 = DIRECTION('', (0., 0., 1.));
#402 = DIRECTION('', (1., 0., 0.));
#403 = CARTESIAN_POINT('CRP', (1., 0., -50.));
#404 = (
   GEOMETRIC_REPRESENTATION_CONTEXT (3)
   GLOBAL_UNCERTAINTY_ASSIGNED_CONTEXT ((#406))
   GLOBAL_UNIT_ASSIGNED_CONTEXT ((#405, #407, #408))
   REPRESENTATION_CONTEXT ('', '3D')
);
#405 = (
   LENGTH_UNIT ()
   NAMED_UNIT (*)
   SI_UNIT (.MILLI., .METRE.)
);
#406 = UNCERTAINTY_MEASURE_WITH_UNIT(LENGTH_MEASURE(1.E-6), #405, 'DISTANCE_ACCURACY_VALUE', '');
#407 = (
   NAMED_UNIT (*)
   SI_UNIT ($, .STERADIAN.)
   SOLID_ANGLE_UNIT ()
);
#408 = (
   NAMED_UNIT (*)
   PLANE_ANGLE_UNIT ()
   SI_UNIT ($, .RADIAN.)
);
#409 = SHAPE_REPRESENTATION('', (), #404);
#410 = PRODUCT_DEFINITION_SHAPE('', '', #411);
#411 = PRODUCT_DEFINITION('', '', #414, #418);
#412 = APPLICATION_CONTEXT('configuration controlled 3D designs of mechanical parts and assemblies');
#413 = APPLICATION_PROTOCOL_DEFINITION('International Standard', 'automotive_design', 2002, #412);
#414 = PRODUCT_DEFINITION_FORMATION_WITH_SPECIFIED_SOURCE('', '', #415, .NOT_KNOWN.);
#415 = PRODUCT('product-name', '2P170-0200-NA       H10F', '', (#416));
#416 = PRODUCT_CONTEXT('', #412, 'mechanical');
#417 = PRODUCT_RELATED_PRODUCT_CATEGORY('detail', '', (#415));
#418 = PRODUCT_DEFINITION_CONTEXT('part definition', #412, 'design');
#419 = SHAPE_DEFINITION_REPRESENTATION(#410, #409);
#420 = CONSTRUCTIVE_GEOMETRY_REPRESENTATION('supplemental geometry', (#391, #395, #399), #404);
#421 = CONSTRUCTIVE_GEOMETRY_REPRESENTATION_RELATIONSHIP('', '', #409, #420);
#422 = SHAPE_REPRESENTATION_RELATIONSHIP('', '', #409, #423);
#423 = SHAPE_REPRESENTATION('', (#360), #404);
#424 = SHAPE_REPRESENTATION_RELATIONSHIP('', '', #409, #425);
#425 = ADVANCED_BREP_SHAPE_REPRESENTATION('', (#1, #194), #404);
ENDSEC;
END-ISO-10303-21;
