ISO-10303-21;
HEADER;
FILE_DESCRIPTION(('STEP'), '1');
FILE_NAME('C:\\Users\\ds2002\\OneDrive - Sandvik\\HomeShare\\Documents\\Batchrepair\\CorSRT2\\NEW_MILSQ_SLD\\Output\\MOD000000000000000020082309200000.stp', '2019-01-02T12:11:18', (''), (''), 'Express v3.0.0.0', 'Express Tool', 'Unknown');
FILE_SCHEMA(('AUTOMOTIVE_DESIGN'));
ENDSEC;

DATA;
#1 = MANIFOLD_SOLID_BREP('NOCUT', #2);
#2 = CLOSED_SHELL('', (#3, #50, #89, #98, #137));
#3 = ADVANCED_FACE('', (#4), #31, .T.);
#4 = FACE_OUTER_BOUND('', #5, .T.);
#5 = EDGE_LOOP('', (#6, #16, #23, #24));
#6 = ORIENTED_EDGE('', *, *, #7, .T.);
#7 = EDGE_CURVE('', #8, #10, #12, .T.);
#8 = VERTEX_POINT('', #9);
#9 = CARTESIAN_POINT('', (-2., 1.83697019872103E-15, -28.));
#10 = VERTEX_POINT('', #11);
#11 = CARTESIAN_POINT('', (-2., 1.34711147906209E-16, -0.199999999999999));
#12 = LINE('', #13, #14);
#13 = CARTESIAN_POINT('', (-2., 1.83697019872103E-15, -28.));
#14 = VECTOR('', #15, 27.8);
#15 = DIRECTION('', (0., -1.70225905081482E-15, 27.8));
#16 = ORIENTED_EDGE('', *, *, #17, .T.);
#17 = EDGE_CURVE('', #10, #10, #18, .T.);
#18 = CIRCLE('', #19, 2.);
#19 = AXIS2_PLACEMENT_3D('', #20, #21, #22);
#20 = CARTESIAN_POINT('', (-1.04083408558608E-16, -6.66133814775094E-16, -0.2));
#21 = DIRECTION('', (-4.16333634234433E-16, 1.1655308171574E-15, -1.));
#22 = DIRECTION('', (-1., 4.00422481340651E-16, 4.16333634234434E-16));
#23 = ORIENTED_EDGE('', *, *, #7, .F.);
#24 = ORIENTED_EDGE('', *, *, #25, .F.);
#25 = EDGE_CURVE('', #8, #8, #26, .T.);
#26 = CIRCLE('', #27, 2.);
#27 = AXIS2_PLACEMENT_3D('', #28, #29, #30);
#28 = CARTESIAN_POINT('', (9.0205620750794E-17, 9.43689570931383E-16, -28.));
#29 = DIRECTION('', (2.70034152634654E-30, 6.0458974309749E-15, -1.));
#30 = DIRECTION('', (-1., 4.46640313894823E-16, 0.));
#31 = (
   BOUNDED_SURFACE ()
   B_SPLINE_SURFACE (1, 2, ((#32, #33, #34, #35, #36, #37, #38, #39, #40), (#41, #42, #43, #44, #45, #46, #47, #48, #49)), .UNSPECIFIED., .F., .T., .U.)
   B_SPLINE_SURFACE_WITH_KNOTS ((2, 2), (3, 2, 2, 2, 3), (0., 1.), (0., 3.1415926535898, 6.2831853071796, 9.4247779607694, 12.5663706143592), .UNSPECIFIED.)
   GEOMETRIC_REPRESENTATION_ITEM ()
   RATIONAL_B_SPLINE_SURFACE (((1., 0.707106781186548, 1., 0.707106781186548, 1., 0.707106781186548, 1., 0.707106781186548, 1.), (1., 0.707106781186548, 1., 0.707106781186548, 1., 0.707106781186548, 1., 0.707106781186548, 1.)))
   REPRESENTATION_ITEM ('')
   SURFACE ()
);
#32 = CARTESIAN_POINT('', (-2.00000000000001, 9.11867265143823E-16, -28.));
#33 = CARTESIAN_POINT('', (-2.00000000000001, 2., -28.));
#34 = CARTESIAN_POINT('', (-1.09997781575093E-14, 2., -28.));
#35 = CARTESIAN_POINT('', (1.99999999999999, 2., -28.));
#36 = CARTESIAN_POINT('', (1.99999999999999, -4.44893300389312E-16, -28.));
#37 = CARTESIAN_POINT('', (1.99999999999999, -2., -28.));
#38 = CARTESIAN_POINT('', (-1.2111609363213E-14, -2., -28.));
#39 = CARTESIAN_POINT('', (-2.00000000000001, -2., -28.));
#40 = CARTESIAN_POINT('', (-2.00000000000001, 9.11867265143823E-16, -28.));
#41 = CARTESIAN_POINT('', (-2., 1.34711147906209E-16, -0.199999999999999));
#42 = CARTESIAN_POINT('', (-2., 2., -0.199999999999999));
#43 = CARTESIAN_POINT('', (5.74296874207959E-16, 2., -0.2));
#44 = CARTESIAN_POINT('', (2., 2., -0.200000000000001));
#45 = CARTESIAN_POINT('', (2., -1.22204941762693E-15, -0.200000000000001));
#46 = CARTESIAN_POINT('', (2., -2., -0.200000000000001));
#47 = CARTESIAN_POINT('', (-5.37534331495705E-16, -2., -0.2));
#48 = CARTESIAN_POINT('', (-2., -2., -0.199999999999999));
#49 = CARTESIAN_POINT('', (-2., 1.34711147906209E-16, -0.199999999999999));
#50 = ADVANCED_FACE('', (#51), #70, .T.);
#51 = FACE_OUTER_BOUND('', #52, .T.);
#52 = EDGE_LOOP('', (#53, #61, #68, #69));
#53 = ORIENTED_EDGE('', *, *, #54, .T.);
#54 = EDGE_CURVE('', #10, #55, #57, .T.);
#55 = VERTEX_POINT('', #56);
#56 = CARTESIAN_POINT('', (-1.8, 1.10218211923262E-16, 0.));
#57 = LINE('', #58, #59);
#58 = CARTESIAN_POINT('', (-2., 1.34711147906209E-16, -0.199999999999999));
#59 = VECTOR('', #60, 0.282842712474618);
#60 = DIRECTION('', (0.2, -2.4492935982947E-17, 0.199999999999999));
#61 = ORIENTED_EDGE('', *, *, #62, .T.);
#62 = EDGE_CURVE('', #55, #55, #63, .T.);
#63 = CIRCLE('', #64, 1.8);
#64 = AXIS2_PLACEMENT_3D('', #65, #66, #67);
#65 = CARTESIAN_POINT('', (-2.08166817117217E-17, -1.66533453693773E-16, -7.78751025318189E-16));
#66 = DIRECTION('', (-4.32639458510105E-16, 1.26401621069751E-15, -1.));
#67 = DIRECTION('', (-1., 1.53750925342797E-16, 4.32639458510105E-16));
#68 = ORIENTED_EDGE('', *, *, #54, .F.);
#69 = ORIENTED_EDGE('', *, *, #17, .F.);
#70 = (
   BOUNDED_SURFACE ()
   B_SPLINE_SURFACE (1, 2, ((#71, #72, #73, #74, #75, #76, #77, #78, #79), (#80, #81, #82, #83, #84, #85, #86, #87, #88)), .UNSPECIFIED., .F., .T., .U.)
   B_SPLINE_SURFACE_WITH_KNOTS ((2, 2), (3, 2, 2, 2, 3), (0., 1.), (0., 0.25, 0.5, 0.75, 1.), .UNSPECIFIED.)
   GEOMETRIC_REPRESENTATION_ITEM ()
   RATIONAL_B_SPLINE_SURFACE (((1., 0.707106781186548, 1., 0.707106781186548, 1., 0.707106781186548, 1., 0.707106781186548, 1.), (1., 0.707106781186548, 1., 0.707106781186548, 1., 0.707106781186548, 1., 0.707106781186548, 1.)))
   REPRESENTATION_ITEM ('')
   SURFACE ()
);
#71 = CARTESIAN_POINT('', (-2., -1.02476577886459E-15, -0.199999999999999));
#72 = CARTESIAN_POINT('', (-2., 2., -0.200000000000011));
#73 = CARTESIAN_POINT('', (7.76925973571121E-17, 2., -0.200000000000012));
#74 = CARTESIAN_POINT('', (2., 2., -0.200000000000012));
#75 = CARTESIAN_POINT('', (2., -1.39484012040631E-15, -0.200000000000001));
#76 = CARTESIAN_POINT('', (2., -2., -0.199999999999989));
#77 = CARTESIAN_POINT('', (-4.74523843551264E-17, -2., -0.199999999999988));
#78 = CARTESIAN_POINT('', (-2., -2., -0.199999999999987));
#79 = CARTESIAN_POINT('', (-2., -1.02476577886459E-15, -0.199999999999999));
#80 = CARTESIAN_POINT('', (-1.8, 1.10218211923262E-16, 0.));
#81 = CARTESIAN_POINT('', (-1.8, 1.8, -1.04916075827078E-14));
#82 = CARTESIAN_POINT('', (1.45716771982047E-16, 1.8, -1.1270358608026E-14));
#83 = CARTESIAN_POINT('', (1.8, 1.8, -1.20491096333442E-14));
#84 = CARTESIAN_POINT('', (1.8, -2.22848695464285E-16, -1.55750205063638E-15));
#85 = CARTESIAN_POINT('', (1.8, -1.8, 8.93410553207139E-15));
#86 = CARTESIAN_POINT('', (3.30862884410328E-17, -1.8, 9.71285655738959E-15));
#87 = CARTESIAN_POINT('', (-1.8, -1.8, 1.04916075827078E-14));
#88 = CARTESIAN_POINT('', (-1.8, 1.10218211923262E-16, 0.));
#89 = ADVANCED_FACE('', (#90), #93, .T.);
#90 = FACE_OUTER_BOUND('', #91, .T.);
#91 = EDGE_LOOP('', (#92));
#92 = ORIENTED_EDGE('', *, *, #62, .F.);
#93 = B_SPLINE_SURFACE_WITH_KNOTS('', 1, 1, ((#94, #95), (#96, #97)), .UNSPECIFIED., .F., .F., .U., (2, 2), (2, 2), (0.0454545454545454, 0.954545454545455), (0.0454545454545454, 0.954545454545454), .UNSPECIFIED.);
#94 = CARTESIAN_POINT('', (1.8, -1.8, -1.10218211923262E-16));
#95 = CARTESIAN_POINT('', (-1.8, -1.8, -1.10218211923262E-16));
#96 = CARTESIAN_POINT('', (1.8, 1.8, 1.10218211923262E-16));
#97 = CARTESIAN_POINT('', (-1.8, 1.8, 1.10218211923262E-16));
#98 = ADVANCED_FACE('', (#99), #118, .T.);
#99 = FACE_OUTER_BOUND('', #100, .T.);
#100 = EDGE_LOOP('', (#101, #110, #116, #117));
#101 = ORIENTED_EDGE('', *, *, #102, .F.);
#102 = EDGE_CURVE('', #103, #103, #105, .T.);
#103 = VERTEX_POINT('', #104);
#104 = CARTESIAN_POINT('', (-2., 2.32682891837997E-15, -36.));
#105 = CIRCLE('', #106, 2.);
#106 = AXIS2_PLACEMENT_3D('', #107, #108, #109);
#107 = CARTESIAN_POINT('', (1.2490009027033E-16, 1.88737914186277E-15, -36.));
#108 = DIRECTION('', (0., 0., -1.));
#109 = DIRECTION('', (-1., 2.19724888258602E-16, 0.));
#110 = ORIENTED_EDGE('', *, *, #111, .F.);
#111 = EDGE_CURVE('', #8, #103, #112, .T.);
#112 = LINE('', #113, #114);
#113 = CARTESIAN_POINT('', (-2., 1.83697019872103E-15, -28.));
#114 = VECTOR('', #115, 8.);
#115 = DIRECTION('', (0., 4.8985871965894E-16, -8.));
#116 = ORIENTED_EDGE('', *, *, #25, .T.);
#117 = ORIENTED_EDGE('', *, *, #111, .T.);
#118 = (
   BOUNDED_SURFACE ()
   B_SPLINE_SURFACE (2, 1, ((#119, #120), (#121, #122), (#123, #124), (#125, #126), (#127, #128), (#129, #130), (#131, #132), (#133, #134), (#135, #136)), .UNSPECIFIED., .T., .F., .U.)
   B_SPLINE_SURFACE_WITH_KNOTS ((3, 2, 2, 2, 3), (2, 2), (0., 3.1415926535898, 6.2831853071796, 9.4247779607694, 12.5663706143592), (0., 0.363636363636364), .UNSPECIFIED.)
   GEOMETRIC_REPRESENTATION_ITEM ()
   RATIONAL_B_SPLINE_SURFACE (((1., 1.), (0.707106781186548, 0.707106781186548), (1., 1.), (0.707106781186548, 0.707106781186548), (1., 1.), (0.707106781186548, 0.707106781186548), (1., 1.), (0.707106781186548, 0.707106781186548), (1., 1.)))
   REPRESENTATION_ITEM ('')
   SURFACE ()
);
#119 = CARTESIAN_POINT('', (-2., 1.83697019872103E-15, -28.));
#120 = CARTESIAN_POINT('', (-2., 2.22554825733984E-15, -36.));
#121 = CARTESIAN_POINT('', (-2., 2., -28.));
#122 = CARTESIAN_POINT('', (-2., 2., -36.));
#123 = CARTESIAN_POINT('', (1.32592746018749E-15, 2., -28.));
#124 = CARTESIAN_POINT('', (1.32592746018749E-15, 2., -36.));
#125 = CARTESIAN_POINT('', (2., 2., -28.));
#126 = CARTESIAN_POINT('', (2., 2., -36.));
#127 = CARTESIAN_POINT('', (2., -1.36999623396653E-15, -28.));
#128 = CARTESIAN_POINT('', (2., -9.81418175347724E-16, -36.));
#129 = CARTESIAN_POINT('', (2., -2., -28.));
#130 = CARTESIAN_POINT('', (2., -2., -36.));
#131 = CARTESIAN_POINT('', (-1.6361096126706E-15, -2., -28.));
#132 = CARTESIAN_POINT('', (-1.6361096126706E-15, -2., -36.));
#133 = CARTESIAN_POINT('', (-2., -2., -28.));
#134 = CARTESIAN_POINT('', (-2., -2., -36.));
#135 = CARTESIAN_POINT('', (-2., 1.83697019872103E-15, -28.));
#136 = CARTESIAN_POINT('', (-2., 2.22554825733984E-15, -36.));
#137 = ADVANCED_FACE('', (#138), #141, .T.);
#138 = FACE_OUTER_BOUND('', #139, .T.);
#139 = EDGE_LOOP('', (#140));
#140 = ORIENTED_EDGE('', *, *, #102, .T.);
#141 = B_SPLINE_SURFACE_WITH_KNOTS('', 1, 1, ((#142, #143), (#144, #145)), .UNSPECIFIED., .F., .F., .U., (2, 2), (2, 2), (0.488871008195155, 0.52861743622916), (0.47138256377084, 0.511128991804845), .UNSPECIFIED.);
#142 = CARTESIAN_POINT('', (-2.00000000000001, 2.00000000000002, -36.));
#143 = CARTESIAN_POINT('', (-2.00000000000001, -1.99999999999998, -36.));
#144 = CARTESIAN_POINT('', (1.99999999999999, 2.00000000000002, -36.));
#145 = CARTESIAN_POINT('', (1.99999999999999, -1.99999999999998, -36.));
#146 = DRAUGHTING_MODEL('', (#154, #229, #268, #273, #278, #283, #288), #302);
#147 = PRESENTATION_STYLE_ASSIGNMENT((#148));
#148 = SURFACE_STYLE_USAGE(.POSITIVE., #149);
#149 = SURFACE_SIDE_STYLE('', (#150));
#150 = SURFACE_STYLE_FILL_AREA(#151);
#151 = FILL_AREA_STYLE('', (#152));
#152 = FILL_AREA_STYLE_COLOUR('', #153);
#153 = COLOUR_RGB('', 0.50196078431373, 0.50196078431373, 0.50196078431373);
#154 = STYLED_ITEM('', (#147), #1);
#155 = MANIFOLD_SOLID_BREP('CUT', #156);
#156 = CLOSED_SHELL('', (#157, #174, #213));
#157 = ADVANCED_FACE('', (#158), #169, .T.);
#158 = FACE_OUTER_BOUND('', #159, .T.);
#159 = EDGE_LOOP('', (#160));
#160 = ORIENTED_EDGE('', *, *, #161, .F.);
#161 = EDGE_CURVE('', #162, #162, #164, .T.);
#162 = VERTEX_POINT('', #163);
#163 = CARTESIAN_POINT('', (-2., 2.32682891837997E-15, -36.));
#164 = CIRCLE('', #165, 2.);
#165 = AXIS2_PLACEMENT_3D('', #166, #167, #168);
#166 = CARTESIAN_POINT('', (1.2490009027033E-16, 1.88737914186277E-15, -36.));
#167 = DIRECTION('', (0., 0., -1.));
#168 = DIRECTION('', (-1., 2.19724888258602E-16, 0.));
#169 = B_SPLINE_SURFACE_WITH_KNOTS('', 1, 1, ((#170, #171), (#172, #173)), .UNSPECIFIED., .F., .F., .U., (2, 2), (2, 2), (0.47138256377084, 0.511128991804845), (0.488871008195155, 0.52861743622916), .UNSPECIFIED.);
#170 = CARTESIAN_POINT('', (-2., 2., -36.));
#171 = CARTESIAN_POINT('', (2., 2., -36.));
#172 = CARTESIAN_POINT('', (-2., -2., -36.));
#173 = CARTESIAN_POINT('', (2., -2., -36.));
#174 = ADVANCED_FACE('', (#175), #194, .T.);
#175 = FACE_OUTER_BOUND('', #176, .T.);
#176 = EDGE_LOOP('', (#177, #178, #186, #193));
#177 = ORIENTED_EDGE('', *, *, #161, .T.);
#178 = ORIENTED_EDGE('', *, *, #179, .T.);
#179 = EDGE_CURVE('', #162, #180, #182, .T.);
#180 = VERTEX_POINT('', #181);
#181 = CARTESIAN_POINT('', (-2., 3.18408167778312E-15, -50.));
#182 = LINE('', #183, #184);
#183 = CARTESIAN_POINT('', (-2., 2.32682891837997E-15, -36.));
#184 = VECTOR('', #185, 14.);
#185 = DIRECTION('', (0., 8.5725275940315E-16, -14.));
#186 = ORIENTED_EDGE('', *, *, #187, .F.);
#187 = EDGE_CURVE('', #180, #180, #188, .T.);
#188 = CIRCLE('', #189, 2.);
#189 = AXIS2_PLACEMENT_3D('', #190, #191, #192);
#190 = CARTESIAN_POINT('', (-2.28983498828939E-16, 6.10622663543836E-16, -50.));
#191 = DIRECTION('', (1.55588692429087E-29, 1.209179486195E-14, -1.));
#192 = DIRECTION('', (-1., 1.28672950711964E-15, 0.));
#193 = ORIENTED_EDGE('', *, *, #179, .F.);
#194 = (
   BOUNDED_SURFACE ()
   B_SPLINE_SURFACE (2, 1, ((#195, #196), (#197, #198), (#199, #200), (#201, #202), (#203, #204), (#205, #206), (#207, #208), (#209, #210), (#211, #212)), .UNSPECIFIED., .T., .F., .U.)
   B_SPLINE_SURFACE_WITH_KNOTS ((3, 2, 2, 2, 3), (2, 2), (0., 3.1415926535898, 6.2831853071796, 9.4247779607694, 12.5663706143592), (0.363636363636364, 1.), .UNSPECIFIED.)
   GEOMETRIC_REPRESENTATION_ITEM ()
   RATIONAL_B_SPLINE_SURFACE (((1., 1.), (0.707106781186548, 0.707106781186548), (1., 1.), (0.707106781186548, 0.707106781186548), (1., 1.), (0.707106781186548, 0.707106781186548), (1., 1.), (0.707106781186548, 0.707106781186548), (1., 1.)))
   REPRESENTATION_ITEM ('')
   SURFACE ()
);
#195 = CARTESIAN_POINT('', (-2., 2.32682891837997E-15, -36.));
#196 = CARTESIAN_POINT('', (-2., 2.43785122084249E-15, -50.));
#197 = CARTESIAN_POINT('', (-2., 2., -36.));
#198 = CARTESIAN_POINT('', (-2., 2., -50.));
#199 = CARTESIAN_POINT('', (1.41333033341981E-15, 2., -36.));
#200 = CARTESIAN_POINT('', (1.41333033341981E-15, 2., -50.));
#201 = CARTESIAN_POINT('', (2., 2., -36.));
#202 = CARTESIAN_POINT('', (2., 2., -50.));
#203 = CARTESIAN_POINT('', (2., -1.08269883638786E-15, -36.));
#204 = CARTESIAN_POINT('', (2., -9.71676533925343E-16, -50.));
#205 = CARTESIAN_POINT('', (2., -2., -36.));
#206 = CARTESIAN_POINT('', (2., -2., -50.));
#207 = CARTESIAN_POINT('', (-1.75126806151855E-15, -2., -36.));
#208 = CARTESIAN_POINT('', (-1.75126806151855E-15, -2., -50.));
#209 = CARTESIAN_POINT('', (-2., -2., -36.));
#210 = CARTESIAN_POINT('', (-2., -2., -50.));
#211 = CARTESIAN_POINT('', (-2., 2.32682891837997E-15, -36.));
#212 = CARTESIAN_POINT('', (-2., 2.43785122084249E-15, -50.));
#213 = ADVANCED_FACE('', (#214), #217, .T.);
#214 = FACE_OUTER_BOUND('', #215, .T.);
#215 = EDGE_LOOP('', (#216));
#216 = ORIENTED_EDGE('', *, *, #187, .T.);
#217 = B_SPLINE_SURFACE_WITH_KNOTS('', 1, 1, ((#218, #219), (#220, #221)), .UNSPECIFIED., .F., .F., .U., (2, 2), (2, 2), (0.0454545454545455, 0.954545454545454), (0.0454545454545454, 0.954545454545454), .UNSPECIFIED.);
#218 = CARTESIAN_POINT('', (2., -2., -50.));
#219 = CARTESIAN_POINT('', (2., 2., -50.));
#220 = CARTESIAN_POINT('', (-2., -2., -50.));
#221 = CARTESIAN_POINT('', (-2., 2., -50.));
#222 = PRESENTATION_STYLE_ASSIGNMENT((#223));
#223 = SURFACE_STYLE_USAGE(.POSITIVE., #224);
#224 = SURFACE_SIDE_STYLE('', (#225));
#225 = SURFACE_STYLE_FILL_AREA(#226);
#226 = FILL_AREA_STYLE('', (#227));
#227 = FILL_AREA_STYLE_COLOUR('', #228);
#228 = COLOUR_RGB('', 0.8, 0.8, 0.8);
#229 = STYLED_ITEM('', (#222), #155);
#230 = TRIMMED_CURVE('cutting part line', #231, (#235), (#236), .T., .CARTESIAN.);
#231 = LINE('', #232, #233);
#232 = CARTESIAN_POINT('', (-3.88578058618805E-16, 0., -50.));
#233 = VECTOR('', #234, 2.);
#234 = DIRECTION('', (2., 0., 7.105427357601E-15));
#235 = CARTESIAN_POINT('', (-3.88578058618805E-16, 0., -50.));
#236 = CARTESIAN_POINT('', (2., 0., -50.));
#237 = TRIMMED_CURVE('cutting part line', #238, (#242), (#243), .T., .CARTESIAN.);
#238 = LINE('', #239, #240);
#239 = CARTESIAN_POINT('', (2., 1.11005393228102E-16, -50.));
#240 = VECTOR('', #241, 14.);
#241 = DIRECTION('', (0., -1.11005393228102E-16, 14.));
#242 = CARTESIAN_POINT('', (2., 1.11005393228102E-16, -50.));
#243 = CARTESIAN_POINT('', (2., 0., -36.));
#244 = TRIMMED_CURVE('cutting part line', #245, (#249), (#250), .T., .CARTESIAN.);
#245 = LINE('', #246, #247);
#246 = CARTESIAN_POINT('', (2., 0., -36.));
#247 = VECTOR('', #248, 2.);
#248 = DIRECTION('', (-2., 0., -7.105427357601E-15));
#249 = CARTESIAN_POINT('', (2., 0., -36.));
#250 = CARTESIAN_POINT('', (6.93889390390723E-18, 0., -36.));
#251 = TRIMMED_CURVE('cutting part line', #252, (#256), (#257), .T., .CARTESIAN.);
#252 = LINE('', #253, #254);
#253 = CARTESIAN_POINT('', (0., 0., -36.));
#254 = VECTOR('', #255, 14.);
#255 = DIRECTION('', (0., 0., -14.));
#256 = CARTESIAN_POINT('', (0., 0., -36.));
#257 = CARTESIAN_POINT('', (0., 0., -50.));
#258 = COMPOSITE_CURVE('cutting part line', (#259, #260, #261, #262), .U.);
#259 = COMPOSITE_CURVE_SEGMENT(.CONTINUOUS., .T., #230);
#260 = COMPOSITE_CURVE_SEGMENT(.CONTINUOUS., .T., #237);
#261 = COMPOSITE_CURVE_SEGMENT(.CONTINUOUS., .T., #244);
#262 = COMPOSITE_CURVE_SEGMENT(.CONTINUOUS., .T., #251);
#263 = GEOMETRIC_SET('', (#258, #301));
#264 = PRESENTATION_STYLE_ASSIGNMENT((#265));
#265 = CURVE_STYLE('', #267, POSITIVE_LENGTH_MEASURE(1.E-6), #266);
#266 = COLOUR_RGB('', 0., 0., 1.);
#267 = DRAUGHTING_PRE_DEFINED_CURVE_FONT('continuous');
#268 = STYLED_ITEM('', (#264), #258);
#269 = PRESENTATION_STYLE_ASSIGNMENT((#270));
#270 = CURVE_STYLE('', #272, POSITIVE_LENGTH_MEASURE(1.E-6), #271);
#271 = COLOUR_RGB('', 0., 0., 1.);
#272 = DRAUGHTING_PRE_DEFINED_CURVE_FONT('continuous');
#273 = OVER_RIDING_STYLED_ITEM('', (#269), #230, #268);
#274 = PRESENTATION_STYLE_ASSIGNMENT((#275));
#275 = CURVE_STYLE('', #277, POSITIVE_LENGTH_MEASURE(1.E-6), #276);
#276 = COLOUR_RGB('', 0., 0., 1.);
#277 = DRAUGHTING_PRE_DEFINED_CURVE_FONT('continuous');
#278 = OVER_RIDING_STYLED_ITEM('', (#274), #237, #268);
#279 = PRESENTATION_STYLE_ASSIGNMENT((#280));
#280 = CURVE_STYLE('', #282, POSITIVE_LENGTH_MEASURE(1.E-6), #281);
#281 = COLOUR_RGB('', 0., 0., 1.);
#282 = DRAUGHTING_PRE_DEFINED_CURVE_FONT('continuous');
#283 = OVER_RIDING_STYLED_ITEM('', (#279), #244, #268);
#284 = PRESENTATION_STYLE_ASSIGNMENT((#285));
#285 = CURVE_STYLE('', #287, POSITIVE_LENGTH_MEASURE(1.E-6), #286);
#286 = COLOUR_RGB('', 0., 0., 1.);
#287 = DRAUGHTING_PRE_DEFINED_CURVE_FONT('continuous');
#288 = OVER_RIDING_STYLED_ITEM('', (#284), #251, #268);
#289 = AXIS2_PLACEMENT_3D('MCS', #290, #291, #292);
#290 = CARTESIAN_POINT('', (0., 0., -28.));
#291 = DIRECTION('', (0., 0., 1.));
#292 = DIRECTION('', (1., 0., 0.));
#293 = AXIS2_PLACEMENT_3D('PCS', #294, #295, #296);
#294 = CARTESIAN_POINT('', (0., 0., 0.));
#295 = DIRECTION('', (0., 0., 1.));
#296 = DIRECTION('', (1., 0., 0.));
#297 = AXIS2_PLACEMENT_3D('CIP', #298, #299, #300);
#298 = CARTESIAN_POINT('', (0., 0., -50.));
#299 = DIRECTION('', (0., 0., 1.));
#300 = DIRECTION('', (1., 0., 0.));
#301 = CARTESIAN_POINT('CRP', (2., 0., -50.));
#302 = (
   GEOMETRIC_REPRESENTATION_CONTEXT (3)
   GLOBAL_UNCERTAINTY_ASSIGNED_CONTEXT ((#304))
   GLOBAL_UNIT_ASSIGNED_CONTEXT ((#303, #305, #306))
   REPRESENTATION_CONTEXT ('', '3D')
);
#303 = (
   LENGTH_UNIT ()
   NAMED_UNIT (*)
   SI_UNIT (.MILLI., .METRE.)
);
#304 = UNCERTAINTY_MEASURE_WITH_UNIT(LENGTH_MEASURE(1.E-6), #303, 'DISTANCE_ACCURACY_VALUE', '');
#305 = (
   NAMED_UNIT (*)
   SI_UNIT ($, .STERADIAN.)
   SOLID_ANGLE_UNIT ()
);
#306 = (
   NAMED_UNIT (*)
   PLANE_ANGLE_UNIT ()
   SI_UNIT ($, .RADIAN.)
);
#307 = SHAPE_REPRESENTATION('', (), #302);
#308 = PRODUCT_DEFINITION_SHAPE('', '', #309);
#309 = PRODUCT_DEFINITION('', '', #312, #316);
#310 = APPLICATION_CONTEXT('configuration controlled 3D designs of mechanical parts and assemblies');
#311 = APPLICATION_PROTOCOL_DEFINITION('International Standard', 'automotive_design', 2002, #310);
#312 = PRODUCT_DEFINITION_FORMATION_WITH_SPECIFIED_SOURCE('', '', #313, .NOT_KNOWN.);
#313 = PRODUCT('product-name', '2P160-0400-NA       H10F', '', (#314));
#314 = PRODUCT_CONTEXT('', #310, 'mechanical');
#315 = PRODUCT_RELATED_PRODUCT_CATEGORY('detail', '', (#313));
#316 = PRODUCT_DEFINITION_CONTEXT('part definition', #310, 'design');
#317 = SHAPE_DEFINITION_REPRESENTATION(#308, #307);
#318 = CONSTRUCTIVE_GEOMETRY_REPRESENTATION('supplemental geometry', (#289, #293, #297), #302);
#319 = CONSTRUCTIVE_GEOMETRY_REPRESENTATION_RELATIONSHIP('', '', #307, #318);
#320 = SHAPE_REPRESENTATION_RELATIONSHIP('', '', #307, #321);
#321 = SHAPE_REPRESENTATION('', (#263), #302);
#322 = SHAPE_REPRESENTATION_RELATIONSHIP('', '', #307, #323);
#323 = ADVANCED_BREP_SHAPE_REPRESENTATION('', (#1, #155), #302);
ENDSEC;
END-ISO-10303-21;
