ISO-10303-21;
HEADER;
FILE_DESCRIPTION(('STEP'), '1');
FILE_NAME('C:\\Users\\ds2002\\OneDrive - Sandvik\\HomeShare\\Documents\\Batchrepair\\CorSRT2\\NEW_MILSQ_SLD\\Output\\MOD000000000000000020082308900000.stp', '2019-01-02T12:11:02', (''), (''), 'Express v3.0.0.0', 'Express Tool', 'Unknown');
FILE_SCHEMA(('AUTOMOTIVE_DESIGN'));
ENDSEC;

DATA;
#1 = MANIFOLD_SOLID_BREP('NOCUT', #2);
#2 = CLOSED_SHELL('', (#3, #31, #70, #109, #148, #157, #196));
#3 = ADVANCED_FACE('', (#4, #15), #26, .T.);
#4 = FACE_OUTER_BOUND('', #5, .T.);
#5 = EDGE_LOOP('', (#6));
#6 = ORIENTED_EDGE('', *, *, #7, .F.);
#7 = EDGE_CURVE('', #8, #8, #10, .T.);
#8 = VERTEX_POINT('', #9);
#9 = CARTESIAN_POINT('', (-10., 8.1439012143299E-15, -123.));
#10 = CIRCLE('', #11, 10.);
#11 = AXIS2_PLACEMENT_3D('', #12, #13, #14);
#12 = CARTESIAN_POINT('', (-2.27595720048157E-15, 7.7715611723761E-15, -123.));
#13 = DIRECTION('', (0., 0., -1.));
#14 = DIRECTION('', (-1., 3.72340041953804E-17, 0.));
#15 = FACE_BOUND('', #16, .T.);
#16 = EDGE_LOOP('', (#17));
#17 = ORIENTED_EDGE('', *, *, #18, .T.);
#18 = EDGE_CURVE('', #19, #19, #21, .T.);
#19 = VERTEX_POINT('', #20);
#20 = CARTESIAN_POINT('', (-9.85, 8.13471636333629E-15, -123.));
#21 = CIRCLE('', #22, 9.85);
#22 = AXIS2_PLACEMENT_3D('', #23, #24, #25);
#23 = CARTESIAN_POINT('', (-1.27675647831893E-15, 7.105427357601E-15, -123.));
#24 = DIRECTION('', (0., 0., -1.));
#25 = DIRECTION('', (-1., 1.04496345759928E-16, 0.));
#26 = B_SPLINE_SURFACE_WITH_KNOTS('', 1, 1, ((#27, #28), (#29, #30)), .UNSPECIFIED., .F., .F., .U., (2, 2), (2, 2), (0.0454545454545454, 0.954545454545455), (0.0454545454545454, 0.954545454545455), .UNSPECIFIED.);
#27 = CARTESIAN_POINT('', (10., -9.99999999999999, -123.));
#28 = CARTESIAN_POINT('', (-10., -9.99999999999999, -123.));
#29 = CARTESIAN_POINT('', (10., 10., -123.));
#30 = CARTESIAN_POINT('', (-10., 10., -123.));
#31 = ADVANCED_FACE('', (#32), #51, .T.);
#32 = FACE_OUTER_BOUND('', #33, .T.);
#33 = EDGE_LOOP('', (#34, #42, #49, #50));
#34 = ORIENTED_EDGE('', *, *, #35, .F.);
#35 = EDGE_CURVE('', #36, #19, #38, .T.);
#36 = VERTEX_POINT('', #37);
#37 = CARTESIAN_POINT('', (-9.85, 3.66475554644845E-15, -50.));
#38 = LINE('', #39, #40);
#39 = CARTESIAN_POINT('', (-9.85, 3.66475554644845E-15, -50.));
#40 = VECTOR('', #41, 73.);
#41 = DIRECTION('', (0., 4.46996081688784E-15, -73.));
#42 = ORIENTED_EDGE('', *, *, #43, .T.);
#43 = EDGE_CURVE('', #36, #36, #44, .T.);
#44 = CIRCLE('', #45, 9.85);
#45 = AXIS2_PLACEMENT_3D('', #46, #47, #48);
#46 = CARTESIAN_POINT('', (3.1641356201817E-15, 4.44089209850063E-16, -50.));
#47 = DIRECTION('', (0., 0., -1.));
#48 = DIRECTION('', (-1., 3.26971201685115E-16, 0.));
#49 = ORIENTED_EDGE('', *, *, #35, .T.);
#50 = ORIENTED_EDGE('', *, *, #18, .F.);
#51 = (
   BOUNDED_SURFACE ()
   B_SPLINE_SURFACE (2, 1, ((#52, #53), (#54, #55), (#56, #57), (#58, #59), (#60, #61), (#62, #63), (#64, #65), (#66, #67), (#68, #69)), .UNSPECIFIED., .T., .F., .U.)
   B_SPLINE_SURFACE_WITH_KNOTS ((3, 2, 2, 2, 3), (2, 2), (0., 15.4723438189297, 30.9446876378595, 46.4170314567892, 61.8893752757189), (0., 1.), .UNSPECIFIED.)
   GEOMETRIC_REPRESENTATION_ITEM ()
   RATIONAL_B_SPLINE_SURFACE (((1., 1.), (0.707106781186548, 0.707106781186548), (1., 1.), (0.707106781186548, 0.707106781186548), (1., 1.), (0.707106781186548, 0.707106781186548), (1., 1.), (0.707106781186548, 0.707106781186548), (1., 1.)))
   REPRESENTATION_ITEM ('')
   SURFACE ()
);
#52 = CARTESIAN_POINT('', (-9.85, 3.66475554644845E-15, -50.));
#53 = CARTESIAN_POINT('', (-9.85000000000005, 6.77338001539889E-15, -123.));
#54 = CARTESIAN_POINT('', (-9.85, 9.85, -50.));
#55 = CARTESIAN_POINT('', (-9.85000000000005, 9.85000000000001, -123.));
#56 = CARTESIAN_POINT('', (1.2575045828525E-15, 9.85, -50.));
#57 = CARTESIAN_POINT('', (-5.14020078135813E-14, 9.85000000000001, -123.));
#58 = CARTESIAN_POINT('', (9.85, 9.85, -50.));
#59 = CARTESIAN_POINT('', (9.84999999999995, 9.85000000000001, -123.));
#60 = CARTESIAN_POINT('', (9.85, 5.53512732801282E-15, -50.));
#61 = CARTESIAN_POINT('', (9.84999999999995, 8.64375179696326E-15, -123.));
#62 = CARTESIAN_POINT('', (9.85, -9.84999999999999, -50.));
#63 = CARTESIAN_POINT('', (9.84999999999995, -9.84999999999999, -123.));
#64 = CARTESIAN_POINT('', (4.33415346157701E-15, -9.85, -50.));
#65 = CARTESIAN_POINT('', (-4.83253589348568E-14, -9.84999999999999, -123.));
#66 = CARTESIAN_POINT('', (-9.84999999999999, -9.85, -50.));
#67 = CARTESIAN_POINT('', (-9.85000000000005, -9.85, -123.));
#68 = CARTESIAN_POINT('', (-9.85, 3.66475554644845E-15, -50.));
#69 = CARTESIAN_POINT('', (-9.85000000000005, 6.77338001539889E-15, -123.));
#70 = ADVANCED_FACE('', (#71), #90, .T.);
#71 = FACE_OUTER_BOUND('', #72, .T.);
#72 = EDGE_LOOP('', (#73, #81, #88, #89));
#73 = ORIENTED_EDGE('', *, *, #74, .T.);
#74 = EDGE_CURVE('', #36, #75, #77, .T.);
#75 = VERTEX_POINT('', #76);
#76 = CARTESIAN_POINT('', (-9.85, 6.63452403438079E-16, -0.984999999999999));
#77 = LINE('', #78, #79);
#78 = CARTESIAN_POINT('', (-9.85, 3.66475554644845E-15, -50.));
#79 = VECTOR('', #80, 49.015);
#80 = DIRECTION('', (0., -3.00130314301037E-15, 49.015));
#81 = ORIENTED_EDGE('', *, *, #82, .T.);
#82 = EDGE_CURVE('', #75, #75, #83, .T.);
#83 = CIRCLE('', #84, 9.85);
#84 = AXIS2_PLACEMENT_3D('', #85, #86, #87);
#85 = CARTESIAN_POINT('', (-1.36002320516582E-15, -8.88178419700125E-16, -0.984999999999999));
#86 = DIRECTION('', (-1.12712997423874E-17, 1.13393692931162E-16, -1.));
#87 = DIRECTION('', (-1., 1.57525971892203E-16, 1.12712997423874E-17));
#88 = ORIENTED_EDGE('', *, *, #74, .F.);
#89 = ORIENTED_EDGE('', *, *, #43, .F.);
#90 = (
   BOUNDED_SURFACE ()
   B_SPLINE_SURFACE (1, 2, ((#91, #92, #93, #94, #95, #96, #97, #98, #99), (#100, #101, #102, #103, #104, #105, #106, #107, #108)), .UNSPECIFIED., .F., .T., .U.)
   B_SPLINE_SURFACE_WITH_KNOTS ((2, 2), (3, 2, 2, 2, 3), (0., 1.), (0., 15.4723438189297, 30.9446876378595, 46.4170314567892, 61.8893752757189), .UNSPECIFIED.)
   GEOMETRIC_REPRESENTATION_ITEM ()
   RATIONAL_B_SPLINE_SURFACE (((1., 0.707106781186548, 1., 0.707106781186548, 1., 0.707106781186548, 1., 0.707106781186548, 1.), (1., 0.707106781186548, 1., 0.707106781186548, 1., 0.707106781186548, 1., 0.707106781186548, 1.)))
   REPRESENTATION_ITEM ('')
   SURFACE ()
);
#91 = CARTESIAN_POINT('', (-9.85, 5.54843371178877E-15, -50.));
#92 = CARTESIAN_POINT('', (-9.85, 9.85, -50.));
#93 = CARTESIAN_POINT('', (-9.63993687480802E-16, 9.85, -50.));
#94 = CARTESIAN_POINT('', (9.85, 9.85, -50.));
#95 = CARTESIAN_POINT('', (9.85, 3.6514491626725E-15, -50.));
#96 = CARTESIAN_POINT('', (9.85, -9.85, -50.));
#97 = CARTESIAN_POINT('', (-1.65470113943692E-15, -9.85, -50.));
#98 = CARTESIAN_POINT('', (-9.85, -9.85, -50.));
#99 = CARTESIAN_POINT('', (-9.85, 5.54843371178877E-15, -50.));
#100 = CARTESIAN_POINT('', (-9.85, 6.63452403438078E-16, -0.984999999999999));
#101 = CARTESIAN_POINT('', (-9.85, 9.85, -0.984999999999998));
#102 = CARTESIAN_POINT('', (-4.11530930607685E-16, 9.85, -0.984999999999998));
#103 = CARTESIAN_POINT('', (9.85, 9.85, -0.984999999999998));
#104 = CARTESIAN_POINT('', (9.85, -1.23353214567819E-15, -0.984999999999999));
#105 = CARTESIAN_POINT('', (9.85, -9.85, -0.985));
#106 = CARTESIAN_POINT('', (-1.10223838256381E-15, -9.85, -0.985));
#107 = CARTESIAN_POINT('', (-9.85, -9.85, -0.985));
#108 = CARTESIAN_POINT('', (-9.85, 6.63452403438078E-16, -0.984999999999999));
#109 = ADVANCED_FACE('', (#110), #129, .T.);
#110 = FACE_OUTER_BOUND('', #111, .T.);
#111 = EDGE_LOOP('', (#112, #120, #127, #128));
#112 = ORIENTED_EDGE('', *, *, #113, .T.);
#113 = EDGE_CURVE('', #75, #114, #116, .T.);
#114 = VERTEX_POINT('', #115);
#115 = CARTESIAN_POINT('', (-8.865, 5.42824693722064E-16, 0.));
#116 = LINE('', #117, #118);
#117 = CARTESIAN_POINT('', (-9.85, 6.63452403438078E-16, -0.984999999999999));
#118 = VECTOR('', #119, 1.3930003589375);
#119 = DIRECTION('', (0.984999999999999, -1.20627709716014E-16, 0.984999999999999));
#120 = ORIENTED_EDGE('', *, *, #121, .T.);
#121 = EDGE_CURVE('', #114, #114, #122, .T.);
#122 = CIRCLE('', #123, 8.865);
#123 = AXIS2_PLACEMENT_3D('', #124, #125, #126);
#124 = CARTESIAN_POINT('', (7.91033905045424E-15, -5.99520433297585E-15, -3.82104500966428E-31));
#125 = DIRECTION('', (2.05688833022855E-33, 6.12323399573676E-17, -1.));
#126 = DIRECTION('', (-1., 7.3751032450061E-16, 4.31025945816613E-32));
#127 = ORIENTED_EDGE('', *, *, #113, .F.);
#128 = ORIENTED_EDGE('', *, *, #82, .F.);
#129 = (
   BOUNDED_SURFACE ()
   B_SPLINE_SURFACE (1, 2, ((#130, #131, #132, #133, #134, #135, #136, #137, #138), (#139, #140, #141, #142, #143, #144, #145, #146, #147)), .UNSPECIFIED., .F., .T., .U.)
   B_SPLINE_SURFACE_WITH_KNOTS ((2, 2), (3, 2, 2, 2, 3), (0., 1.), (0., 0.25, 0.5, 0.75, 1.), .UNSPECIFIED.)
   GEOMETRIC_REPRESENTATION_ITEM ()
   RATIONAL_B_SPLINE_SURFACE (((1., 0.707106781186548, 1., 0.707106781186548, 1., 0.707106781186548, 1., 0.707106781186548, 1.), (1., 0.707106781186548, 1., 0.707106781186548, 1., 0.707106781186548, 1., 0.707106781186548, 1.)))
   REPRESENTATION_ITEM ('')
   SURFACE ()
);
#130 = CARTESIAN_POINT('', (-9.84999999999999, 7.264476696331E-15, -0.984999999999999));
#131 = CARTESIAN_POINT('', (-9.84999999999999, 9.85000000000001, -0.984999999999939));
#132 = CARTESIAN_POINT('', (1.45716771982052E-14, 9.85, -0.984999999999939));
#133 = CARTESIAN_POINT('', (9.85000000000001, 9.84999999999999, -0.984999999999939));
#134 = CARTESIAN_POINT('', (9.85000000000001, -6.05819959917087E-15, -0.984999999999999));
#135 = CARTESIAN_POINT('', (9.85, -9.85, -0.985000000000059));
#136 = CARTESIAN_POINT('', (2.45527799986346E-15, -9.85, -0.985000000000059));
#137 = CARTESIAN_POINT('', (-9.85, -9.84999999999999, -0.985000000000059));
#138 = CARTESIAN_POINT('', (-9.84999999999999, 7.264476696331E-15, -0.984999999999999));
#139 = CARTESIAN_POINT('', (-8.86499999999999, 5.4282469372206E-16, -2.18952885050753E-46));
#140 = CARTESIAN_POINT('', (-8.86499999999999, 8.865, 5.39568389967826E-14));
#141 = CARTESIAN_POINT('', (1.39055433834301E-14, 8.865, 5.39568389967826E-14));
#142 = CARTESIAN_POINT('', (8.86500000000001, 8.86499999999999, 5.39568389967826E-14));
#143 = CARTESIAN_POINT('', (8.86500000000001, -1.14475839722296E-14, 5.84359801501905E-30));
#144 = CARTESIAN_POINT('', (8.865, -8.86500000000001, -5.39568389967826E-14));
#145 = CARTESIAN_POINT('', (3.00078410492253E-15, -8.86500000000001, -5.39568389967826E-14));
#146 = CARTESIAN_POINT('', (-8.865, -8.865, -5.39568389967826E-14));
#147 = CARTESIAN_POINT('', (-8.86499999999999, 5.4282469372206E-16, -2.18952885050753E-46));
#148 = ADVANCED_FACE('', (#149), #152, .T.);
#149 = FACE_OUTER_BOUND('', #150, .T.);
#150 = EDGE_LOOP('', (#151));
#151 = ORIENTED_EDGE('', *, *, #121, .F.);
#152 = B_SPLINE_SURFACE_WITH_KNOTS('', 1, 1, ((#153, #154), (#155, #156)), .UNSPECIFIED., .F., .F., .U., (2, 2), (2, 2), (0.0454545454545454, 0.954545454545454), (0.0454545454545454, 0.954545454545454), .UNSPECIFIED.);
#153 = CARTESIAN_POINT('', (8.865, -8.865, -5.42824693722064E-16));
#154 = CARTESIAN_POINT('', (-8.865, -8.865, -5.42824693722064E-16));
#155 = CARTESIAN_POINT('', (8.865, 8.865, 5.42824693722064E-16));
#156 = CARTESIAN_POINT('', (-8.865, 8.865, 5.42824693722064E-16));
#157 = ADVANCED_FACE('', (#158), #177, .T.);
#158 = FACE_OUTER_BOUND('', #159, .T.);
#159 = EDGE_LOOP('', (#160, #169, #175, #176));
#160 = ORIENTED_EDGE('', *, *, #161, .F.);
#161 = EDGE_CURVE('', #162, #162, #164, .T.);
#162 = VERTEX_POINT('', #163);
#163 = CARTESIAN_POINT('', (-10., 8.20513355428727E-15, -124.));
#164 = CIRCLE('', #165, 10.);
#165 = AXIS2_PLACEMENT_3D('', #166, #167, #168);
#166 = CARTESIAN_POINT('', (-2.44249065417534E-15, 6.66133814775094E-15, -124.));
#167 = DIRECTION('', (0., 0., -1.));
#168 = DIRECTION('', (-1., 1.54379540653633E-16, 0.));
#169 = ORIENTED_EDGE('', *, *, #170, .F.);
#170 = EDGE_CURVE('', #8, #162, #171, .T.);
#171 = LINE('', #172, #173);
#172 = CARTESIAN_POINT('', (-10., 8.1439012143299E-15, -123.));
#173 = VECTOR('', #174, 1.);
#174 = DIRECTION('', (0., 6.12323399573707E-17, -1.));
#175 = ORIENTED_EDGE('', *, *, #7, .T.);
#176 = ORIENTED_EDGE('', *, *, #170, .T.);
#177 = (
   BOUNDED_SURFACE ()
   B_SPLINE_SURFACE (2, 1, ((#178, #179), (#180, #181), (#182, #183), (#184, #185), (#186, #187), (#188, #189), (#190, #191), (#192, #193), (#194, #195)), .UNSPECIFIED., .T., .F., .U.)
   B_SPLINE_SURFACE_WITH_KNOTS ((3, 2, 2, 2, 3), (2, 2), (0., 15.707963267949, 31.415926535898, 47.1238898038469, 62.8318530717959), (0., 0.037243947858473), .UNSPECIFIED.)
   GEOMETRIC_REPRESENTATION_ITEM ()
   RATIONAL_B_SPLINE_SURFACE (((1., 1.), (0.707106781186548, 0.707106781186548), (1., 1.), (0.707106781186548, 0.707106781186548), (1., 1.), (0.707106781186548, 0.707106781186548), (1., 1.), (0.707106781186548, 0.707106781186548), (1., 1.)))
   REPRESENTATION_ITEM ('')
   SURFACE ()
);
#178 = CARTESIAN_POINT('', (-10., 8.1439012143299E-15, -123.));
#179 = CARTESIAN_POINT('', (-10., 8.58799042417996E-15, -124.));
#180 = CARTESIAN_POINT('', (-10., 10., -123.));
#181 = CARTESIAN_POINT('', (-10., 10., -124.));
#182 = CARTESIAN_POINT('', (-2.21062922632953E-15, 10., -123.));
#183 = CARTESIAN_POINT('', (-2.21062922632953E-15, 10., -124.));
#184 = CARTESIAN_POINT('', (9.99999999999999, 10., -123.));
#185 = CARTESIAN_POINT('', (9.99999999999999, 10., -124.));
#186 = CARTESIAN_POINT('', (9.99999999999999, 5.07115425076914E-15, -123.));
#187 = CARTESIAN_POINT('', (9.99999999999999, 5.51524346061921E-15, -124.));
#188 = CARTESIAN_POINT('', (9.99999999999999, -9.99999999999999, -123.));
#189 = CARTESIAN_POINT('', (9.99999999999999, -9.99999999999999, -124.));
#190 = CARTESIAN_POINT('', (-4.05872939074293E-15, -9.99999999999999, -123.));
#191 = CARTESIAN_POINT('', (-4.05872939074293E-15, -9.99999999999999, -124.));
#192 = CARTESIAN_POINT('', (-10., -9.99999999999999, -123.));
#193 = CARTESIAN_POINT('', (-10., -9.99999999999999, -124.));
#194 = CARTESIAN_POINT('', (-10., 8.1439012143299E-15, -123.));
#195 = CARTESIAN_POINT('', (-10., 8.58799042417996E-15, -124.));
#196 = ADVANCED_FACE('', (#197), #200, .T.);
#197 = FACE_OUTER_BOUND('', #198, .T.);
#198 = EDGE_LOOP('', (#199));
#199 = ORIENTED_EDGE('', *, *, #161, .T.);
#200 = B_SPLINE_SURFACE_WITH_KNOTS('', 1, 1, ((#201, #202), (#203, #204)), .UNSPECIFIED., .F., .F., .U., (2, 2), (2, 2), (0.48864455985711, 0.554156735928274), (0.445843264071726, 0.51135544014289), .UNSPECIFIED.);
#201 = CARTESIAN_POINT('', (-10.0000000000001, 10., -124.));
#202 = CARTESIAN_POINT('', (-10.0000000000001, -9.99999999999994, -124.));
#203 = CARTESIAN_POINT('', (9.99999999999997, 10., -124.));
#204 = CARTESIAN_POINT('', (9.99999999999997, -9.99999999999994, -124.));
#205 = DRAUGHTING_MODEL('', (#213, #337, #385, #390, #395, #400, #405, #410), #424);
#206 = PRESENTATION_STYLE_ASSIGNMENT((#207));
#207 = SURFACE_STYLE_USAGE(.POSITIVE., #208);
#208 = SURFACE_SIDE_STYLE('', (#209));
#209 = SURFACE_STYLE_FILL_AREA(#210);
#210 = FILL_AREA_STYLE('', (#211));
#211 = FILL_AREA_STYLE_COLOUR('', #212);
#212 = COLOUR_RGB('', 0.50196078431373, 0.50196078431373, 0.50196078431373);
#213 = STYLED_ITEM('', (#206), #1);
#214 = MANIFOLD_SOLID_BREP('CUT', #215);
#215 = CLOSED_SHELL('', (#216, #233, #272, #321));
#216 = ADVANCED_FACE('', (#217), #228, .T.);
#217 = FACE_OUTER_BOUND('', #218, .T.);
#218 = EDGE_LOOP('', (#219));
#219 = ORIENTED_EDGE('', *, *, #220, .F.);
#220 = EDGE_CURVE('', #221, #221, #223, .T.);
#221 = VERTEX_POINT('', #222);
#222 = CARTESIAN_POINT('', (-10., 8.20513355428727E-15, -124.));
#223 = CIRCLE('', #224, 10.);
#224 = AXIS2_PLACEMENT_3D('', #225, #226, #227);
#225 = CARTESIAN_POINT('', (-1.52655665885959E-15, 4.44089209850063E-16, -124.));
#226 = DIRECTION('', (0., 0., -1.));
#227 = DIRECTION('', (-1., 7.76104434443721E-16, 0.));
#228 = B_SPLINE_SURFACE_WITH_KNOTS('', 1, 1, ((#229, #230), (#231, #232)), .UNSPECIFIED., .F., .F., .U., (2, 2), (2, 2), (0.445843264071726, 0.51135544014289), (0.48864455985711, 0.554156735928274), .UNSPECIFIED.);
#229 = CARTESIAN_POINT('', (-10., 10., -124.));
#230 = CARTESIAN_POINT('', (10., 10., -124.));
#231 = CARTESIAN_POINT('', (-10., -9.99999999999997, -124.));
#232 = CARTESIAN_POINT('', (10., -9.99999999999997, -124.));
#233 = ADVANCED_FACE('', (#234), #253, .T.);
#234 = FACE_OUTER_BOUND('', #235, .T.);
#235 = EDGE_LOOP('', (#236, #237, #245, #252));
#236 = ORIENTED_EDGE('', *, *, #220, .T.);
#237 = ORIENTED_EDGE('', *, *, #238, .T.);
#238 = EDGE_CURVE('', #221, #239, #241, .T.);
#239 = VERTEX_POINT('', #240);
#240 = CARTESIAN_POINT('', (-10., 9.78798954218522E-15, -149.85));
#241 = LINE('', #242, #243);
#242 = CARTESIAN_POINT('', (-10., 8.20513355428727E-15, -124.));
#243 = VECTOR('', #244, 25.85);
#244 = DIRECTION('', (0., 1.58285598789795E-15, -25.85));
#245 = ORIENTED_EDGE('', *, *, #246, .F.);
#246 = EDGE_CURVE('', #239, #239, #247, .T.);
#247 = CIRCLE('', #248, 10.);
#248 = AXIS2_PLACEMENT_3D('', #249, #250, #251);
#249 = CARTESIAN_POINT('', (-3.83026943495679E-15, 7.105427357601E-15, -149.85));
#250 = DIRECTION('', (2.59495933123334E-30, 9.67343588955997E-15, -1.));
#251 = DIRECTION('', (-1., 2.68256218458422E-16, 0.));
#252 = ORIENTED_EDGE('', *, *, #238, .F.);
#253 = (
   BOUNDED_SURFACE ()
   B_SPLINE_SURFACE (2, 1, ((#254, #255), (#256, #257), (#258, #259), (#260, #261), (#262, #263), (#264, #265), (#266, #267), (#268, #269), (#270, #271)), .UNSPECIFIED., .T., .F., .U.)
   B_SPLINE_SURFACE_WITH_KNOTS ((3, 2, 2, 2, 3), (2, 2), (0., 15.707963267949, 31.415926535898, 47.1238898038469, 62.8318530717959), (0., 1.), .UNSPECIFIED.)
   GEOMETRIC_REPRESENTATION_ITEM ()
   RATIONAL_B_SPLINE_SURFACE (((1., 1.), (0.707106781186548, 0.707106781186548), (1., 1.), (0.707106781186548, 0.707106781186548), (1., 1.), (0.707106781186548, 0.707106781186548), (1., 1.), (0.707106781186548, 0.707106781186548), (1., 1.)))
   REPRESENTATION_ITEM ('')
   SURFACE ()
);
#254 = CARTESIAN_POINT('', (-10., 8.1439012143299E-15, -123.));
#255 = CARTESIAN_POINT('', (-10., 9.25412423895506E-15, -149.85));
#256 = CARTESIAN_POINT('', (-10., 10., -123.));
#257 = CARTESIAN_POINT('', (-10., 10., -149.85));
#258 = CARTESIAN_POINT('', (-2.21062922632953E-15, 10., -123.));
#259 = CARTESIAN_POINT('', (-2.21062922632953E-15, 10., -149.85));
#260 = CARTESIAN_POINT('', (9.99999999999999, 10., -123.));
#261 = CARTESIAN_POINT('', (9.99999999999999, 10., -149.85));
#262 = CARTESIAN_POINT('', (9.99999999999999, 5.07115425076914E-15, -123.));
#263 = CARTESIAN_POINT('', (9.99999999999999, 6.1813772753943E-15, -149.85));
#264 = CARTESIAN_POINT('', (9.99999999999999, -9.99999999999999, -123.));
#265 = CARTESIAN_POINT('', (9.99999999999999, -9.99999999999999, -149.85));
#266 = CARTESIAN_POINT('', (-4.05872939074293E-15, -9.99999999999999, -123.));
#267 = CARTESIAN_POINT('', (-4.05872939074293E-15, -9.99999999999999, -149.85));
#268 = CARTESIAN_POINT('', (-10., -9.99999999999999, -123.));
#269 = CARTESIAN_POINT('', (-10., -9.99999999999999, -149.85));
#270 = CARTESIAN_POINT('', (-10., 8.1439012143299E-15, -123.));
#271 = CARTESIAN_POINT('', (-10., 9.25412423895506E-15, -149.85));
#272 = ADVANCED_FACE('', (#273), #293, .T.);
#273 = FACE_OUTER_BOUND('', #274, .T.);
#274 = EDGE_LOOP('', (#275, #284, #285, #286));
#275 = ORIENTED_EDGE('', *, *, #276, .F.);
#276 = EDGE_CURVE('', #239, #277, #279, .T.);
#277 = VERTEX_POINT('', #278);
#278 = CARTESIAN_POINT('', (-9.85, 9.78798954218522E-15, -150.));
#279 = CIRCLE('', #280, 0.15);
#280 = AXIS2_PLACEMENT_3D('', #281, #282, #283);
#281 = CARTESIAN_POINT('', (-9.85, 9.77880469119161E-15, -149.85));
#282 = DIRECTION('', (-6.12323399574292E-17, -1., -6.12323399574149E-17));
#283 = DIRECTION('', (-1., 6.12323399574292E-17, 0.));
#284 = ORIENTED_EDGE('', *, *, #246, .T.);
#285 = ORIENTED_EDGE('', *, *, #276, .T.);
#286 = ORIENTED_EDGE('', *, *, #287, .F.);
#287 = EDGE_CURVE('', #277, #277, #288, .T.);
#288 = CIRCLE('', #289, 9.85);
#289 = AXIS2_PLACEMENT_3D('', #290, #291, #292);
#290 = CARTESIAN_POINT('', (-9.99200722162641E-16, 8.43769498715119E-15, -150.));
#291 = DIRECTION('', (0., 0., -1.));
#292 = DIRECTION('', (-1., 1.3708574162782E-16, 0.));
#293 = (
   BOUNDED_SURFACE ()
   B_SPLINE_SURFACE (2, 2, ((#294, #295, #296), (#297, #298, #299), (#300, #301, #302), (#303, #304, #305), (#306, #307, #308), (#309, #310, #311), (#312, #313, #314), (#315, #316, #317), (#318, #319, #320)), .UNSPECIFIED., .T., .F., .U.)
   B_SPLINE_SURFACE_WITH_KNOTS ((3, 2, 2, 2, 3), (3, 3), (0., 0.25, 0.5, 0.75, 1.), (0., 1.), .UNSPECIFIED.)
   GEOMETRIC_REPRESENTATION_ITEM ()
   RATIONAL_B_SPLINE_SURFACE (((1., 0.707106781186552, 1.), (0.707106781186548, 0.500000000000003, 0.707106781186548), (1., 0.707106781186552, 1.), (0.707106781186548, 0.500000000000003, 0.707106781186548), (1., 0.707106781186552, 1.), (0.707106781186548, 0.500000000000003, 0.707106781186548), (1., 0.707106781186552, 1.), (0.707106781186548, 0.500000000000003, 0.707106781186548), (1., 0.707106781186552, 1.)))
   REPRESENTATION_ITEM ('')
   SURFACE ()
);
#294 = CARTESIAN_POINT('', (-10., 9.78798954218522E-15, -149.85));
#295 = CARTESIAN_POINT('', (-10., 9.79717439317883E-15, -150.));
#296 = CARTESIAN_POINT('', (-9.85, 9.78798954218522E-15, -150.));
#297 = CARTESIAN_POINT('', (-10., 10., -149.85));
#298 = CARTESIAN_POINT('', (-10., 10., -150.));
#299 = CARTESIAN_POINT('', (-9.85, 9.85000000000001, -150.));
#300 = CARTESIAN_POINT('', (-7.88585503399237E-16, 10., -149.85));
#301 = CARTESIAN_POINT('', (-7.79400652405626E-16, 10., -150.));
#302 = CARTESIAN_POINT('', (-7.79400652405632E-16, 9.85000000000001, -150.));
#303 = CARTESIAN_POINT('', (10., 10., -149.85));
#304 = CARTESIAN_POINT('', (10., 10., -150.));
#305 = CARTESIAN_POINT('', (9.85, 9.85000000000001, -150.));
#306 = CARTESIAN_POINT('', (10., 1.00884040706648E-14, -149.85));
#307 = CARTESIAN_POINT('', (10., 1.00792192196712E-14, -150.));
#308 = CARTESIAN_POINT('', (9.85, 1.00700343686776E-14, -150.));
#309 = CARTESIAN_POINT('', (10., -9.99999999999999, -149.85));
#310 = CARTESIAN_POINT('', (10., -9.99999999999999, -150.));
#311 = CARTESIAN_POINT('', (9.85, -9.84999999999999, -150.));
#312 = CARTESIAN_POINT('', (7.3647582422766E-16, -9.99999999999999, -149.85));
#313 = CARTESIAN_POINT('', (7.27290973234049E-16, -9.99999999999999, -150.));
#314 = CARTESIAN_POINT('', (7.08921271246845E-16, -9.84999999999999, -150.));
#315 = CARTESIAN_POINT('', (-10., -9.99999999999999, -149.85));
#316 = CARTESIAN_POINT('', (-10., -9.99999999999999, -150.));
#317 = CARTESIAN_POINT('', (-9.85, -9.84999999999999, -150.));
#318 = CARTESIAN_POINT('', (-10., 9.78798954218522E-15, -149.85));
#319 = CARTESIAN_POINT('', (-10., 9.79717439317883E-15, -150.));
#320 = CARTESIAN_POINT('', (-9.85, 9.78798954218522E-15, -150.));
#321 = ADVANCED_FACE('', (#322), #325, .T.);
#322 = FACE_OUTER_BOUND('', #323, .T.);
#323 = EDGE_LOOP('', (#324));
#324 = ORIENTED_EDGE('', *, *, #287, .T.);
#325 = B_SPLINE_SURFACE_WITH_KNOTS('', 1, 1, ((#326, #327), (#328, #329)), .UNSPECIFIED., .F., .F., .U., (2, 2), (2, 2), (0.0454545454545454, 0.954545454545455), (0.0454545454545454, 0.954545454545455), .UNSPECIFIED.);
#326 = CARTESIAN_POINT('', (9.85, -9.84999999999999, -150.));
#327 = CARTESIAN_POINT('', (9.85, 9.85000000000001, -150.));
#328 = CARTESIAN_POINT('', (-9.85, -9.84999999999999, -150.));
#329 = CARTESIAN_POINT('', (-9.85, 9.85000000000001, -150.));
#330 = PRESENTATION_STYLE_ASSIGNMENT((#331));
#331 = SURFACE_STYLE_USAGE(.POSITIVE., #332);
#332 = SURFACE_SIDE_STYLE('', (#333));
#333 = SURFACE_STYLE_FILL_AREA(#334);
#334 = FILL_AREA_STYLE('', (#335));
#335 = FILL_AREA_STYLE_COLOUR('', #336);
#336 = COLOUR_RGB('', 0.8, 0.8, 0.8);
#337 = STYLED_ITEM('', (#330), #214);
#338 = TRIMMED_CURVE('cutting part line', #339, (#343), (#344), .T., .CARTESIAN.);
#339 = LINE('', #340, #341);
#340 = CARTESIAN_POINT('', (8.32667268468867E-17, 0., -150.));
#341 = VECTOR('', #342, 9.85);
#342 = DIRECTION('', (9.85, 0., 0.));
#343 = CARTESIAN_POINT('', (8.32667268468867E-17, 0., -150.));
#344 = CARTESIAN_POINT('', (9.85, 0., -150.));
#345 = TRIMMED_CURVE('cutting part line', #346, (#351), (#352), .T., .CARTESIAN.);
#346 = CIRCLE('', #347, 0.150000000000017);
#347 = AXIS2_PLACEMENT_3D('', #348, #349, #350);
#348 = CARTESIAN_POINT('', (9.84999999999998, 1.19778470537704E-14, -149.85));
#349 = DIRECTION('', (5.55111512312567E-16, -1., 9.20337722757664E-30));
#350 = DIRECTION('', (1.3026616822268E-13, 6.31088724176786E-29, -1.));
#351 = CARTESIAN_POINT('', (9.85, 1.19778470537704E-14, -150.));
#352 = CARTESIAN_POINT('', (10., 1.20611137806173E-14, -149.85));
#353 = TRIMMED_CURVE('cutting part line', #354, (#358), (#359), .T., .CARTESIAN.);
#354 = LINE('', #355, #356);
#355 = CARTESIAN_POINT('', (9.99999999999999, 1.06871114150705E-15, -149.85));
#356 = VECTOR('', #357, 25.85);
#357 = DIRECTION('', (0., -1.06871114150705E-15, 25.85));
#358 = CARTESIAN_POINT('', (9.99999999999999, 1.06871114150705E-15, -149.85));
#359 = CARTESIAN_POINT('', (9.99999999999999, 0., -124.));
#360 = TRIMMED_CURVE('cutting part line', #361, (#365), (#366), .T., .CARTESIAN.);
#361 = LINE('', #362, #363);
#362 = CARTESIAN_POINT('', (10., 0., -124.));
#363 = VECTOR('', #364, 10.);
#364 = DIRECTION('', (-10., 0., 0.));
#365 = CARTESIAN_POINT('', (10., 0., -124.));
#366 = CARTESIAN_POINT('', (0., 0., -124.));
#367 = TRIMMED_CURVE('cutting part line', #368, (#372), (#373), .T., .CARTESIAN.);
#368 = LINE('', #369, #370);
#369 = CARTESIAN_POINT('', (0., 0., -124.));
#370 = VECTOR('', #371, 26.);
#371 = DIRECTION('', (0., 0., -26.));
#372 = CARTESIAN_POINT('', (0., 0., -124.));
#373 = CARTESIAN_POINT('', (0., 0., -150.));
#374 = COMPOSITE_CURVE('cutting part line', (#375, #376, #377, #378, #379), .U.);
#375 = COMPOSITE_CURVE_SEGMENT(.CONTINUOUS., .T., #338);
#376 = COMPOSITE_CURVE_SEGMENT(.CONTINUOUS., .T., #345);
#377 = COMPOSITE_CURVE_SEGMENT(.CONTINUOUS., .T., #353);
#378 = COMPOSITE_CURVE_SEGMENT(.CONTINUOUS., .T., #360);
#379 = COMPOSITE_CURVE_SEGMENT(.CONTINUOUS., .T., #367);
#380 = GEOMETRIC_SET('', (#374, #423));
#381 = PRESENTATION_STYLE_ASSIGNMENT((#382));
#382 = CURVE_STYLE('', #384, POSITIVE_LENGTH_MEASURE(1.E-6), #383);
#383 = COLOUR_RGB('', 0., 0., 1.);
#384 = DRAUGHTING_PRE_DEFINED_CURVE_FONT('continuous');
#385 = STYLED_ITEM('', (#381), #374);
#386 = PRESENTATION_STYLE_ASSIGNMENT((#387));
#387 = CURVE_STYLE('', #389, POSITIVE_LENGTH_MEASURE(1.E-6), #388);
#388 = COLOUR_RGB('', 0., 0., 1.);
#389 = DRAUGHTING_PRE_DEFINED_CURVE_FONT('continuous');
#390 = OVER_RIDING_STYLED_ITEM('', (#386), #338, #385);
#391 = PRESENTATION_STYLE_ASSIGNMENT((#392));
#392 = CURVE_STYLE('', #394, POSITIVE_LENGTH_MEASURE(1.E-6), #393);
#393 = COLOUR_RGB('', 0., 0., 1.);
#394 = DRAUGHTING_PRE_DEFINED_CURVE_FONT('continuous');
#395 = OVER_RIDING_STYLED_ITEM('', (#391), #345, #385);
#396 = PRESENTATION_STYLE_ASSIGNMENT((#397));
#397 = CURVE_STYLE('', #399, POSITIVE_LENGTH_MEASURE(1.E-6), #398);
#398 = COLOUR_RGB('', 0., 0., 1.);
#399 = DRAUGHTING_PRE_DEFINED_CURVE_FONT('continuous');
#400 = OVER_RIDING_STYLED_ITEM('', (#396), #353, #385);
#401 = PRESENTATION_STYLE_ASSIGNMENT((#402));
#402 = CURVE_STYLE('', #404, POSITIVE_LENGTH_MEASURE(1.E-6), #403);
#403 = COLOUR_RGB('', 0., 0., 1.);
#404 = DRAUGHTING_PRE_DEFINED_CURVE_FONT('continuous');
#405 = OVER_RIDING_STYLED_ITEM('', (#401), #360, #385);
#406 = PRESENTATION_STYLE_ASSIGNMENT((#407));
#407 = CURVE_STYLE('', #409, POSITIVE_LENGTH_MEASURE(1.E-6), #408);
#408 = COLOUR_RGB('', 0., 0., 1.);
#409 = DRAUGHTING_PRE_DEFINED_CURVE_FONT('continuous');
#410 = OVER_RIDING_STYLED_ITEM('', (#406), #367, #385);
#411 = AXIS2_PLACEMENT_3D('MCS', #412, #413, #414);
#412 = CARTESIAN_POINT('', (0., 0., -50.));
#413 = DIRECTION('', (0., 0., 1.));
#414 = DIRECTION('', (1., 0., 0.));
#415 = AXIS2_PLACEMENT_3D('PCS', #416, #417, #418);
#416 = CARTESIAN_POINT('', (0., 0., 0.));
#417 = DIRECTION('', (0., 0., 1.));
#418 = DIRECTION('', (1., 0., 0.));
#419 = AXIS2_PLACEMENT_3D('CIP', #420, #421, #422);
#420 = CARTESIAN_POINT('', (0., 0., -150.));
#421 = DIRECTION('', (0., 0., 1.));
#422 = DIRECTION('', (1., 0., 0.));
#423 = CARTESIAN_POINT('CRP', (10., 0., -150.));
#424 = (
   GEOMETRIC_REPRESENTATION_CONTEXT (3)
   GLOBAL_UNCERTAINTY_ASSIGNED_CONTEXT ((#426))
   GLOBAL_UNIT_ASSIGNED_CONTEXT ((#425, #427, #428))
   REPRESENTATION_CONTEXT ('', '3D')
);
#425 = (
   LENGTH_UNIT ()
   NAMED_UNIT (*)
   SI_UNIT (.MILLI., .METRE.)
);
#426 = UNCERTAINTY_MEASURE_WITH_UNIT(LENGTH_MEASURE(1.E-6), #425, 'DISTANCE_ACCURACY_VALUE', '');
#427 = (
   NAMED_UNIT (*)
   SI_UNIT ($, .STERADIAN.)
   SOLID_ANGLE_UNIT ()
);
#428 = (
   NAMED_UNIT (*)
   PLANE_ANGLE_UNIT ()
   SI_UNIT ($, .RADIAN.)
);
#429 = SHAPE_REPRESENTATION('', (), #424);
#430 = PRODUCT_DEFINITION_SHAPE('', '', #431);
#431 = PRODUCT_DEFINITION('', '', #434, #438);
#432 = APPLICATION_CONTEXT('configuration controlled 3D designs of mechanical parts and assemblies');
#433 = APPLICATION_PROTOCOL_DEFINITION('International Standard', 'automotive_design', 2002, #432);
#434 = PRODUCT_DEFINITION_FORMATION_WITH_SPECIFIED_SOURCE('', '', #435, .NOT_KNOWN.);
#435 = PRODUCT('product-name', '2P123-2000-NG       H10F', '', (#436));
#436 = PRODUCT_CONTEXT('', #432, 'mechanical');
#437 = PRODUCT_RELATED_PRODUCT_CATEGORY('detail', '', (#435));
#438 = PRODUCT_DEFINITION_CONTEXT('part definition', #432, 'design');
#439 = SHAPE_DEFINITION_REPRESENTATION(#430, #429);
#440 = CONSTRUCTIVE_GEOMETRY_REPRESENTATION('supplemental geometry', (#411, #415, #419), #424);
#441 = CONSTRUCTIVE_GEOMETRY_REPRESENTATION_RELATIONSHIP('', '', #429, #440);
#442 = SHAPE_REPRESENTATION_RELATIONSHIP('', '', #429, #443);
#443 = SHAPE_REPRESENTATION('', (#380), #424);
#444 = SHAPE_REPRESENTATION_RELATIONSHIP('', '', #429, #445);
#445 = ADVANCED_BREP_SHAPE_REPRESENTATION('', (#1, #214), #424);
ENDSEC;
END-ISO-10303-21;
