ISO-10303-21;
HEADER;
FILE_DESCRIPTION(('STEP'), '1');
FILE_NAME('C:\\Users\\ds2002\\OneDrive - Sandvik\\HomeShare\\Documents\\Batchrepair\\CorSRT2\\NEW_MILSQ_SLD\\Output\\MOD000000000000000020082308100000.stp', '2019-01-02T12:11:06', (''), (''), 'Express v3.0.0.0', 'Express Tool', 'Unknown');
FILE_SCHEMA(('AUTOMOTIVE_DESIGN'));
ENDSEC;

DATA;
#1 = MANIFOLD_SOLID_BREP('NOCUT', #2);
#2 = CLOSED_SHELL('', (#3, #31, #70, #109, #148, #157, #196));
#3 = ADVANCED_FACE('', (#4, #15), #26, .T.);
#4 = FACE_OUTER_BOUND('', #5, .T.);
#5 = EDGE_LOOP('', (#6));
#6 = ORIENTED_EDGE('', *, *, #7, .F.);
#7 = EDGE_CURVE('', #8, #8, #10, .T.);
#8 = VERTEX_POINT('', #9);
#9 = CARTESIAN_POINT('', (-1.5, 3.45962720759127E-15, -55.));
#10 = CIRCLE('', #11, 1.5);
#11 = AXIS2_PLACEMENT_3D('', #12, #13, #14);
#12 = CARTESIAN_POINT('', (3.33066907387547E-16, 1.19348975147204E-15, -55.));
#13 = DIRECTION('', (0., 0., -1.));
#14 = DIRECTION('', (-1., 1.51075830407948E-15, 0.));
#15 = FACE_BOUND('', #16, .T.);
#16 = EDGE_LOOP('', (#17));
#17 = ORIENTED_EDGE('', *, *, #18, .T.);
#18 = EDGE_CURVE('', #19, #19, #21, .T.);
#19 = VERTEX_POINT('', #20);
#20 = CARTESIAN_POINT('', (-1.45, 3.4565655905934E-15, -55.));
#21 = CIRCLE('', #22, 1.45);
#22 = AXIS2_PLACEMENT_3D('', #23, #24, #25);
#23 = CARTESIAN_POINT('', (8.32667268468867E-17, 1.0547118733939E-15, -55.));
#24 = DIRECTION('', (0., 0., -1.));
#25 = DIRECTION('', (-1., 1.65645083944793E-15, 0.));
#26 = B_SPLINE_SURFACE_WITH_KNOTS('', 1, 1, ((#27, #28), (#29, #30)), .UNSPECIFIED., .F., .F., .U., (2, 2), (2, 2), (0.0454545454545454, 0.954545454545455), (0.0454545454545455, 0.954545454545455), .UNSPECIFIED.);
#27 = CARTESIAN_POINT('', (1.5, -1.5, -55.));
#28 = CARTESIAN_POINT('', (-1.5, -1.5, -55.));
#29 = CARTESIAN_POINT('', (1.5, 1.5, -55.));
#30 = CARTESIAN_POINT('', (-1.5, 1.5, -55.));
#31 = ADVANCED_FACE('', (#32), #51, .T.);
#32 = FACE_OUTER_BOUND('', #33, .T.);
#33 = EDGE_LOOP('', (#34, #42, #49, #50));
#34 = ORIENTED_EDGE('', *, *, #35, .F.);
#35 = EDGE_CURVE('', #36, #19, #38, .T.);
#36 = VERTEX_POINT('', #37);
#37 = CARTESIAN_POINT('', (-1.45, 1.80329241174448E-15, -28.));
#38 = LINE('', #39, #40);
#39 = CARTESIAN_POINT('', (-1.45, 1.80329241174448E-15, -28.));
#40 = VECTOR('', #41, 27.);
#41 = DIRECTION('', (0., 1.65327317884892E-15, -27.));
#42 = ORIENTED_EDGE('', *, *, #43, .T.);
#43 = EDGE_CURVE('', #36, #36, #44, .T.);
#44 = CIRCLE('', #45, 1.45);
#45 = AXIS2_PLACEMENT_3D('', #46, #47, #48);
#46 = CARTESIAN_POINT('', (2.56739074444567E-16, -5.55111512312578E-17, -28.));
#47 = DIRECTION('', (1.06902598678544E-29, 8.33916887031016E-15, -1.));
#48 = DIRECTION('', (-1., 1.28193349170741E-15, 0.));
#49 = ORIENTED_EDGE('', *, *, #35, .T.);
#50 = ORIENTED_EDGE('', *, *, #18, .F.);
#51 = (
   BOUNDED_SURFACE ()
   B_SPLINE_SURFACE (2, 1, ((#52, #53), (#54, #55), (#56, #57), (#58, #59), (#60, #61), (#62, #63), (#64, #65), (#66, #67), (#68, #69)), .UNSPECIFIED., .T., .F., .U.)
   B_SPLINE_SURFACE_WITH_KNOTS ((3, 2, 2, 2, 3), (2, 2), (0., 2.2776546738526, 4.5553093477052, 6.8329640215578, 9.1106186954104), (0., 1.), .UNSPECIFIED.)
   GEOMETRIC_REPRESENTATION_ITEM ()
   RATIONAL_B_SPLINE_SURFACE (((1., 1.), (0.707106781186548, 0.707106781186548), (1., 1.), (0.707106781186548, 0.707106781186548), (1., 1.), (0.707106781186548, 0.707106781186548), (1., 1.), (0.707106781186548, 0.707106781186548), (1., 1.)))
   REPRESENTATION_ITEM ('')
   SURFACE ()
);
#52 = CARTESIAN_POINT('', (-1.45, 1.80329241174448E-15, -28.));
#53 = CARTESIAN_POINT('', (-1.45, 2.16411489474766E-15, -55.));
#54 = CARTESIAN_POINT('', (-1.45, 1.45, -28.));
#55 = CARTESIAN_POINT('', (-1.45, 1.45, -55.));
#56 = CARTESIAN_POINT('', (7.43060372259285E-16, 1.45, -28.));
#57 = CARTESIAN_POINT('', (7.43060372259286E-16, 1.45, -55.));
#58 = CARTESIAN_POINT('', (1.45, 1.45, -28.));
#59 = CARTESIAN_POINT('', (1.45, 1.45, -55.));
#60 = CARTESIAN_POINT('', (1.45, -2.37939845086669E-16, -28.));
#61 = CARTESIAN_POINT('', (1.45, 1.22882637916508E-16, -55.));
#62 = CARTESIAN_POINT('', (1.45, -1.45, -28.));
#63 = CARTESIAN_POINT('', (1.45, -1.45, -55.));
#64 = CARTESIAN_POINT('', (-1.1205980986955E-15, -1.45, -28.));
#65 = CARTESIAN_POINT('', (-1.1205980986955E-15, -1.45, -55.));
#66 = CARTESIAN_POINT('', (-1.45, -1.45, -28.));
#67 = CARTESIAN_POINT('', (-1.45, -1.45, -55.));
#68 = CARTESIAN_POINT('', (-1.45, 1.80329241174448E-15, -28.));
#69 = CARTESIAN_POINT('', (-1.45, 2.16411489474766E-15, -55.));
#70 = ADVANCED_FACE('', (#71), #90, .T.);
#71 = FACE_OUTER_BOUND('', #72, .T.);
#72 = EDGE_LOOP('', (#73, #81, #88, #89));
#73 = ORIENTED_EDGE('', *, *, #74, .T.);
#74 = EDGE_CURVE('', #36, #75, #77, .T.);
#75 = VERTEX_POINT('', #76);
#76 = CARTESIAN_POINT('', (-1.45, 9.76655822320014E-17, -0.145));
#77 = LINE('', #78, #79);
#78 = CARTESIAN_POINT('', (-1.45, 1.80329241174448E-15, -28.));
#79 = VECTOR('', #80, 27.855);
#80 = DIRECTION('', (0., -1.70562682951248E-15, 27.855));
#81 = ORIENTED_EDGE('', *, *, #82, .T.);
#82 = EDGE_CURVE('', #75, #75, #83, .T.);
#83 = CIRCLE('', #84, 1.45);
#84 = AXIS2_PLACEMENT_3D('', #85, #86, #87);
#85 = CARTESIAN_POINT('', (-4.30211422042248E-16, 4.16333634234434E-16, -0.145));
#86 = DIRECTION('', (9.57088814332032E-17, 1.43774939102055E-17, -1.));
#87 = DIRECTION('', (-1., -2.19771070346505E-16, -9.57088814332032E-17));
#88 = ORIENTED_EDGE('', *, *, #74, .F.);
#89 = ORIENTED_EDGE('', *, *, #43, .F.);
#90 = (
   BOUNDED_SURFACE ()
   B_SPLINE_SURFACE (1, 2, ((#91, #92, #93, #94, #95, #96, #97, #98, #99), (#100, #101, #102, #103, #104, #105, #106, #107, #108)), .UNSPECIFIED., .F., .T., .U.)
   B_SPLINE_SURFACE_WITH_KNOTS ((2, 2), (3, 2, 2, 2, 3), (0., 1.), (0., 2.2776546738526, 4.5553093477052, 6.8329640215578, 9.1106186954104), .UNSPECIFIED.)
   GEOMETRIC_REPRESENTATION_ITEM ()
   RATIONAL_B_SPLINE_SURFACE (((1., 0.707106781186548, 1., 0.707106781186548, 1., 0.707106781186548, 1., 0.707106781186548, 1.), (1., 0.707106781186548, 1., 0.707106781186548, 1., 0.707106781186548, 1., 0.707106781186548, 1.)))
   REPRESENTATION_ITEM ('')
   SURFACE ()
);
#91 = CARTESIAN_POINT('', (-1.45, 3.75221338388291E-16, -28.));
#92 = CARTESIAN_POINT('', (-1.45, 1.45, -28.));
#93 = CARTESIAN_POINT('', (1.82830452533901E-15, 1.45, -28.));
#94 = CARTESIAN_POINT('', (1.45, 1.45, -28.));
#95 = CARTESIAN_POINT('', (1.45, 1.19013122826952E-15, -28.));
#96 = CARTESIAN_POINT('', (1.45, -1.45, -28.));
#97 = CARTESIAN_POINT('', (2.82078820109661E-15, -1.45, -28.));
#98 = CARTESIAN_POINT('', (-1.45, -1.45, -28.));
#99 = CARTESIAN_POINT('', (-1.45, 3.75221338388291E-16, -28.));
#100 = CARTESIAN_POINT('', (-1.45, 9.76655822320012E-17, -0.145));
#101 = CARTESIAN_POINT('', (-1.45, 1.45, -0.145));
#102 = CARTESIAN_POINT('', (-8.37666366982864E-16, 1.45, -0.145));
#103 = CARTESIAN_POINT('', (1.45, 1.45, -0.145));
#104 = CARTESIAN_POINT('', (1.45, 9.12575472113232E-16, -0.145));
#105 = CARTESIAN_POINT('', (1.45, -1.45, -0.145));
#106 = CARTESIAN_POINT('', (1.54817308774734E-16, -1.45, -0.145));
#107 = CARTESIAN_POINT('', (-1.45, -1.45, -0.145));
#108 = CARTESIAN_POINT('', (-1.45, 9.76655822320012E-17, -0.145));
#109 = ADVANCED_FACE('', (#110), #129, .T.);
#110 = FACE_OUTER_BOUND('', #111, .T.);
#111 = EDGE_LOOP('', (#112, #120, #127, #128));
#112 = ORIENTED_EDGE('', *, *, #113, .T.);
#113 = EDGE_CURVE('', #75, #114, #116, .T.);
#114 = VERTEX_POINT('', #115);
#115 = CARTESIAN_POINT('', (-1.305, 7.99082036443648E-17, 0.));
#116 = LINE('', #117, #118);
#117 = CARTESIAN_POINT('', (-1.45, 9.76655822320013E-17, -0.145));
#118 = VECTOR('', #119, 0.205060966544099);
#119 = DIRECTION('', (0.145, -1.77573785876366E-17, 0.145));
#120 = ORIENTED_EDGE('', *, *, #121, .T.);
#121 = EDGE_CURVE('', #114, #114, #122, .T.);
#122 = CIRCLE('', #123, 1.305);
#123 = AXIS2_PLACEMENT_3D('', #124, #125, #126);
#124 = CARTESIAN_POINT('', (1.76941794549634E-16, -8.88178419700125E-16, -7.78751025318191E-16));
#125 = DIRECTION('', (-5.96744080703594E-16, 1.72024457546102E-15, -1.));
#126 = DIRECTION('', (-1., 7.41828830149034E-16, 5.96744080703595E-16));
#127 = ORIENTED_EDGE('', *, *, #113, .F.);
#128 = ORIENTED_EDGE('', *, *, #82, .F.);
#129 = (
   BOUNDED_SURFACE ()
   B_SPLINE_SURFACE (1, 2, ((#130, #131, #132, #133, #134, #135, #136, #137, #138), (#139, #140, #141, #142, #143, #144, #145, #146, #147)), .UNSPECIFIED., .F., .T., .U.)
   B_SPLINE_SURFACE_WITH_KNOTS ((2, 2), (3, 2, 2, 2, 3), (0., 1.), (0., 0.25, 0.5, 0.75, 1.), .UNSPECIFIED.)
   GEOMETRIC_REPRESENTATION_ITEM ()
   RATIONAL_B_SPLINE_SURFACE (((1., 0.707106781186548, 1., 0.707106781186548, 1., 0.707106781186548, 1., 0.707106781186548, 1.), (1., 0.707106781186548, 1., 0.707106781186548, 1., 0.707106781186548, 1., 0.707106781186548, 1.)))
   REPRESENTATION_ITEM ('')
   SURFACE ()
);
#130 = CARTESIAN_POINT('', (-1.45, 1.35320755987239E-15, -0.144999999999999));
#131 = CARTESIAN_POINT('', (-1.45, 1.45, -0.144999999999987));
#132 = CARTESIAN_POINT('', (1.07727881362554E-15, 1.45, -0.144999999999988));
#133 = CARTESIAN_POINT('', (1.45, 1.45, -0.144999999999989));
#134 = CARTESIAN_POINT('', (1.45, -6.20522261683445E-16, -0.145000000000001));
#135 = CARTESIAN_POINT('', (1.45, -1.45, -0.145000000000012));
#136 = CARTESIAN_POINT('', (-7.18877222053943E-16, -1.45, -0.145000000000012));
#137 = CARTESIAN_POINT('', (-1.45, -1.45, -0.145000000000011));
#138 = CARTESIAN_POINT('', (-1.45, 1.35320755987239E-15, -0.144999999999999));
#139 = CARTESIAN_POINT('', (-1.305, 7.99082036443647E-17, -9.86076131526265E-32));
#140 = CARTESIAN_POINT('', (-1.305, 1.305, 1.04916075827078E-14));
#141 = CARTESIAN_POINT('', (1.06512021424977E-15, 1.305, 9.7128565573896E-15));
#142 = CARTESIAN_POINT('', (1.305, 1.305, 8.93410553207141E-15));
#143 = CARTESIAN_POINT('', (1.305, -1.69644863575589E-15, -1.55750205063638E-15));
#144 = CARTESIAN_POINT('', (1.305, -1.305, -1.20491096333442E-14));
#145 = CARTESIAN_POINT('', (-5.51420217861768E-16, -1.305, -1.1270358608026E-14));
#146 = CARTESIAN_POINT('', (-1.305, -1.305, -1.04916075827078E-14));
#147 = CARTESIAN_POINT('', (-1.305, 7.99082036443647E-17, -9.86076131526265E-32));
#148 = ADVANCED_FACE('', (#149), #152, .T.);
#149 = FACE_OUTER_BOUND('', #150, .T.);
#150 = EDGE_LOOP('', (#151));
#151 = ORIENTED_EDGE('', *, *, #121, .F.);
#152 = B_SPLINE_SURFACE_WITH_KNOTS('', 1, 1, ((#153, #154), (#155, #156)), .UNSPECIFIED., .F., .F., .U., (2, 2), (2, 2), (0.0454545454545454, 0.954545454545454), (0.0454545454545454, 0.954545454545454), .UNSPECIFIED.);
#153 = CARTESIAN_POINT('', (1.305, -1.305, -7.99082036443648E-17));
#154 = CARTESIAN_POINT('', (-1.305, -1.305, -7.99082036443648E-17));
#155 = CARTESIAN_POINT('', (1.305, 1.305, 7.99082036443648E-17));
#156 = CARTESIAN_POINT('', (-1.305, 1.305, 7.99082036443648E-17));
#157 = ADVANCED_FACE('', (#158), #177, .T.);
#158 = FACE_OUTER_BOUND('', #159, .T.);
#159 = EDGE_LOOP('', (#160, #169, #175, #176));
#160 = ORIENTED_EDGE('', *, *, #161, .F.);
#161 = EDGE_CURVE('', #162, #162, #164, .T.);
#162 = VERTEX_POINT('', #163);
#163 = CARTESIAN_POINT('', (-1.5, 3.52085954754864E-15, -56.));
#164 = CIRCLE('', #165, 1.5);
#165 = AXIS2_PLACEMENT_3D('', #166, #167, #168);
#166 = CARTESIAN_POINT('', (1.08246744900953E-15, 1.47104550762833E-15, -56.));
#167 = DIRECTION('', (4.73695157173398E-15, -1.54108030506704E-14, -1.));
#168 = DIRECTION('', (-1., 1.3665426932802E-15, -4.736951571734E-15));
#169 = ORIENTED_EDGE('', *, *, #170, .F.);
#170 = EDGE_CURVE('', #8, #162, #171, .T.);
#171 = LINE('', #172, #173);
#172 = CARTESIAN_POINT('', (-1.5, 3.45962720759127E-15, -55.));
#173 = VECTOR('', #174, 1.);
#174 = DIRECTION('', (0., 6.12323399573699E-17, -1.));
#175 = ORIENTED_EDGE('', *, *, #7, .T.);
#176 = ORIENTED_EDGE('', *, *, #170, .T.);
#177 = (
   BOUNDED_SURFACE ()
   B_SPLINE_SURFACE (2, 1, ((#178, #179), (#180, #181), (#182, #183), (#184, #185), (#186, #187), (#188, #189), (#190, #191), (#192, #193), (#194, #195)), .UNSPECIFIED., .T., .F., .U.)
   B_SPLINE_SURFACE_WITH_KNOTS ((3, 2, 2, 2, 3), (2, 2), (0., 2.35619449019235, 4.71238898038469, 7.06858347057704, 9.42477796076938), (0., 0.206185567010309), .UNSPECIFIED.)
   GEOMETRIC_REPRESENTATION_ITEM ()
   RATIONAL_B_SPLINE_SURFACE (((1., 1.), (0.707106781186548, 0.707106781186548), (1., 1.), (0.707106781186548, 0.707106781186548), (1., 1.), (0.707106781186548, 0.707106781186548), (1., 1.), (0.707106781186548, 0.707106781186548), (1., 1.)))
   REPRESENTATION_ITEM ('')
   SURFACE ()
);
#178 = CARTESIAN_POINT('', (-1.5, 3.45962720759127E-15, -55.));
#179 = CARTESIAN_POINT('', (-1.5, 2.76573781720055E-15, -56.));
#180 = CARTESIAN_POINT('', (-1.5, 1.5, -55.));
#181 = CARTESIAN_POINT('', (-1.5, 1.5, -56.));
#182 = CARTESIAN_POINT('', (2.33388350597304E-15, 1.5, -55.));
#183 = CARTESIAN_POINT('', (-2.40306806576093E-15, 1.5, -56.));
#184 = CARTESIAN_POINT('', (1.5, 1.5, -55.));
#185 = CARTESIAN_POINT('', (1.5, 1.5, -56.));
#186 = CARTESIAN_POINT('', (1.5, 1.10250037387561E-16, -55.));
#187 = CARTESIAN_POINT('', (1.5, -5.83639353003157E-16, -56.));
#188 = CARTESIAN_POINT('', (1.5, -1.5, -55.));
#189 = CARTESIAN_POINT('', (1.49999999999999, -1.5, -56.));
#190 = CARTESIAN_POINT('', (-8.31796644358559E-16, -1.5, -55.));
#191 = CARTESIAN_POINT('', (-5.56874821609253E-15, -1.5, -56.));
#192 = CARTESIAN_POINT('', (-1.5, -1.5, -55.));
#193 = CARTESIAN_POINT('', (-1.50000000000001, -1.5, -56.));
#194 = CARTESIAN_POINT('', (-1.5, 3.45962720759127E-15, -55.));
#195 = CARTESIAN_POINT('', (-1.5, 2.76573781720055E-15, -56.));
#196 = ADVANCED_FACE('', (#197), #200, .T.);
#197 = FACE_OUTER_BOUND('', #198, .T.);
#198 = EDGE_LOOP('', (#199));
#199 = ORIENTED_EDGE('', *, *, #161, .T.);
#200 = B_SPLINE_SURFACE_WITH_KNOTS('', 1, 1, ((#201, #202), (#203, #204)), .UNSPECIFIED., .F., .F., .U., (2, 2), (2, 2), (0.498337498249175, 0.523275229832197), (0.476724770167803, 0.501662501750825), .UNSPECIFIED.);
#201 = CARTESIAN_POINT('', (-1.50000000000001, 1.50000000000002, -56.));
#202 = CARTESIAN_POINT('', (-1.50000000000001, -1.49999999999998, -56.));
#203 = CARTESIAN_POINT('', (1.49999999999999, 1.50000000000002, -56.));
#204 = CARTESIAN_POINT('', (1.49999999999999, -1.49999999999998, -56.));
#205 = DRAUGHTING_MODEL('', (#213, #337, #385, #390, #395, #400, #405, #410), #424);
#206 = PRESENTATION_STYLE_ASSIGNMENT((#207));
#207 = SURFACE_STYLE_USAGE(.POSITIVE., #208);
#208 = SURFACE_SIDE_STYLE('', (#209));
#209 = SURFACE_STYLE_FILL_AREA(#210);
#210 = FILL_AREA_STYLE('', (#211));
#211 = FILL_AREA_STYLE_COLOUR('', #212);
#212 = COLOUR_RGB('', 0.50196078431373, 0.50196078431373, 0.50196078431373);
#213 = STYLED_ITEM('', (#206), #1);
#214 = MANIFOLD_SOLID_BREP('CUT', #215);
#215 = CLOSED_SHELL('', (#216, #233, #272, #321));
#216 = ADVANCED_FACE('', (#217), #228, .T.);
#217 = FACE_OUTER_BOUND('', #218, .T.);
#218 = EDGE_LOOP('', (#219));
#219 = ORIENTED_EDGE('', *, *, #220, .F.);
#220 = EDGE_CURVE('', #221, #221, #223, .T.);
#221 = VERTEX_POINT('', #222);
#222 = CARTESIAN_POINT('', (-1.5, 3.52085954754864E-15, -56.));
#223 = CIRCLE('', #224, 1.5);
#224 = AXIS2_PLACEMENT_3D('', #225, #226, #227);
#225 = CARTESIAN_POINT('', (1.08246744900953E-15, 1.47104550762833E-15, -56.));
#226 = DIRECTION('', (4.73695157173398E-15, -1.54108030506704E-14, -1.));
#227 = DIRECTION('', (-1., 1.3665426932802E-15, -4.736951571734E-15));
#228 = B_SPLINE_SURFACE_WITH_KNOTS('', 1, 1, ((#229, #230), (#231, #232)), .UNSPECIFIED., .F., .F., .U., (2, 2), (2, 2), (0.476724770167803, 0.501662501750825), (0.498337498249175, 0.523275229832197), .UNSPECIFIED.);
#229 = CARTESIAN_POINT('', (-1.5, 1.5, -56.));
#230 = CARTESIAN_POINT('', (1.50000000000001, 1.5, -56.));
#231 = CARTESIAN_POINT('', (-1.5, -1.5, -56.));
#232 = CARTESIAN_POINT('', (1.50000000000001, -1.5, -56.));
#233 = ADVANCED_FACE('', (#234), #253, .T.);
#234 = FACE_OUTER_BOUND('', #235, .T.);
#235 = EDGE_LOOP('', (#236, #237, #245, #252));
#236 = ORIENTED_EDGE('', *, *, #220, .T.);
#237 = ORIENTED_EDGE('', *, *, #238, .T.);
#238 = EDGE_CURVE('', #221, #239, #241, .T.);
#239 = VERTEX_POINT('', #240);
#240 = CARTESIAN_POINT('', (-1.5, 3.75660405638451E-15, -59.85));
#241 = LINE('', #242, #243);
#242 = CARTESIAN_POINT('', (-1.5, 3.52085954754864E-15, -56.));
#243 = VECTOR('', #244, 3.85);
#244 = DIRECTION('', (0., 2.3574450883587E-16, -3.85));
#245 = ORIENTED_EDGE('', *, *, #246, .F.);
#246 = EDGE_CURVE('', #239, #239, #247, .T.);
#247 = CIRCLE('', #248, 1.5);
#248 = AXIS2_PLACEMENT_3D('', #249, #250, #251);
#249 = CARTESIAN_POINT('', (5.20417042793042E-16, 1.30451205393456E-15, -59.85));
#250 = DIRECTION('', (0., 0., -1.));
#251 = DIRECTION('', (-1., 1.6347280016333E-15, 0.));
#252 = ORIENTED_EDGE('', *, *, #238, .F.);
#253 = (
   BOUNDED_SURFACE ()
   B_SPLINE_SURFACE (2, 1, ((#254, #255), (#256, #257), (#258, #259), (#260, #261), (#262, #263), (#264, #265), (#266, #267), (#268, #269), (#270, #271)), .UNSPECIFIED., .T., .F., .U.)
   B_SPLINE_SURFACE_WITH_KNOTS ((3, 2, 2, 2, 3), (2, 2), (0., 2.35619449019235, 4.71238898038469, 7.06858347057704, 9.42477796076938), (0.206185567010309, 1.), .UNSPECIFIED.)
   GEOMETRIC_REPRESENTATION_ITEM ()
   RATIONAL_B_SPLINE_SURFACE (((1., 1.), (0.707106781186548, 0.707106781186548), (1., 1.), (0.707106781186548, 0.707106781186548), (1., 1.), (0.707106781186548, 0.707106781186548), (1., 1.), (0.707106781186548, 0.707106781186548), (1., 1.)))
   REPRESENTATION_ITEM ('')
   SURFACE ()
);
#254 = CARTESIAN_POINT('', (-1.5, 3.52085954754864E-15, -56.));
#255 = CARTESIAN_POINT('', (-1.5, 3.82617087932056E-15, -59.85));
#256 = CARTESIAN_POINT('', (-1.5, 1.5, -56.));
#257 = CARTESIAN_POINT('', (-1.5, 1.5, -59.85));
#258 = CARTESIAN_POINT('', (2.30491022517962E-15, 1.5, -56.));
#259 = CARTESIAN_POINT('', (2.30491022517962E-15, 1.5, -59.85));
#260 = CARTESIAN_POINT('', (1.5, 1.5, -56.));
#261 = CARTESIAN_POINT('', (1.5, 1.5, -59.85));
#262 = CARTESIAN_POINT('', (1.5, -1.33876108335126E-15, -56.));
#263 = CARTESIAN_POINT('', (1.5, -1.03344975157934E-15, -59.85));
#264 = CARTESIAN_POINT('', (1.5, -1.5, -56.));
#265 = CARTESIAN_POINT('', (1.5, -1.5, -59.85));
#266 = CARTESIAN_POINT('', (-2.37101338584817E-15, -1.5, -56.));
#267 = CARTESIAN_POINT('', (-2.37101338584817E-15, -1.5, -59.85));
#268 = CARTESIAN_POINT('', (-1.5, -1.5, -56.));
#269 = CARTESIAN_POINT('', (-1.5, -1.5, -59.85));
#270 = CARTESIAN_POINT('', (-1.5, 3.52085954754864E-15, -56.));
#271 = CARTESIAN_POINT('', (-1.5, 3.82617087932056E-15, -59.85));
#272 = ADVANCED_FACE('', (#273), #293, .T.);
#273 = FACE_OUTER_BOUND('', #274, .T.);
#274 = EDGE_LOOP('', (#275, #284, #285, #286));
#275 = ORIENTED_EDGE('', *, *, #276, .F.);
#276 = EDGE_CURVE('', #239, #277, #279, .T.);
#277 = VERTEX_POINT('', #278);
#278 = CARTESIAN_POINT('', (-1.35, 3.75660405638451E-15, -60.));
#279 = CIRCLE('', #280, 0.150000000000004);
#280 = AXIS2_PLACEMENT_3D('', #281, #282, #283);
#281 = CARTESIAN_POINT('', (-1.35, 3.74741920539091E-15, -59.85));
#282 = DIRECTION('', (-6.12323399573311E-17, -1., -6.12323399573324E-17));
#283 = DIRECTION('', (-1., 6.12323399573339E-17, -4.736951571734E-14));
#284 = ORIENTED_EDGE('', *, *, #246, .T.);
#285 = ORIENTED_EDGE('', *, *, #276, .T.);
#286 = ORIENTED_EDGE('', *, *, #287, .F.);
#287 = EDGE_CURVE('', #277, #277, #288, .T.);
#288 = CIRCLE('', #289, 1.35);
#289 = AXIS2_PLACEMENT_3D('', #290, #291, #292);
#290 = CARTESIAN_POINT('', (3.29597460435593E-16, 1.2490009027033E-15, -60.));
#291 = DIRECTION('', (0., 0., -1.));
#292 = DIRECTION('', (-1., 1.85748381754164E-15, 0.));
#293 = (
   BOUNDED_SURFACE ()
   B_SPLINE_SURFACE (2, 2, ((#294, #295, #296), (#297, #298, #299), (#300, #301, #302), (#303, #304, #305), (#306, #307, #308), (#309, #310, #311), (#312, #313, #314), (#315, #316, #317), (#318, #319, #320)), .UNSPECIFIED., .T., .F., .U.)
   B_SPLINE_SURFACE_WITH_KNOTS ((3, 2, 2, 2, 3), (3, 3), (0., 0.25, 0.5, 0.75, 1.), (0., 1.), .UNSPECIFIED.)
   GEOMETRIC_REPRESENTATION_ITEM ()
   RATIONAL_B_SPLINE_SURFACE (((1., 0.707106781186546, 1.), (0.707106781186548, 0.499999999999999, 0.707106781186548), (1., 0.707106781186546, 1.), (0.707106781186548, 0.499999999999999, 0.707106781186548), (1., 0.707106781186546, 1.), (0.707106781186548, 0.499999999999999, 0.707106781186548), (1., 0.707106781186546, 1.), (0.707106781186548, 0.499999999999999, 0.707106781186548), (1., 0.707106781186546, 1.)))
   REPRESENTATION_ITEM ('')
   SURFACE ()
);
#294 = CARTESIAN_POINT('', (-1.5, 3.75660405638451E-15, -59.85));
#295 = CARTESIAN_POINT('', (-1.5, 3.76578890737811E-15, -60.));
#296 = CARTESIAN_POINT('', (-1.35, 3.75660405638451E-15, -60.));
#297 = CARTESIAN_POINT('', (-1.5, 1.5, -59.85));
#298 = CARTESIAN_POINT('', (-1.5, 1.5, -60.));
#299 = CARTESIAN_POINT('', (-1.35, 1.35, -60.));
#300 = CARTESIAN_POINT('', (2.53371584011169E-15, 1.5, -59.85));
#301 = CARTESIAN_POINT('', (5.56506388446594E-15, 1.5, -60.));
#302 = CARTESIAN_POINT('', (5.56506388446596E-15, 1.35, -60.));
#303 = CARTESIAN_POINT('', (1.5, 1.5, -59.85));
#304 = CARTESIAN_POINT('', (1.50000000000001, 1.5, -60.));
#305 = CARTESIAN_POINT('', (1.35000000000001, 1.35, -60.));
#306 = CARTESIAN_POINT('', (1.5, -6.86327172487E-16, -59.85));
#307 = CARTESIAN_POINT('', (1.5, -5.31875293868172E-15, -60.));
#308 = CARTESIAN_POINT('', (1.35, -5.32793778967535E-15, -60.));
#309 = CARTESIAN_POINT('', (1.5, -1.5, -59.85));
#310 = CARTESIAN_POINT('', (1.5, -1.50000000000001, -60.));
#311 = CARTESIAN_POINT('', (1.35, -1.35000000000001, -60.));
#312 = CARTESIAN_POINT('', (-1.72551836888794E-15, -1.5, -59.85));
#313 = CARTESIAN_POINT('', (-3.335780941722E-15, -1.5, -60.));
#314 = CARTESIAN_POINT('', (-3.35415064370923E-15, -1.35, -60.));
#315 = CARTESIAN_POINT('', (-1.5, -1.5, -59.85));
#316 = CARTESIAN_POINT('', (-1.5, -1.5, -60.));
#317 = CARTESIAN_POINT('', (-1.35, -1.35, -60.));
#318 = CARTESIAN_POINT('', (-1.5, 3.75660405638451E-15, -59.85));
#319 = CARTESIAN_POINT('', (-1.5, 3.76578890737811E-15, -60.));
#320 = CARTESIAN_POINT('', (-1.35, 3.75660405638451E-15, -60.));
#321 = ADVANCED_FACE('', (#322), #325, .T.);
#322 = FACE_OUTER_BOUND('', #323, .T.);
#323 = EDGE_LOOP('', (#324));
#324 = ORIENTED_EDGE('', *, *, #287, .T.);
#325 = B_SPLINE_SURFACE_WITH_KNOTS('', 1, 1, ((#326, #327), (#328, #329)), .UNSPECIFIED., .F., .F., .U., (2, 2), (2, 2), (0.0454545454545454, 0.954545454545454), (0.0454545454545454, 0.954545454545454), .UNSPECIFIED.);
#326 = CARTESIAN_POINT('', (1.35, -1.35, -60.));
#327 = CARTESIAN_POINT('', (1.35, 1.35, -60.));
#328 = CARTESIAN_POINT('', (-1.35, -1.35, -60.));
#329 = CARTESIAN_POINT('', (-1.35, 1.35, -60.));
#330 = PRESENTATION_STYLE_ASSIGNMENT((#331));
#331 = SURFACE_STYLE_USAGE(.POSITIVE., #332);
#332 = SURFACE_SIDE_STYLE('', (#333));
#333 = SURFACE_STYLE_FILL_AREA(#334);
#334 = FILL_AREA_STYLE('', (#335));
#335 = FILL_AREA_STYLE_COLOUR('', #336);
#336 = COLOUR_RGB('', 0.8, 0.8, 0.8);
#337 = STYLED_ITEM('', (#330), #214);
#338 = TRIMMED_CURVE('cutting part line', #339, (#343), (#344), .T., .CARTESIAN.);
#339 = LINE('', #340, #341);
#340 = CARTESIAN_POINT('', (2.08166817117217E-16, 0., -60.));
#341 = VECTOR('', #342, 1.35);
#342 = DIRECTION('', (1.35, 0., 0.));
#343 = CARTESIAN_POINT('', (2.08166817117217E-16, 0., -60.));
#344 = CARTESIAN_POINT('', (1.35, 0., -60.));
#345 = TRIMMED_CURVE('cutting part line', #346, (#351), (#352), .T., .CARTESIAN.);
#346 = CIRCLE('', #347, 0.149999999999987);
#347 = AXIS2_PLACEMENT_3D('', #348, #349, #350);
#348 = CARTESIAN_POINT('', (1.35000000000001, 1.37566124382157E-15, -59.85));
#349 = DIRECTION('', (1.57281595155476E-15, -1., 3.08291063426712E-14));
#350 = DIRECTION('', (-5.92118946466812E-14, -3.08291063426713E-14, -1.));
#351 = CARTESIAN_POINT('', (1.35, -3.24870470757872E-15, -60.));
#352 = CARTESIAN_POINT('', (1.5, 1.61158363655536E-15, -59.85));
#353 = TRIMMED_CURVE('cutting part line', #354, (#358), (#359), .T., .CARTESIAN.);
#354 = LINE('', #355, #356);
#355 = CARTESIAN_POINT('', (1.5, 3.05264831377282E-16, -59.85));
#356 = VECTOR('', #357, 3.85);
#357 = DIRECTION('', (0., -3.05264831377282E-16, 3.85));
#358 = CARTESIAN_POINT('', (1.5, 3.05264831377282E-16, -59.85));
#359 = CARTESIAN_POINT('', (1.5, 0., -56.));
#360 = TRIMMED_CURVE('cutting part line', #361, (#365), (#366), .T., .CARTESIAN.);
#361 = LINE('', #362, #363);
#362 = CARTESIAN_POINT('', (1.5, 0., -56.));
#363 = VECTOR('', #364, 1.5);
#364 = DIRECTION('', (-1.5, 0., 0.));
#365 = CARTESIAN_POINT('', (1.5, 0., -56.));
#366 = CARTESIAN_POINT('', (0., 0., -56.));
#367 = TRIMMED_CURVE('cutting part line', #368, (#372), (#373), .T., .CARTESIAN.);
#368 = LINE('', #369, #370);
#369 = CARTESIAN_POINT('', (0., 0., -56.));
#370 = VECTOR('', #371, 4.00000000000001);
#371 = DIRECTION('', (0., 0., -4.00000000000001));
#372 = CARTESIAN_POINT('', (0., 0., -56.));
#373 = CARTESIAN_POINT('', (0., 0., -60.));
#374 = COMPOSITE_CURVE('cutting part line', (#375, #376, #377, #378, #379), .U.);
#375 = COMPOSITE_CURVE_SEGMENT(.CONTINUOUS., .T., #338);
#376 = COMPOSITE_CURVE_SEGMENT(.CONTINUOUS., .T., #345);
#377 = COMPOSITE_CURVE_SEGMENT(.CONTINUOUS., .T., #353);
#378 = COMPOSITE_CURVE_SEGMENT(.CONTINUOUS., .T., #360);
#379 = COMPOSITE_CURVE_SEGMENT(.CONTINUOUS., .T., #367);
#380 = GEOMETRIC_SET('', (#374, #423));
#381 = PRESENTATION_STYLE_ASSIGNMENT((#382));
#382 = CURVE_STYLE('', #384, POSITIVE_LENGTH_MEASURE(1.E-6), #383);
#383 = COLOUR_RGB('', 0., 0., 1.);
#384 = DRAUGHTING_PRE_DEFINED_CURVE_FONT('continuous');
#385 = STYLED_ITEM('', (#381), #374);
#386 = PRESENTATION_STYLE_ASSIGNMENT((#387));
#387 = CURVE_STYLE('', #389, POSITIVE_LENGTH_MEASURE(1.E-6), #388);
#388 = COLOUR_RGB('', 0., 0., 1.);
#389 = DRAUGHTING_PRE_DEFINED_CURVE_FONT('continuous');
#390 = OVER_RIDING_STYLED_ITEM('', (#386), #338, #385);
#391 = PRESENTATION_STYLE_ASSIGNMENT((#392));
#392 = CURVE_STYLE('', #394, POSITIVE_LENGTH_MEASURE(1.E-6), #393);
#393 = COLOUR_RGB('', 0., 0., 1.);
#394 = DRAUGHTING_PRE_DEFINED_CURVE_FONT('continuous');
#395 = OVER_RIDING_STYLED_ITEM('', (#391), #345, #385);
#396 = PRESENTATION_STYLE_ASSIGNMENT((#397));
#397 = CURVE_STYLE('', #399, POSITIVE_LENGTH_MEASURE(1.E-6), #398);
#398 = COLOUR_RGB('', 0., 0., 1.);
#399 = DRAUGHTING_PRE_DEFINED_CURVE_FONT('continuous');
#400 = OVER_RIDING_STYLED_ITEM('', (#396), #353, #385);
#401 = PRESENTATION_STYLE_ASSIGNMENT((#402));
#402 = CURVE_STYLE('', #404, POSITIVE_LENGTH_MEASURE(1.E-6), #403);
#403 = COLOUR_RGB('', 0., 0., 1.);
#404 = DRAUGHTING_PRE_DEFINED_CURVE_FONT('continuous');
#405 = OVER_RIDING_STYLED_ITEM('', (#401), #360, #385);
#406 = PRESENTATION_STYLE_ASSIGNMENT((#407));
#407 = CURVE_STYLE('', #409, POSITIVE_LENGTH_MEASURE(1.E-6), #408);
#408 = COLOUR_RGB('', 0., 0., 1.);
#409 = DRAUGHTING_PRE_DEFINED_CURVE_FONT('continuous');
#410 = OVER_RIDING_STYLED_ITEM('', (#406), #367, #385);
#411 = AXIS2_PLACEMENT_3D('MCS', #412, #413, #414);
#412 = CARTESIAN_POINT('', (0., 0., -28.));
#413 = DIRECTION('', (0., 0., 1.));
#414 = DIRECTION('', (1., 0., 0.));
#415 = AXIS2_PLACEMENT_3D('PCS', #416, #417, #418);
#416 = CARTESIAN_POINT('', (0., 0., 0.));
#417 = DIRECTION('', (0., 0., 1.));
#418 = DIRECTION('', (1., 0., 0.));
#419 = AXIS2_PLACEMENT_3D('CIP', #420, #421, #422);
#420 = CARTESIAN_POINT('', (0., 0., -60.));
#421 = DIRECTION('', (0., 0., 1.));
#422 = DIRECTION('', (1., 0., 0.));
#423 = CARTESIAN_POINT('CRP', (1.5, 0., -60.));
#424 = (
   GEOMETRIC_REPRESENTATION_CONTEXT (3)
   GLOBAL_UNCERTAINTY_ASSIGNED_CONTEXT ((#426))
   GLOBAL_UNIT_ASSIGNED_CONTEXT ((#425, #427, #428))
   REPRESENTATION_CONTEXT ('', '3D')
);
#425 = (
   LENGTH_UNIT ()
   NAMED_UNIT (*)
   SI_UNIT (.MILLI., .METRE.)
);
#426 = UNCERTAINTY_MEASURE_WITH_UNIT(LENGTH_MEASURE(1.E-6), #425, 'DISTANCE_ACCURACY_VALUE', '');
#427 = (
   NAMED_UNIT (*)
   SI_UNIT ($, .STERADIAN.)
   SOLID_ANGLE_UNIT ()
);
#428 = (
   NAMED_UNIT (*)
   PLANE_ANGLE_UNIT ()
   SI_UNIT ($, .RADIAN.)
);
#429 = SHAPE_REPRESENTATION('', (), #424);
#430 = PRODUCT_DEFINITION_SHAPE('', '', #431);
#431 = PRODUCT_DEFINITION('', '', #434, #438);
#432 = APPLICATION_CONTEXT('configuration controlled 3D designs of mechanical parts and assemblies');
#433 = APPLICATION_PROTOCOL_DEFINITION('International Standard', 'automotive_design', 2002, #432);
#434 = PRODUCT_DEFINITION_FORMATION_WITH_SPECIFIED_SOURCE('', '', #435, .NOT_KNOWN.);
#435 = PRODUCT('product-name', '2P123-0300-NG       H10F', '', (#436));
#436 = PRODUCT_CONTEXT('', #432, 'mechanical');
#437 = PRODUCT_RELATED_PRODUCT_CATEGORY('detail', '', (#435));
#438 = PRODUCT_DEFINITION_CONTEXT('part definition', #432, 'design');
#439 = SHAPE_DEFINITION_REPRESENTATION(#430, #429);
#440 = CONSTRUCTIVE_GEOMETRY_REPRESENTATION('supplemental geometry', (#411, #415, #419), #424);
#441 = CONSTRUCTIVE_GEOMETRY_REPRESENTATION_RELATIONSHIP('', '', #429, #440);
#442 = SHAPE_REPRESENTATION_RELATIONSHIP('', '', #429, #443);
#443 = SHAPE_REPRESENTATION('', (#380), #424);
#444 = SHAPE_REPRESENTATION_RELATIONSHIP('', '', #429, #445);
#445 = ADVANCED_BREP_SHAPE_REPRESENTATION('', (#1, #214), #424);
ENDSEC;
END-ISO-10303-21;
