ISO-10303-21;
HEADER;
FILE_DESCRIPTION(('STEP'), '1');
FILE_NAME('C:\\Users\\ds2002\\OneDrive - Sandvik\\HomeShare\\Documents\\Batchrepair\\CorSRT2\\NEW_MILSQ_SLD\\Output\\MOD000000000000000020082306900000.stp', '2019-01-02T12:10:21', (''), (''), 'Express v3.0.0.0', 'Express Tool', 'Unknown');
FILE_SCHEMA(('AUTOMOTIVE_DESIGN'));
ENDSEC;

DATA;
#1 = MANIFOLD_SOLID_BREP('NOCUT', #2);
#2 = CLOSED_SHELL('', (#3, #50, #89, #128, #167, #176));
#3 = ADVANCED_FACE('', (#4), #31, .T.);
#4 = FACE_OUTER_BOUND('', #5, .T.);
#5 = EDGE_LOOP('', (#6, #16, #23, #24));
#6 = ORIENTED_EDGE('', *, *, #7, .F.);
#7 = EDGE_CURVE('', #8, #10, #12, .T.);
#8 = VERTEX_POINT('', #9);
#9 = CARTESIAN_POINT('', (-9.85, 3.31573120869146E-15, -44.3));
#10 = VERTEX_POINT('', #11);
#11 = CARTESIAN_POINT('', (-9.85, 5.13433170542528E-15, -74.));
#12 = LINE('', #13, #14);
#13 = CARTESIAN_POINT('', (-9.85, 3.31573120869146E-15, -44.3));
#14 = VECTOR('', #15, 29.7);
#15 = DIRECTION('', (0., 1.81860049673382E-15, -29.7));
#16 = ORIENTED_EDGE('', *, *, #17, .T.);
#17 = EDGE_CURVE('', #8, #8, #18, .T.);
#18 = CIRCLE('', #19, 9.85);
#19 = AXIS2_PLACEMENT_3D('', #20, #21, #22);
#20 = CARTESIAN_POINT('', (-4.16333634234434E-16, -4.44089209850063E-16, -44.3));
#21 = DIRECTION('', (9.37163590275952E-31, 2.45518677399996E-15, -1.));
#22 = DIRECTION('', (-1., 3.81707656704723E-16, 0.));
#23 = ORIENTED_EDGE('', *, *, #7, .T.);
#24 = ORIENTED_EDGE('', *, *, #25, .F.);
#25 = EDGE_CURVE('', #10, #10, #26, .T.);
#26 = CIRCLE('', #27, 9.85);
#27 = AXIS2_PLACEMENT_3D('', #28, #29, #30);
#28 = CARTESIAN_POINT('', (2.24820162486594E-15, 4.88498130835069E-15, -74.));
#29 = DIRECTION('', (0., 0., -1.));
#30 = DIRECTION('', (-1., 2.5314761124324E-17, 0.));
#31 = (
   BOUNDED_SURFACE ()
   B_SPLINE_SURFACE (2, 1, ((#32, #33), (#34, #35), (#36, #37), (#38, #39), (#40, #41), (#42, #43), (#44, #45), (#46, #47), (#48, #49)), .UNSPECIFIED., .T., .F., .U.)
   B_SPLINE_SURFACE_WITH_KNOTS ((3, 2, 2, 2, 3), (2, 2), (0., 15.4723438189297, 30.9446876378595, 46.4170314567892, 61.8893752757189), (0., 1.), .UNSPECIFIED.)
   GEOMETRIC_REPRESENTATION_ITEM ()
   RATIONAL_B_SPLINE_SURFACE (((1., 1.), (0.707106781186548, 0.707106781186548), (1., 1.), (0.707106781186548, 0.707106781186548), (1., 1.), (0.707106781186548, 0.707106781186548), (1., 1.), (0.707106781186548, 0.707106781186548), (1., 1.)))
   REPRESENTATION_ITEM ('')
   SURFACE ()
);
#32 = CARTESIAN_POINT('', (-9.85, 3.31573120869146E-15, -44.3));
#33 = CARTESIAN_POINT('', (-9.85, 4.42595423331662E-15, -74.));
#34 = CARTESIAN_POINT('', (-9.85, 9.85, -44.3));
#35 = CARTESIAN_POINT('', (-9.85, 9.85, -74.));
#36 = CARTESIAN_POINT('', (1.15828042563617E-15, 9.85, -44.3));
#37 = CARTESIAN_POINT('', (1.15828042563617E-15, 9.85, -74.));
#38 = CARTESIAN_POINT('', (9.85, 9.85, -44.3));
#39 = CARTESIAN_POINT('', (9.85, 9.85000000000001, -74.));
#40 = CARTESIAN_POINT('', (9.85, 5.44006245591975E-15, -44.3));
#41 = CARTESIAN_POINT('', (9.85, 6.5502854805449E-15, -74.));
#42 = CARTESIAN_POINT('', (9.85, -9.84999999999999, -44.3));
#43 = CARTESIAN_POINT('', (9.85, -9.84999999999999, -74.));
#44 = CARTESIAN_POINT('', (4.4888887700246E-15, -9.85, -44.3));
#45 = CARTESIAN_POINT('', (4.4888887700246E-15, -9.84999999999999, -74.));
#46 = CARTESIAN_POINT('', (-9.84999999999999, -9.85, -44.3));
#47 = CARTESIAN_POINT('', (-9.84999999999999, -9.85, -74.));
#48 = CARTESIAN_POINT('', (-9.85, 3.31573120869146E-15, -44.3));
#49 = CARTESIAN_POINT('', (-9.85, 4.42595423331662E-15, -74.));
#50 = ADVANCED_FACE('', (#51), #70, .T.);
#51 = FACE_OUTER_BOUND('', #52, .T.);
#52 = EDGE_LOOP('', (#53, #61, #68, #69));
#53 = ORIENTED_EDGE('', *, *, #54, .F.);
#54 = EDGE_CURVE('', #55, #8, #57, .T.);
#55 = VERTEX_POINT('', #56);
#56 = CARTESIAN_POINT('', (-10., 3.30654635769785E-15, -44.));
#57 = LINE('', #58, #59);
#58 = CARTESIAN_POINT('', (-10., 3.30654635769785E-15, -44.));
#59 = VECTOR('', #60, 0.335410196624966);
#60 = DIRECTION('', (0.15, 9.18485099360995E-18, -0.299999999999997));
#61 = ORIENTED_EDGE('', *, *, #62, .T.);
#62 = EDGE_CURVE('', #55, #55, #63, .T.);
#63 = CIRCLE('', #64, 10.);
#64 = AXIS2_PLACEMENT_3D('', #65, #66, #67);
#65 = CARTESIAN_POINT('', (-8.32667268468867E-17, -1.06581410364015E-14, -44.));
#66 = DIRECTION('', (0., 0., -1.));
#67 = DIRECTION('', (-1., 1.39646873940994E-15, 0.));
#68 = ORIENTED_EDGE('', *, *, #54, .T.);
#69 = ORIENTED_EDGE('', *, *, #17, .F.);
#70 = (
   BOUNDED_SURFACE ()
   B_SPLINE_SURFACE (2, 1, ((#71, #72), (#73, #74), (#75, #76), (#77, #78), (#79, #80), (#81, #82), (#83, #84), (#85, #86), (#87, #88)), .UNSPECIFIED., .T., .F., .U.)
   B_SPLINE_SURFACE_WITH_KNOTS ((3, 2, 2, 2, 3), (2, 2), (0., 0.25, 0.5, 0.75, 1.), (0., 1.), .UNSPECIFIED.)
   GEOMETRIC_REPRESENTATION_ITEM ()
   RATIONAL_B_SPLINE_SURFACE (((1., 1.), (0.707106781186548, 0.707106781186548), (1., 1.), (0.707106781186548, 0.707106781186548), (1., 1.), (0.707106781186548, 0.707106781186548), (1., 1.), (0.707106781186548, 0.707106781186548), (1., 1.)))
   REPRESENTATION_ITEM ('')
   SURFACE ()
);
#71 = CARTESIAN_POINT('', (-10., 3.30654635769785E-15, -44.));
#72 = CARTESIAN_POINT('', (-9.85, 1.33111278733378E-14, -44.3));
#73 = CARTESIAN_POINT('', (-9.99999999999999, 10., -43.9999999999997));
#74 = CARTESIAN_POINT('', (-9.84999999999999, 9.85000000000001, -44.2999999999997));
#75 = CARTESIAN_POINT('', (1.32690972676788E-14, 9.99999999999999, -43.9999999999997));
#76 = CARTESIAN_POINT('', (1.30688118077609E-14, 9.85, -44.2999999999997));
#77 = CARTESIAN_POINT('', (10., 9.99999999999998, -43.9999999999997));
#78 = CARTESIAN_POINT('', (9.85000000000001, 9.84999999999999, -44.2999999999997));
#79 = CARTESIAN_POINT('', (10., -2.33981816313535E-14, -44.));
#80 = CARTESIAN_POINT('', (9.85, -1.29930291958778E-14, -44.3));
#81 = CARTESIAN_POINT('', (9.99999999999999, -10., -44.0000000000003));
#82 = CARTESIAN_POINT('', (9.84999999999999, -9.85000000000001, -44.3000000000003));
#83 = CARTESIAN_POINT('', (-1.22109839222252E-14, -10., -44.0000000000003));
#84 = CARTESIAN_POINT('', (-1.20290681642945E-14, -9.85, -44.3000000000003));
#85 = CARTESIAN_POINT('', (-10., -10., -44.0000000000003));
#86 = CARTESIAN_POINT('', (-9.85000000000001, -9.84999999999999, -44.3000000000003));
#87 = CARTESIAN_POINT('', (-10., 3.30654635769785E-15, -44.));
#88 = CARTESIAN_POINT('', (-9.85, 1.33111278733378E-14, -44.3));
#89 = ADVANCED_FACE('', (#90), #109, .T.);
#90 = FACE_OUTER_BOUND('', #91, .T.);
#91 = EDGE_LOOP('', (#92, #100, #107, #108));
#92 = ORIENTED_EDGE('', *, *, #93, .T.);
#93 = EDGE_CURVE('', #55, #94, #96, .T.);
#94 = VERTEX_POINT('', #95);
#95 = CARTESIAN_POINT('', (-10., 6.73555739531045E-16, -1.));
#96 = LINE('', #97, #98);
#97 = CARTESIAN_POINT('', (-10., 3.30654635769785E-15, -44.));
#98 = VECTOR('', #99, 43.);
#99 = DIRECTION('', (0., -2.63299061816681E-15, 43.));
#100 = ORIENTED_EDGE('', *, *, #101, .T.);
#101 = EDGE_CURVE('', #94, #94, #102, .T.);
#102 = CIRCLE('', #103, 10.);
#103 = AXIS2_PLACEMENT_3D('', #104, #105, #106);
#104 = CARTESIAN_POINT('', (-3.10862446895044E-15, -3.99680288865056E-15, -1.));
#105 = DIRECTION('', (1.11022302462516E-17, 3.94546482371774E-17, -1.));
#106 = DIRECTION('', (-1., 4.67035862818161E-16, -1.11022302462516E-17));
#107 = ORIENTED_EDGE('', *, *, #93, .F.);
#108 = ORIENTED_EDGE('', *, *, #62, .F.);
#109 = (
   BOUNDED_SURFACE ()
   B_SPLINE_SURFACE (1, 2, ((#110, #111, #112, #113, #114, #115, #116, #117, #118), (#119, #120, #121, #122, #123, #124, #125, #126, #127)), .UNSPECIFIED., .F., .T., .U.)
   B_SPLINE_SURFACE_WITH_KNOTS ((2, 2), (3, 2, 2, 2, 3), (0., 1.), (0., 15.707963267949, 31.415926535898, 47.1238898038469, 62.8318530717959), .UNSPECIFIED.)
   GEOMETRIC_REPRESENTATION_ITEM ()
   RATIONAL_B_SPLINE_SURFACE (((1., 0.707106781186548, 1., 0.707106781186548, 1., 0.707106781186548, 1., 0.707106781186548, 1.), (1., 0.707106781186548, 1., 0.707106781186548, 1., 0.707106781186548, 1., 0.707106781186548, 1.)))
   REPRESENTATION_ITEM ('')
   SURFACE ()
);
#110 = CARTESIAN_POINT('', (-10., 4.22626941833155E-15, -44.));
#111 = CARTESIAN_POINT('', (-10., 10., -44.));
#112 = CARTESIAN_POINT('', (1.42680666024632E-15, 10., -44.));
#113 = CARTESIAN_POINT('', (10., 10., -44.));
#114 = CARTESIAN_POINT('', (10., -3.88980103888432E-15, -44.));
#115 = CARTESIAN_POINT('', (10., -10., -44.));
#116 = CARTESIAN_POINT('', (-5.4646169978222E-15, -10., -44.));
#117 = CARTESIAN_POINT('', (-10., -10., -44.));
#118 = CARTESIAN_POINT('', (-10., 4.22626941833155E-15, -44.));
#119 = CARTESIAN_POINT('', (-10., 6.73555739531046E-16, -1.));
#120 = CARTESIAN_POINT('', (-10., 10., -0.999999999999999));
#121 = CARTESIAN_POINT('', (9.49410759657495E-16, 10., -0.999999999999999));
#122 = CARTESIAN_POINT('', (10., 9.99999999999999, -0.999999999999999));
#123 = CARTESIAN_POINT('', (10., -7.44251471768482E-15, -1.));
#124 = CARTESIAN_POINT('', (9.99999999999999, -10., -1.));
#125 = CARTESIAN_POINT('', (-5.94201289841102E-15, -10., -1.));
#126 = CARTESIAN_POINT('', (-10., -10., -1.));
#127 = CARTESIAN_POINT('', (-10., 6.73555739531046E-16, -1.));
#128 = ADVANCED_FACE('', (#129), #148, .T.);
#129 = FACE_OUTER_BOUND('', #130, .T.);
#130 = EDGE_LOOP('', (#131, #139, #146, #147));
#131 = ORIENTED_EDGE('', *, *, #132, .T.);
#132 = EDGE_CURVE('', #94, #133, #135, .T.);
#133 = VERTEX_POINT('', #134);
#134 = CARTESIAN_POINT('', (-9., 5.51091059616309E-16, 0.));
#135 = LINE('', #136, #137);
#136 = CARTESIAN_POINT('', (-10., 6.73555739531045E-16, -1.));
#137 = VECTOR('', #138, 1.4142135623731);
#138 = DIRECTION('', (1., -1.22464679914736E-16, 1.));
#139 = ORIENTED_EDGE('', *, *, #140, .T.);
#140 = EDGE_CURVE('', #133, #133, #141, .T.);
#141 = CIRCLE('', #142, 9.);
#142 = AXIS2_PLACEMENT_3D('', #143, #144, #145);
#143 = CARTESIAN_POINT('', (4.57966997657877E-15, 0., 0.));
#144 = DIRECTION('', (3.74939945665464E-33, 6.12323399573677E-17, -1.));
#145 = DIRECTION('', (-1., 6.12323399573676E-17, -8.26930961488467E-81));
#146 = ORIENTED_EDGE('', *, *, #132, .F.);
#147 = ORIENTED_EDGE('', *, *, #101, .F.);
#148 = (
   BOUNDED_SURFACE ()
   B_SPLINE_SURFACE (1, 2, ((#149, #150, #151, #152, #153, #154, #155, #156, #157), (#158, #159, #160, #161, #162, #163, #164, #165, #166)), .UNSPECIFIED., .F., .T., .U.)
   B_SPLINE_SURFACE_WITH_KNOTS ((2, 2), (3, 2, 2, 2, 3), (0., 1.), (0., 0.25, 0.5, 0.75, 1.), .UNSPECIFIED.)
   GEOMETRIC_REPRESENTATION_ITEM ()
   RATIONAL_B_SPLINE_SURFACE (((1., 0.707106781186548, 1., 0.707106781186548, 1., 0.707106781186548, 1., 0.707106781186548, 1.), (1., 0.707106781186548, 1., 0.707106781186548, 1., 0.707106781186548, 1., 0.707106781186548, 1.)))
   REPRESENTATION_ITEM ('')
   SURFACE ()
);
#149 = CARTESIAN_POINT('', (-9.99999999999999, -5.38288093340217E-15, -1.));
#150 = CARTESIAN_POINT('', (-9.99999999999999, 9.99999999999999, -1.00000000000006));
#151 = CARTESIAN_POINT('', (4.57966997657877E-15, 9.99999999999999, -1.00000000000006));
#152 = CARTESIAN_POINT('', (10., 9.99999999999999, -1.00000000000006));
#153 = CARTESIAN_POINT('', (10., -5.38288093340217E-15, -1.));
#154 = CARTESIAN_POINT('', (10., -10., -0.99999999999994));
#155 = CARTESIAN_POINT('', (5.80431677572612E-15, -10., -0.99999999999994));
#156 = CARTESIAN_POINT('', (-9.99999999999999, -10., -0.99999999999994));
#157 = CARTESIAN_POINT('', (-9.99999999999999, -5.38288093340217E-15, -1.));
#158 = CARTESIAN_POINT('', (-9., 5.51091059616309E-16, 0.));
#159 = CARTESIAN_POINT('', (-9., 9., -5.39568389967826E-14));
#160 = CARTESIAN_POINT('', (4.57966997657877E-15, 9., -5.39568389967826E-14));
#161 = CARTESIAN_POINT('', (9.00000000000001, 9., -5.39568389967826E-14));
#162 = CARTESIAN_POINT('', (9.00000000000001, 5.51091059616309E-16, -6.60780701695189E-30));
#163 = CARTESIAN_POINT('', (9.00000000000001, -9., 5.39568389967826E-14));
#164 = CARTESIAN_POINT('', (5.68185209581139E-15, -9., 5.39568389967826E-14));
#165 = CARTESIAN_POINT('', (-8.99999999999999, -9., 5.39568389967826E-14));
#166 = CARTESIAN_POINT('', (-9., 5.51091059616309E-16, 0.));
#167 = ADVANCED_FACE('', (#168), #171, .T.);
#168 = FACE_OUTER_BOUND('', #169, .T.);
#169 = EDGE_LOOP('', (#170));
#170 = ORIENTED_EDGE('', *, *, #140, .F.);
#171 = B_SPLINE_SURFACE_WITH_KNOTS('', 1, 1, ((#172, #173), (#174, #175)), .UNSPECIFIED., .F., .F., .U., (2, 2), (2, 2), (0.0454545454545454, 0.954545454545454), (0.0454545454545454, 0.954545454545454), .UNSPECIFIED.);
#172 = CARTESIAN_POINT('', (9., -9., -5.51091059616309E-16));
#173 = CARTESIAN_POINT('', (-9., -9., -5.51091059616309E-16));
#174 = CARTESIAN_POINT('', (9., 9., 5.51091059616309E-16));
#175 = CARTESIAN_POINT('', (-9., 9., 5.51091059616309E-16));
#176 = ADVANCED_FACE('', (#177), #180, .T.);
#177 = FACE_OUTER_BOUND('', #178, .T.);
#178 = EDGE_LOOP('', (#179));
#179 = ORIENTED_EDGE('', *, *, #25, .T.);
#180 = B_SPLINE_SURFACE_WITH_KNOTS('', 1, 1, ((#181, #182), (#183, #184)), .UNSPECIFIED., .F., .F., .U., (2, 2), (2, 2), (0.473931352698905, 0.565323295009551), (0.434676704990449, 0.526068647301095), .UNSPECIFIED.);
#181 = CARTESIAN_POINT('', (-9.85000000000002, 9.85000000000002, -74.));
#182 = CARTESIAN_POINT('', (-9.85000000000002, -9.84999999999998, -74.));
#183 = CARTESIAN_POINT('', (9.84999999999997, 9.85000000000002, -74.));
#184 = CARTESIAN_POINT('', (9.84999999999997, -9.84999999999998, -74.));
#185 = DRAUGHTING_MODEL('', (#193, #317, #365, #370, #375, #380, #385, #390), #404);
#186 = PRESENTATION_STYLE_ASSIGNMENT((#187));
#187 = SURFACE_STYLE_USAGE(.POSITIVE., #188);
#188 = SURFACE_SIDE_STYLE('', (#189));
#189 = SURFACE_STYLE_FILL_AREA(#190);
#190 = FILL_AREA_STYLE('', (#191));
#191 = FILL_AREA_STYLE_COLOUR('', #192);
#192 = COLOUR_RGB('', 0.50196078431373, 0.50196078431373, 0.50196078431373);
#193 = STYLED_ITEM('', (#186), #1);
#194 = MANIFOLD_SOLID_BREP('CUT', #195);
#195 = CLOSED_SHELL('', (#196, #213, #252, #301));
#196 = ADVANCED_FACE('', (#197), #208, .T.);
#197 = FACE_OUTER_BOUND('', #198, .T.);
#198 = EDGE_LOOP('', (#199));
#199 = ORIENTED_EDGE('', *, *, #200, .F.);
#200 = EDGE_CURVE('', #201, #201, #203, .T.);
#201 = VERTEX_POINT('', #202);
#202 = CARTESIAN_POINT('', (-10., 5.14351655641888E-15, -74.));
#203 = CIRCLE('', #204, 10.);
#204 = AXIS2_PLACEMENT_3D('', #205, #206, #207);
#205 = CARTESIAN_POINT('', (-1.2490009027033E-15, -1.77635683940025E-15, -74.));
#206 = DIRECTION('', (3.34694758291635E-30, 4.83671794477991E-15, -1.));
#207 = DIRECTION('', (-1., 6.91987339581913E-16, 0.));
#208 = B_SPLINE_SURFACE_WITH_KNOTS('', 1, 1, ((#209, #210), (#211, #212)), .UNSPECIFIED., .F., .F., .U., (2, 2), (2, 2), (0.0454545454545454, 0.954545454545455), (0.0454545454545454, 0.954545454545455), .UNSPECIFIED.);
#209 = CARTESIAN_POINT('', (10., -10., -74.));
#210 = CARTESIAN_POINT('', (-10., -10., -74.));
#211 = CARTESIAN_POINT('', (10., 10., -74.));
#212 = CARTESIAN_POINT('', (-10., 10., -74.));
#213 = ADVANCED_FACE('', (#214), #233, .T.);
#214 = FACE_OUTER_BOUND('', #215, .T.);
#215 = EDGE_LOOP('', (#216, #224, #225, #226));
#216 = ORIENTED_EDGE('', *, *, #217, .F.);
#217 = EDGE_CURVE('', #201, #218, #220, .T.);
#218 = VERTEX_POINT('', #219);
#219 = CARTESIAN_POINT('', (-10., 6.97130190414631E-15, -103.85));
#220 = LINE('', #221, #222);
#221 = CARTESIAN_POINT('', (-10., 5.14351655641888E-15, -74.));
#222 = VECTOR('', #223, 29.85);
#223 = DIRECTION('', (0., 1.82778534772743E-15, -29.85));
#224 = ORIENTED_EDGE('', *, *, #200, .T.);
#225 = ORIENTED_EDGE('', *, *, #217, .T.);
#226 = ORIENTED_EDGE('', *, *, #227, .F.);
#227 = EDGE_CURVE('', #218, #218, #228, .T.);
#228 = CIRCLE('', #229, 10.);
#229 = AXIS2_PLACEMENT_3D('', #230, #231, #232);
#230 = CARTESIAN_POINT('', (-3.7470027081099E-15, 4.66293670342566E-15, -103.85));
#231 = DIRECTION('', (0., 0., -1.));
#232 = DIRECTION('', (-1., 2.30836520072065E-16, 0.));
#233 = (
   BOUNDED_SURFACE ()
   B_SPLINE_SURFACE (2, 1, ((#234, #235), (#236, #237), (#238, #239), (#240, #241), (#242, #243), (#244, #245), (#246, #247), (#248, #249), (#250, #251)), .UNSPECIFIED., .T., .F., .U.)
   B_SPLINE_SURFACE_WITH_KNOTS ((3, 2, 2, 2, 3), (2, 2), (0., 15.707963267949, 31.415926535898, 47.1238898038469, 62.8318530717959), (0., 1.), .UNSPECIFIED.)
   GEOMETRIC_REPRESENTATION_ITEM ()
   RATIONAL_B_SPLINE_SURFACE (((1., 1.), (0.707106781186548, 0.707106781186548), (1., 1.), (0.707106781186548, 0.707106781186548), (1., 1.), (0.707106781186548, 0.707106781186548), (1., 1.), (0.707106781186548, 0.707106781186548), (1., 1.)))
   REPRESENTATION_ITEM ('')
   SURFACE ()
);
#234 = CARTESIAN_POINT('', (-10., 5.14351655641888E-15, -74.));
#235 = CARTESIAN_POINT('', (-10., 1.02505424696946E-14, -103.85));
#236 = CARTESIAN_POINT('', (-9.99999999999999, 10., -74.));
#237 = CARTESIAN_POINT('', (-9.99999999999999, 10., -103.85));
#238 = CARTESIAN_POINT('', (1.75563559528231E-15, 10., -74.));
#239 = CARTESIAN_POINT('', (1.75563559528231E-15, 10., -103.85));
#240 = CARTESIAN_POINT('', (10., 9.99999999999999, -74.));
#241 = CARTESIAN_POINT('', (10., 10., -103.85));
#242 = CARTESIAN_POINT('', (9.99999999999999, -4.80704817697165E-15, -74.));
#243 = CARTESIAN_POINT('', (9.99999999999999, 2.99977736304068E-16, -103.85));
#244 = CARTESIAN_POINT('', (9.99999999999999, -10., -74.));
#245 = CARTESIAN_POINT('', (9.99999999999999, -9.99999999999999, -103.85));
#246 = CARTESIAN_POINT('', (-6.97028233896087E-15, -10., -74.));
#247 = CARTESIAN_POINT('', (-6.97028233896086E-15, -9.99999999999999, -103.85));
#248 = CARTESIAN_POINT('', (-10., -9.99999999999999, -74.));
#249 = CARTESIAN_POINT('', (-10., -9.99999999999999, -103.85));
#250 = CARTESIAN_POINT('', (-10., 5.14351655641888E-15, -74.));
#251 = CARTESIAN_POINT('', (-10., 1.02505424696946E-14, -103.85));
#252 = ADVANCED_FACE('', (#253), #273, .T.);
#253 = FACE_OUTER_BOUND('', #254, .T.);
#254 = EDGE_LOOP('', (#255, #264, #265, #266));
#255 = ORIENTED_EDGE('', *, *, #256, .F.);
#256 = EDGE_CURVE('', #218, #257, #259, .T.);
#257 = VERTEX_POINT('', #258);
#258 = CARTESIAN_POINT('', (-9.85, 6.97130190414631E-15, -104.));
#259 = CIRCLE('', #260, 0.150000000000037);
#260 = AXIS2_PLACEMENT_3D('', #261, #262, #263);
#261 = CARTESIAN_POINT('', (-9.84999999999997, 6.9621170531527E-15, -103.85));
#262 = DIRECTION('', (-6.12323399573563E-17, -1., -6.12323399573506E-17));
#263 = DIRECTION('', (-1., 6.12323399573621E-17, -9.47390314346585E-14));
#264 = ORIENTED_EDGE('', *, *, #227, .T.);
#265 = ORIENTED_EDGE('', *, *, #256, .T.);
#266 = ORIENTED_EDGE('', *, *, #267, .F.);
#267 = EDGE_CURVE('', #257, #257, #268, .T.);
#268 = CIRCLE('', #269, 9.85);
#269 = AXIS2_PLACEMENT_3D('', #270, #271, #272);
#270 = CARTESIAN_POINT('', (9.15933995315754E-16, 5.77315972805081E-15, -104.));
#271 = DIRECTION('', (0., 0., -1.));
#272 = DIRECTION('', (-1., 1.21638799603604E-16, 0.));
#273 = (
   BOUNDED_SURFACE ()
   B_SPLINE_SURFACE (2, 2, ((#274, #275, #276), (#277, #278, #279), (#280, #281, #282), (#283, #284, #285), (#286, #287, #288), (#289, #290, #291), (#292, #293, #294), (#295, #296, #297), (#298, #299, #300)), .UNSPECIFIED., .T., .F., .U.)
   B_SPLINE_SURFACE_WITH_KNOTS ((3, 2, 2, 2, 3), (3, 3), (0., 0.25, 0.5, 0.75, 1.), (0., 1.), .UNSPECIFIED.)
   GEOMETRIC_REPRESENTATION_ITEM ()
   RATIONAL_B_SPLINE_SURFACE (((1., 0.70710678118656, 1.), (0.707106781186548, 0.500000000000009, 0.707106781186548), (1., 0.70710678118656, 1.), (0.707106781186548, 0.500000000000009, 0.707106781186548), (1., 0.70710678118656, 1.), (0.707106781186548, 0.500000000000009, 0.707106781186548), (1., 0.70710678118656, 1.), (0.707106781186548, 0.500000000000009, 0.707106781186548), (1., 0.70710678118656, 1.)))
   REPRESENTATION_ITEM ('')
   SURFACE ()
);
#274 = CARTESIAN_POINT('', (-10., 6.97130190414631E-15, -103.85));
#275 = CARTESIAN_POINT('', (-9.99999999999999, 6.98048675513991E-15, -104.));
#276 = CARTESIAN_POINT('', (-9.85, 6.97130190414631E-15, -104.));
#277 = CARTESIAN_POINT('', (-10., 10., -103.85));
#278 = CARTESIAN_POINT('', (-9.99999999999999, 9.99999999999999, -104.));
#279 = CARTESIAN_POINT('', (-9.85, 9.85, -104.));
#280 = CARTESIAN_POINT('', (-2.35627223873485E-15, 10., -103.85));
#281 = CARTESIAN_POINT('', (-1.62157969602416E-15, 9.99999999999999, -104.));
#282 = CARTESIAN_POINT('', (-1.62157969602422E-15, 9.85, -104.));
#283 = CARTESIAN_POINT('', (10., 10., -103.85));
#284 = CARTESIAN_POINT('', (9.99999999999999, 9.99999999999999, -104.));
#285 = CARTESIAN_POINT('', (9.85, 9.85, -104.));
#286 = CARTESIAN_POINT('', (10., 7.13193198065286E-15, -103.85));
#287 = CARTESIAN_POINT('', (9.99999999999999, 5.67173174622509E-15, -104.));
#288 = CARTESIAN_POINT('', (9.85, 5.66254689523161E-15, -104.));
#289 = CARTESIAN_POINT('', (10., -9.99999999999999, -103.85));
#290 = CARTESIAN_POINT('', (9.99999999999999, -9.99999999999998, -104.));
#291 = CARTESIAN_POINT('', (9.85, -9.84999999999999, -104.));
#292 = CARTESIAN_POINT('', (-9.70995363080943E-16, -9.99999999999999, -103.85));
#293 = CARTESIAN_POINT('', (-1.70568790579163E-15, -9.99999999999998, -104.));
#294 = CARTESIAN_POINT('', (-1.72405760777878E-15, -9.84999999999999, -104.));
#295 = CARTESIAN_POINT('', (-10., -9.99999999999999, -103.85));
#296 = CARTESIAN_POINT('', (-9.99999999999999, -9.99999999999998, -104.));
#297 = CARTESIAN_POINT('', (-9.85, -9.84999999999999, -104.));
#298 = CARTESIAN_POINT('', (-10., 6.97130190414631E-15, -103.85));
#299 = CARTESIAN_POINT('', (-9.99999999999999, 6.98048675513991E-15, -104.));
#300 = CARTESIAN_POINT('', (-9.85, 6.97130190414631E-15, -104.));
#301 = ADVANCED_FACE('', (#302), #305, .T.);
#302 = FACE_OUTER_BOUND('', #303, .T.);
#303 = EDGE_LOOP('', (#304));
#304 = ORIENTED_EDGE('', *, *, #267, .T.);
#305 = B_SPLINE_SURFACE_WITH_KNOTS('', 1, 1, ((#306, #307), (#308, #309)), .UNSPECIFIED., .F., .F., .U., (2, 2), (2, 2), (0.0454545454545454, 0.954545454545455), (0.0454545454545454, 0.954545454545455), .UNSPECIFIED.);
#306 = CARTESIAN_POINT('', (9.85, -9.84999999999999, -104.));
#307 = CARTESIAN_POINT('', (9.85, 9.85000000000001, -104.));
#308 = CARTESIAN_POINT('', (-9.85, -9.84999999999999, -104.));
#309 = CARTESIAN_POINT('', (-9.85, 9.85000000000001, -104.));
#310 = PRESENTATION_STYLE_ASSIGNMENT((#311));
#311 = SURFACE_STYLE_USAGE(.POSITIVE., #312);
#312 = SURFACE_SIDE_STYLE('', (#313));
#313 = SURFACE_STYLE_FILL_AREA(#314);
#314 = FILL_AREA_STYLE('', (#315));
#315 = FILL_AREA_STYLE_COLOUR('', #316);
#316 = COLOUR_RGB('', 0.8, 0.8, 0.8);
#317 = STYLED_ITEM('', (#310), #194);
#318 = TRIMMED_CURVE('cutting part line', #319, (#323), (#324), .T., .CARTESIAN.);
#319 = LINE('', #320, #321);
#320 = CARTESIAN_POINT('', (5.55111512312578E-16, 0., -104.));
#321 = VECTOR('', #322, 9.85);
#322 = DIRECTION('', (9.85, 0., 1.4210854715202E-14));
#323 = CARTESIAN_POINT('', (5.55111512312578E-16, 0., -104.));
#324 = CARTESIAN_POINT('', (9.85, 0., -104.));
#325 = TRIMMED_CURVE('cutting part line', #326, (#331), (#332), .T., .CARTESIAN.);
#326 = CIRCLE('', #327, 0.149999999999995);
#327 = AXIS2_PLACEMENT_3D('', #328, #329, #330);
#328 = CARTESIAN_POINT('', (9.85, 9.00761598500222E-15, -103.85));
#329 = DIRECTION('', (5.55111512312395E-16, -1., 9.67269923398832E-15));
#330 = DIRECTION('', (0., -9.67269923398832E-15, -1.));
#331 = CARTESIAN_POINT('', (9.85, 7.55671109990402E-15, -104.));
#332 = CARTESIAN_POINT('', (9.99999999999999, 9.09088271184922E-15, -103.85));
#333 = TRIMMED_CURVE('cutting part line', #334, (#338), (#339), .T., .CARTESIAN.);
#334 = LINE('', #335, #336);
#335 = CARTESIAN_POINT('', (9.99999999999999, 5.10624808849269E-15, -103.85));
#336 = VECTOR('', #337, 29.85);
#337 = DIRECTION('', (0., -5.10624808849269E-15, 29.85));
#338 = CARTESIAN_POINT('', (9.99999999999999, 5.10624808849269E-15, -103.85));
#339 = CARTESIAN_POINT('', (9.99999999999999, 0., -74.));
#340 = TRIMMED_CURVE('cutting part line', #341, (#345), (#346), .T., .CARTESIAN.);
#341 = LINE('', #342, #343);
#342 = CARTESIAN_POINT('', (10., 0., -74.));
#343 = VECTOR('', #344, 10.);
#344 = DIRECTION('', (-10., 0., 0.));
#345 = CARTESIAN_POINT('', (10., 0., -74.));
#346 = CARTESIAN_POINT('', (2.77555756156289E-17, 0., -74.));
#347 = TRIMMED_CURVE('cutting part line', #348, (#352), (#353), .T., .CARTESIAN.);
#348 = LINE('', #349, #350);
#349 = CARTESIAN_POINT('', (0., 0., -74.));
#350 = VECTOR('', #351, 30.);
#351 = DIRECTION('', (0., 0., -30.));
#352 = CARTESIAN_POINT('', (0., 0., -74.));
#353 = CARTESIAN_POINT('', (0., 0., -104.));
#354 = COMPOSITE_CURVE('cutting part line', (#355, #356, #357, #358, #359), .U.);
#355 = COMPOSITE_CURVE_SEGMENT(.CONTINUOUS., .T., #318);
#356 = COMPOSITE_CURVE_SEGMENT(.CONTINUOUS., .T., #325);
#357 = COMPOSITE_CURVE_SEGMENT(.CONTINUOUS., .T., #333);
#358 = COMPOSITE_CURVE_SEGMENT(.CONTINUOUS., .T., #340);
#359 = COMPOSITE_CURVE_SEGMENT(.CONTINUOUS., .T., #347);
#360 = GEOMETRIC_SET('', (#354, #403));
#361 = PRESENTATION_STYLE_ASSIGNMENT((#362));
#362 = CURVE_STYLE('', #364, POSITIVE_LENGTH_MEASURE(1.E-6), #363);
#363 = COLOUR_RGB('', 0., 0., 1.);
#364 = DRAUGHTING_PRE_DEFINED_CURVE_FONT('continuous');
#365 = STYLED_ITEM('', (#361), #354);
#366 = PRESENTATION_STYLE_ASSIGNMENT((#367));
#367 = CURVE_STYLE('', #369, POSITIVE_LENGTH_MEASURE(1.E-6), #368);
#368 = COLOUR_RGB('', 0., 0., 1.);
#369 = DRAUGHTING_PRE_DEFINED_CURVE_FONT('continuous');
#370 = OVER_RIDING_STYLED_ITEM('', (#366), #318, #365);
#371 = PRESENTATION_STYLE_ASSIGNMENT((#372));
#372 = CURVE_STYLE('', #374, POSITIVE_LENGTH_MEASURE(1.E-6), #373);
#373 = COLOUR_RGB('', 0., 0., 1.);
#374 = DRAUGHTING_PRE_DEFINED_CURVE_FONT('continuous');
#375 = OVER_RIDING_STYLED_ITEM('', (#371), #325, #365);
#376 = PRESENTATION_STYLE_ASSIGNMENT((#377));
#377 = CURVE_STYLE('', #379, POSITIVE_LENGTH_MEASURE(1.E-6), #378);
#378 = COLOUR_RGB('', 0., 0., 1.);
#379 = DRAUGHTING_PRE_DEFINED_CURVE_FONT('continuous');
#380 = OVER_RIDING_STYLED_ITEM('', (#376), #333, #365);
#381 = PRESENTATION_STYLE_ASSIGNMENT((#382));
#382 = CURVE_STYLE('', #384, POSITIVE_LENGTH_MEASURE(1.E-6), #383);
#383 = COLOUR_RGB('', 0., 0., 1.);
#384 = DRAUGHTING_PRE_DEFINED_CURVE_FONT('continuous');
#385 = OVER_RIDING_STYLED_ITEM('', (#381), #340, #365);
#386 = PRESENTATION_STYLE_ASSIGNMENT((#387));
#387 = CURVE_STYLE('', #389, POSITIVE_LENGTH_MEASURE(1.E-6), #388);
#388 = COLOUR_RGB('', 0., 0., 1.);
#389 = DRAUGHTING_PRE_DEFINED_CURVE_FONT('continuous');
#390 = OVER_RIDING_STYLED_ITEM('', (#386), #347, #365);
#391 = AXIS2_PLACEMENT_3D('MCS', #392, #393, #394);
#392 = CARTESIAN_POINT('', (0., 0., -50.));
#393 = DIRECTION('', (0., 0., 1.));
#394 = DIRECTION('', (1., 0., 0.));
#395 = AXIS2_PLACEMENT_3D('PCS', #396, #397, #398);
#396 = CARTESIAN_POINT('', (0., 0., 0.));
#397 = DIRECTION('', (0., 0., 1.));
#398 = DIRECTION('', (1., 0., 0.));
#399 = AXIS2_PLACEMENT_3D('CIP', #400, #401, #402);
#400 = CARTESIAN_POINT('', (0., 0., -104.));
#401 = DIRECTION('', (0., 0., 1.));
#402 = DIRECTION('', (1., 0., 0.));
#403 = CARTESIAN_POINT('CRP', (10., 0., -104.));
#404 = (
   GEOMETRIC_REPRESENTATION_CONTEXT (3)
   GLOBAL_UNCERTAINTY_ASSIGNED_CONTEXT ((#406))
   GLOBAL_UNIT_ASSIGNED_CONTEXT ((#405, #407, #408))
   REPRESENTATION_CONTEXT ('', '3D')
);
#405 = (
   LENGTH_UNIT ()
   NAMED_UNIT (*)
   SI_UNIT (.MILLI., .METRE.)
);
#406 = UNCERTAINTY_MEASURE_WITH_UNIT(LENGTH_MEASURE(1.E-6), #405, 'DISTANCE_ACCURACY_VALUE', '');
#407 = (
   NAMED_UNIT (*)
   SI_UNIT ($, .STERADIAN.)
   SOLID_ANGLE_UNIT ()
);
#408 = (
   NAMED_UNIT (*)
   PLANE_ANGLE_UNIT ()
   SI_UNIT ($, .RADIAN.)
);
#409 = SHAPE_REPRESENTATION('', (), #404);
#410 = PRODUCT_DEFINITION_SHAPE('', '', #411);
#411 = PRODUCT_DEFINITION('', '', #414, #418);
#412 = APPLICATION_CONTEXT('configuration controlled 3D designs of mechanical parts and assemblies');
#413 = APPLICATION_PROTOCOL_DEFINITION('International Standard', 'automotive_design', 2002, #412);
#414 = PRODUCT_DEFINITION_FORMATION_WITH_SPECIFIED_SOURCE('', '', #415, .NOT_KNOWN.);
#415 = PRODUCT('product-name', '2P121-2000-NC       H10F', '', (#416));
#416 = PRODUCT_CONTEXT('', #412, 'mechanical');
#417 = PRODUCT_RELATED_PRODUCT_CATEGORY('detail', '', (#415));
#418 = PRODUCT_DEFINITION_CONTEXT('part definition', #412, 'design');
#419 = SHAPE_DEFINITION_REPRESENTATION(#410, #409);
#420 = CONSTRUCTIVE_GEOMETRY_REPRESENTATION('supplemental geometry', (#391, #395, #399), #404);
#421 = CONSTRUCTIVE_GEOMETRY_REPRESENTATION_RELATIONSHIP('', '', #409, #420);
#422 = SHAPE_REPRESENTATION_RELATIONSHIP('', '', #409, #423);
#423 = SHAPE_REPRESENTATION('', (#360), #404);
#424 = SHAPE_REPRESENTATION_RELATIONSHIP('', '', #409, #425);
#425 = ADVANCED_BREP_SHAPE_REPRESENTATION('', (#1, #194), #404);
ENDSEC;
END-ISO-10303-21;
