ISO-10303-21;
HEADER;
FILE_DESCRIPTION(('STEP'), '1');
FILE_NAME('C:\\Users\\ds2002\\OneDrive - Sandvik\\HomeShare\\Documents\\Batchrepair\\CorSRT2\\NEW_MILSQ_SLD\\Output\\MOD000000000000000020082306800000.stp', '2019-01-02T12:10:17', (''), (''), 'Express v3.0.0.0', 'Express Tool', 'Unknown');
FILE_SCHEMA(('AUTOMOTIVE_DESIGN'));
ENDSEC;

DATA;
#1 = MANIFOLD_SOLID_BREP('NOCUT', #2);
#2 = CLOSED_SHELL('', (#3, #50, #89, #128, #167, #176));
#3 = ADVANCED_FACE('', (#4), #31, .T.);
#4 = FACE_OUTER_BOUND('', #5, .T.);
#5 = EDGE_LOOP('', (#6, #16, #23, #24));
#6 = ORIENTED_EDGE('', *, *, #7, .F.);
#7 = EDGE_CURVE('', #8, #10, #12, .T.);
#8 = VERTEX_POINT('', #9);
#9 = CARTESIAN_POINT('', (-7.85, 3.19326652877672E-15, -44.3));
#10 = VERTEX_POINT('', #11);
#11 = CARTESIAN_POINT('', (-7.85, 4.64447298576634E-15, -68.));
#12 = LINE('', #13, #14);
#13 = CARTESIAN_POINT('', (-7.85, 3.19326652877672E-15, -44.3));
#14 = VECTOR('', #15, 23.7);
#15 = DIRECTION('', (0., 1.45120645698962E-15, -23.7));
#16 = ORIENTED_EDGE('', *, *, #17, .T.);
#17 = EDGE_CURVE('', #8, #8, #18, .T.);
#18 = CIRCLE('', #19, 7.85);
#19 = AXIS2_PLACEMENT_3D('', #20, #21, #22);
#20 = CARTESIAN_POINT('', (2.77555756156289E-16, 8.88178419700125E-16, -44.3));
#21 = DIRECTION('', (9.04625828347567E-31, 3.0807120667388E-15, -1.));
#22 = DIRECTION('', (-1., 2.93641797334598E-16, 0.));
#23 = ORIENTED_EDGE('', *, *, #7, .T.);
#24 = ORIENTED_EDGE('', *, *, #25, .F.);
#25 = EDGE_CURVE('', #10, #10, #26, .T.);
#26 = CIRCLE('', #27, 7.85);
#27 = AXIS2_PLACEMENT_3D('', #28, #29, #30);
#28 = CARTESIAN_POINT('', (2.38697950294409E-15, 3.10862446895044E-15, -68.));
#29 = DIRECTION('', (0., 0., -1.));
#30 = DIRECTION('', (-1., 1.95649492588013E-16, 0.));
#31 = (
   BOUNDED_SURFACE ()
   B_SPLINE_SURFACE (2, 1, ((#32, #33), (#34, #35), (#36, #37), (#38, #39), (#40, #41), (#42, #43), (#44, #45), (#46, #47), (#48, #49)), .UNSPECIFIED., .T., .F., .U.)
   B_SPLINE_SURFACE_WITH_KNOTS ((3, 2, 2, 2, 3), (2, 2), (0., 12.3307511653399, 24.6615023306799, 36.9922534960198, 49.3230046613597), (0., 1.), .UNSPECIFIED.)
   GEOMETRIC_REPRESENTATION_ITEM ()
   RATIONAL_B_SPLINE_SURFACE (((1., 1.), (0.707106781186548, 0.707106781186548), (1., 1.), (0.707106781186548, 0.707106781186548), (1., 1.), (0.707106781186548, 0.707106781186548), (1., 1.), (0.707106781186548, 0.707106781186548), (1., 1.)))
   REPRESENTATION_ITEM ('')
   SURFACE ()
);
#32 = CARTESIAN_POINT('', (-7.85, 3.19326652877672E-15, -44.3));
#33 = CARTESIAN_POINT('', (-7.85, 4.52553415832691E-15, -68.));
#34 = CARTESIAN_POINT('', (-7.85, 7.85, -44.3));
#35 = CARTESIAN_POINT('', (-7.85, 7.85, -68.));
#36 = CARTESIAN_POINT('', (3.35097089927085E-15, 7.85, -44.3));
#37 = CARTESIAN_POINT('', (3.35097089927085E-15, 7.85, -68.));
#38 = CARTESIAN_POINT('', (7.85, 7.85, -44.3));
#39 = CARTESIAN_POINT('', (7.85, 7.85, -68.));
#40 = CARTESIAN_POINT('', (7.85, 1.32079488735445E-15, -44.3));
#41 = CARTESIAN_POINT('', (7.85, 2.65306251690464E-15, -68.));
#42 = CARTESIAN_POINT('', (7.85, -7.85, -44.3));
#43 = CARTESIAN_POINT('', (7.85, -7.85, -68.));
#44 = CARTESIAN_POINT('', (2.43984699517925E-15, -7.85, -44.3));
#45 = CARTESIAN_POINT('', (2.43984699517926E-15, -7.85, -68.));
#46 = CARTESIAN_POINT('', (-7.85, -7.85, -44.3));
#47 = CARTESIAN_POINT('', (-7.85, -7.85, -68.));
#48 = CARTESIAN_POINT('', (-7.85, 3.19326652877672E-15, -44.3));
#49 = CARTESIAN_POINT('', (-7.85, 4.52553415832691E-15, -68.));
#50 = ADVANCED_FACE('', (#51), #70, .T.);
#51 = FACE_OUTER_BOUND('', #52, .T.);
#52 = EDGE_LOOP('', (#53, #61, #68, #69));
#53 = ORIENTED_EDGE('', *, *, #54, .F.);
#54 = EDGE_CURVE('', #55, #8, #57, .T.);
#55 = VERTEX_POINT('', #56);
#56 = CARTESIAN_POINT('', (-8., 3.18408167778312E-15, -44.));
#57 = LINE('', #58, #59);
#58 = CARTESIAN_POINT('', (-8., 3.18408167778312E-15, -44.));
#59 = VECTOR('', #60, 0.335410196624966);
#60 = DIRECTION('', (0.15, 9.18485099359969E-18, -0.299999999999997));
#61 = ORIENTED_EDGE('', *, *, #62, .T.);
#62 = EDGE_CURVE('', #55, #55, #63, .T.);
#63 = CIRCLE('', #64, 8.);
#64 = AXIS2_PLACEMENT_3D('', #65, #66, #67);
#65 = CARTESIAN_POINT('', (5.55111512312578E-16, 0., -44.));
#66 = DIRECTION('', (0., 0., -1.));
#67 = DIRECTION('', (-1., 3.9801020972289E-16, 0.));
#68 = ORIENTED_EDGE('', *, *, #54, .T.);
#69 = ORIENTED_EDGE('', *, *, #17, .F.);
#70 = (
   BOUNDED_SURFACE ()
   B_SPLINE_SURFACE (2, 1, ((#71, #72), (#73, #74), (#75, #76), (#77, #78), (#79, #80), (#81, #82), (#83, #84), (#85, #86), (#87, #88)), .UNSPECIFIED., .T., .F., .U.)
   B_SPLINE_SURFACE_WITH_KNOTS ((3, 2, 2, 2, 3), (2, 2), (0., 0.25, 0.5, 0.75, 1.), (0., 1.), .UNSPECIFIED.)
   GEOMETRIC_REPRESENTATION_ITEM ()
   RATIONAL_B_SPLINE_SURFACE (((1., 1.), (0.707106781186548, 0.707106781186548), (1., 1.), (0.707106781186548, 0.707106781186548), (1., 1.), (0.707106781186548, 0.707106781186548), (1., 1.), (0.707106781186548, 0.707106781186548), (1., 1.)))
   REPRESENTATION_ITEM ('')
   SURFACE ()
);
#71 = CARTESIAN_POINT('', (-8., 3.18408167778312E-15, -44.));
#72 = CARTESIAN_POINT('', (-7.85, 4.01255856602481E-15, -44.3));
#73 = CARTESIAN_POINT('', (-7.99999999999999, 8., -44.));
#74 = CARTESIAN_POINT('', (-7.85, 7.85, -44.3));
#75 = CARTESIAN_POINT('', (3.24933447043676E-15, 8., -44.));
#76 = CARTESIAN_POINT('', (3.19881778997193E-15, 7.85, -44.3));
#77 = CARTESIAN_POINT('', (8., 8., -44.));
#78 = CARTESIAN_POINT('', (7.85, 7.85, -44.3));
#79 = CARTESIAN_POINT('', (8., -2.20436423846524E-15, -44.));
#80 = CARTESIAN_POINT('', (7.85, -1.27485398929389E-15, -44.3));
#81 = CARTESIAN_POINT('', (8., -8., -44.));
#82 = CARTESIAN_POINT('', (7.85, -7.85, -44.3));
#83 = CARTESIAN_POINT('', (-1.15939400649372E-15, -8., -44.));
#84 = CARTESIAN_POINT('', (-1.1272470280161E-15, -7.85, -44.3));
#85 = CARTESIAN_POINT('', (-8., -8., -44.));
#86 = CARTESIAN_POINT('', (-7.85, -7.85, -44.3));
#87 = CARTESIAN_POINT('', (-8., 3.18408167778312E-15, -44.));
#88 = CARTESIAN_POINT('', (-7.85, 4.01255856602481E-15, -44.3));
#89 = ADVANCED_FACE('', (#90), #109, .T.);
#90 = FACE_OUTER_BOUND('', #91, .T.);
#91 = EDGE_LOOP('', (#92, #100, #107, #108));
#92 = ORIENTED_EDGE('', *, *, #93, .T.);
#93 = EDGE_CURVE('', #55, #94, #96, .T.);
#94 = VERTEX_POINT('', #95);
#95 = CARTESIAN_POINT('', (-8., 5.38844591624836E-16, -0.799999999999997));
#96 = LINE('', #97, #98);
#97 = CARTESIAN_POINT('', (-8., 3.18408167778312E-15, -44.));
#98 = VECTOR('', #99, 43.2);
#99 = DIRECTION('', (0., -2.64523708615828E-15, 43.2));
#100 = ORIENTED_EDGE('', *, *, #101, .T.);
#101 = EDGE_CURVE('', #94, #94, #102, .T.);
#102 = CIRCLE('', #103, 8.);
#103 = AXIS2_PLACEMENT_3D('', #104, #105, #106);
#104 = CARTESIAN_POINT('', (5.27355936696949E-16, -4.44089209850063E-16, -0.799999999999997));
#105 = DIRECTION('', (-1.38777878078144E-17, 9.23824107420045E-17, -1.));
#106 = DIRECTION('', (-1., 1.22866725184362E-16, 1.38777878078145E-17));
#107 = ORIENTED_EDGE('', *, *, #93, .F.);
#108 = ORIENTED_EDGE('', *, *, #62, .F.);
#109 = (
   BOUNDED_SURFACE ()
   B_SPLINE_SURFACE (1, 2, ((#110, #111, #112, #113, #114, #115, #116, #117, #118), (#119, #120, #121, #122, #123, #124, #125, #126, #127)), .UNSPECIFIED., .F., .T., .U.)
   B_SPLINE_SURFACE_WITH_KNOTS ((2, 2), (3, 2, 2, 2, 3), (0., 1.), (0., 12.5663706143592, 25.1327412287184, 37.6991118430775, 50.2654824574367), .UNSPECIFIED.)
   GEOMETRIC_REPRESENTATION_ITEM ()
   RATIONAL_B_SPLINE_SURFACE (((1., 0.707106781186548, 1., 0.707106781186548, 1., 0.707106781186548, 1., 0.707106781186548, 1.), (1., 0.707106781186548, 1., 0.707106781186548, 1., 0.707106781186548, 1., 0.707106781186548, 1.)))
   REPRESENTATION_ITEM ('')
   SURFACE ()
);
#110 = CARTESIAN_POINT('', (-8., -2.34773527240057E-15, -44.));
#111 = CARTESIAN_POINT('', (-8., 8., -44.));
#112 = CARTESIAN_POINT('', (4.20910585215322E-16, 8., -44.));
#113 = CARTESIAN_POINT('', (8., 7.99999999999999, -44.));
#114 = CARTESIAN_POINT('', (8., -3.33388543603249E-15, -44.));
#115 = CARTESIAN_POINT('', (8., -8., -44.));
#116 = CARTESIAN_POINT('', (4.1447786090129E-16, -8., -44.));
#117 = CARTESIAN_POINT('', (-8., -8., -44.));
#118 = CARTESIAN_POINT('', (-8., -2.34773527240057E-15, -44.));
#119 = CARTESIAN_POINT('', (-8., 5.38844591624836E-16, -0.799999999999997));
#120 = CARTESIAN_POINT('', (-8., 8., -0.799999999999998));
#121 = CARTESIAN_POINT('', (1.02043101851291E-15, 8., -0.799999999999998));
#122 = CARTESIAN_POINT('', (8., 8., -0.799999999999998));
#123 = CARTESIAN_POINT('', (8., -4.47305572007079E-16, -0.799999999999997));
#124 = CARTESIAN_POINT('', (8., -8., -0.799999999999997));
#125 = CARTESIAN_POINT('', (1.01399829419887E-15, -8., -0.799999999999997));
#126 = CARTESIAN_POINT('', (-8., -8., -0.799999999999996));
#127 = CARTESIAN_POINT('', (-8., 5.38844591624836E-16, -0.799999999999997));
#128 = ADVANCED_FACE('', (#129), #148, .T.);
#129 = FACE_OUTER_BOUND('', #130, .T.);
#130 = EDGE_LOOP('', (#131, #139, #146, #147));
#131 = ORIENTED_EDGE('', *, *, #132, .T.);
#132 = EDGE_CURVE('', #94, #133, #135, .T.);
#133 = VERTEX_POINT('', #134);
#134 = CARTESIAN_POINT('', (-7.2, 4.40872847693047E-16, 0.));
#135 = LINE('', #136, #137);
#136 = CARTESIAN_POINT('', (-8., 5.38844591624836E-16, -0.799999999999997));
#137 = VECTOR('', #138, 1.13137084989847);
#138 = DIRECTION('', (0.8, -9.7971743931789E-17, 0.799999999999997));
#139 = ORIENTED_EDGE('', *, *, #140, .T.);
#140 = EDGE_CURVE('', #133, #133, #141, .T.);
#141 = CIRCLE('', #142, 7.2);
#142 = AXIS2_PLACEMENT_3D('', #143, #144, #145);
#143 = CARTESIAN_POINT('', (-8.32667268468867E-17, -6.66133814775094E-16, -4.93038065763132E-32));
#144 = DIRECTION('', (2.56677801597318E-33, 6.12323399573677E-17, -1.));
#145 = DIRECTION('', (-1., 1.53750925342797E-16, 6.84775091337684E-33));
#146 = ORIENTED_EDGE('', *, *, #132, .F.);
#147 = ORIENTED_EDGE('', *, *, #101, .F.);
#148 = (
   BOUNDED_SURFACE ()
   B_SPLINE_SURFACE (1, 2, ((#149, #150, #151, #152, #153, #154, #155, #156, #157), (#158, #159, #160, #161, #162, #163, #164, #165, #166)), .UNSPECIFIED., .F., .T., .U.)
   B_SPLINE_SURFACE_WITH_KNOTS ((2, 2), (3, 2, 2, 2, 3), (0., 1.), (0., 0.25, 0.5, 0.75, 1.), .UNSPECIFIED.)
   GEOMETRIC_REPRESENTATION_ITEM ()
   RATIONAL_B_SPLINE_SURFACE (((1., 0.707106781186548, 1., 0.707106781186548, 1., 0.707106781186548, 1., 0.707106781186548, 1.), (1., 0.707106781186548, 1., 0.707106781186548, 1., 0.707106781186548, 1., 0.707106781186548, 1.)))
   REPRESENTATION_ITEM ('')
   SURFACE ()
);
#149 = CARTESIAN_POINT('', (-8., -4.09906311545837E-15, -0.799999999999997));
#150 = CARTESIAN_POINT('', (-8., 7.99999999999999, -0.800000000000044));
#151 = CARTESIAN_POINT('', (6.56881956236551E-16, 7.99999999999999, -0.800000000000044));
#152 = CARTESIAN_POINT('', (8., 7.99999999999999, -0.800000000000044));
#153 = CARTESIAN_POINT('', (8., -5.57936048162525E-15, -0.799999999999997));
#154 = CARTESIAN_POINT('', (8., -8.00000000000001, -0.799999999999951));
#155 = CARTESIAN_POINT('', (1.56302029387557E-16, -8.00000000000001, -0.799999999999951));
#156 = CARTESIAN_POINT('', (-8., -8.00000000000001, -0.799999999999951));
#157 = CARTESIAN_POINT('', (-8., -4.09906311545837E-15, -0.799999999999997));
#158 = CARTESIAN_POINT('', (-7.2, 4.40872847693047E-16, 0.));
#159 = CARTESIAN_POINT('', (-7.2, 7.2, -4.19664303308311E-14));
#160 = CARTESIAN_POINT('', (5.82867087928207E-16, 7.2, -4.19664303308311E-14));
#161 = CARTESIAN_POINT('', (7.2, 7.2, -4.19664303308311E-14));
#162 = CARTESIAN_POINT('', (7.2, -8.9139478185714E-16, -5.23801307078189E-30));
#163 = CARTESIAN_POINT('', (7.2, -7.2, 4.19664303308311E-14));
#164 = CARTESIAN_POINT('', (1.32345153764114E-16, -7.2, 4.19664303308311E-14));
#165 = CARTESIAN_POINT('', (-7.2, -7.2, 4.19664303308311E-14));
#166 = CARTESIAN_POINT('', (-7.2, 4.40872847693047E-16, 0.));
#167 = ADVANCED_FACE('', (#168), #171, .T.);
#168 = FACE_OUTER_BOUND('', #169, .T.);
#169 = EDGE_LOOP('', (#170));
#170 = ORIENTED_EDGE('', *, *, #140, .F.);
#171 = B_SPLINE_SURFACE_WITH_KNOTS('', 1, 1, ((#172, #173), (#174, #175)), .UNSPECIFIED., .F., .F., .U., (2, 2), (2, 2), (0.0454545454545454, 0.954545454545455), (0.0454545454545454, 0.954545454545454), .UNSPECIFIED.);
#172 = CARTESIAN_POINT('', (7.2, -7.2, -4.40872847693047E-16));
#173 = CARTESIAN_POINT('', (-7.2, -7.2, -4.40872847693047E-16));
#174 = CARTESIAN_POINT('', (7.2, 7.2, 4.40872847693047E-16));
#175 = CARTESIAN_POINT('', (-7.2, 7.2, 4.40872847693047E-16));
#176 = ADVANCED_FACE('', (#177), #180, .T.);
#177 = FACE_OUTER_BOUND('', #178, .T.);
#178 = EDGE_LOOP('', (#179));
#179 = ORIENTED_EDGE('', *, *, #25, .T.);
#180 = B_SPLINE_SURFACE_WITH_KNOTS('', 1, 1, ((#181, #182), (#183, #184)), .UNSPECIFIED., .F., .F., .U., (2, 2), (2, 2), (0.478763787611696, 0.561620597976352), (0.438379402023647, 0.521236212388304), .UNSPECIFIED.);
#181 = CARTESIAN_POINT('', (-7.85000000000001, 7.85000000000002, -68.));
#182 = CARTESIAN_POINT('', (-7.85000000000001, -7.84999999999998, -68.));
#183 = CARTESIAN_POINT('', (7.84999999999997, 7.85000000000002, -68.));
#184 = CARTESIAN_POINT('', (7.84999999999997, -7.84999999999998, -68.));
#185 = DRAUGHTING_MODEL('', (#193, #317, #365, #370, #375, #380, #385, #390), #404);
#186 = PRESENTATION_STYLE_ASSIGNMENT((#187));
#187 = SURFACE_STYLE_USAGE(.POSITIVE., #188);
#188 = SURFACE_SIDE_STYLE('', (#189));
#189 = SURFACE_STYLE_FILL_AREA(#190);
#190 = FILL_AREA_STYLE('', (#191));
#191 = FILL_AREA_STYLE_COLOUR('', #192);
#192 = COLOUR_RGB('', 0.50196078431373, 0.50196078431373, 0.50196078431373);
#193 = STYLED_ITEM('', (#186), #1);
#194 = MANIFOLD_SOLID_BREP('CUT', #195);
#195 = CLOSED_SHELL('', (#196, #213, #252, #301));
#196 = ADVANCED_FACE('', (#197), #208, .T.);
#197 = FACE_OUTER_BOUND('', #198, .T.);
#198 = EDGE_LOOP('', (#199));
#199 = ORIENTED_EDGE('', *, *, #200, .F.);
#200 = EDGE_CURVE('', #201, #201, #203, .T.);
#201 = VERTEX_POINT('', #202);
#202 = CARTESIAN_POINT('', (-8., 4.65365783675994E-15, -68.));
#203 = CIRCLE('', #204, 8.);
#204 = AXIS2_PLACEMENT_3D('', #205, #206, #207);
#205 = CARTESIAN_POINT('', (4.9960036108132E-16, 1.55431223447522E-15, -68.));
#206 = DIRECTION('', (0., 0., -1.));
#207 = DIRECTION('', (-1., 3.8741820028559E-16, 0.));
#208 = B_SPLINE_SURFACE_WITH_KNOTS('', 1, 1, ((#209, #210), (#211, #212)), .UNSPECIFIED., .F., .F., .U., (2, 2), (2, 2), (0.0454545454545453, 0.954545454545454), (0.0454545454545455, 0.954545454545454), .UNSPECIFIED.);
#209 = CARTESIAN_POINT('', (8., -8., -68.));
#210 = CARTESIAN_POINT('', (-8., -8., -68.));
#211 = CARTESIAN_POINT('', (8., 8., -68.));
#212 = CARTESIAN_POINT('', (-8., 8., -68.));
#213 = ADVANCED_FACE('', (#214), #233, .T.);
#214 = FACE_OUTER_BOUND('', #215, .T.);
#215 = EDGE_LOOP('', (#216, #224, #225, #226));
#216 = ORIENTED_EDGE('', *, *, #217, .F.);
#217 = EDGE_CURVE('', #201, #218, #220, .T.);
#218 = VERTEX_POINT('', #219);
#219 = CARTESIAN_POINT('', (-8., 6.11404914474316E-15, -91.85));
#220 = LINE('', #221, #222);
#221 = CARTESIAN_POINT('', (-8., 4.65365783675994E-15, -68.));
#222 = VECTOR('', #223, 23.85);
#223 = DIRECTION('', (0., 1.46039130798322E-15, -23.85));
#224 = ORIENTED_EDGE('', *, *, #200, .T.);
#225 = ORIENTED_EDGE('', *, *, #217, .T.);
#226 = ORIENTED_EDGE('', *, *, #227, .F.);
#227 = EDGE_CURVE('', #218, #218, #228, .T.);
#228 = CIRCLE('', #229, 8.);
#229 = AXIS2_PLACEMENT_3D('', #230, #231, #232);
#230 = CARTESIAN_POINT('', (7.21644966006352E-16, 5.77315972805081E-15, -91.85));
#231 = DIRECTION('', (0., 0., -1.));
#232 = DIRECTION('', (-1., 4.26111770865432E-17, 0.));
#233 = (
   BOUNDED_SURFACE ()
   B_SPLINE_SURFACE (2, 1, ((#234, #235), (#236, #237), (#238, #239), (#240, #241), (#242, #243), (#244, #245), (#246, #247), (#248, #249), (#250, #251)), .UNSPECIFIED., .T., .F., .U.)
   B_SPLINE_SURFACE_WITH_KNOTS ((3, 2, 2, 2, 3), (2, 2), (0., 12.5663706143592, 25.1327412287184, 37.6991118430775, 50.2654824574367), (0., 1.), .UNSPECIFIED.)
   GEOMETRIC_REPRESENTATION_ITEM ()
   RATIONAL_B_SPLINE_SURFACE (((1., 1.), (0.707106781186548, 0.707106781186548), (1., 1.), (0.707106781186548, 0.707106781186548), (1., 1.), (0.707106781186548, 0.707106781186548), (1., 1.), (0.707106781186548, 0.707106781186548), (1., 1.)))
   REPRESENTATION_ITEM ('')
   SURFACE ()
);
#234 = CARTESIAN_POINT('', (-8., 4.65365783675994E-15, -68.));
#235 = CARTESIAN_POINT('', (-8., 9.53863914511063E-15, -91.85));
#236 = CARTESIAN_POINT('', (-7.99999999999999, 8.00000000000001, -68.));
#237 = CARTESIAN_POINT('', (-7.99999999999999, 8.00000000000001, -91.85));
#238 = CARTESIAN_POINT('', (4.10828796586974E-15, 8., -68.));
#239 = CARTESIAN_POINT('', (4.10828796586974E-15, 8.00000000000001, -91.85));
#240 = CARTESIAN_POINT('', (8., 8., -68.));
#241 = CARTESIAN_POINT('', (8., 8., -91.85));
#242 = CARTESIAN_POINT('', (8., -1.89758355804181E-15, -68.));
#243 = CARTESIAN_POINT('', (8., 2.98739775030888E-15, -91.85));
#244 = CARTESIAN_POINT('', (8., -8., -68.));
#245 = CARTESIAN_POINT('', (8., -8., -91.85));
#246 = CARTESIAN_POINT('', (-1.46323598961412E-15, -8., -68.));
#247 = CARTESIAN_POINT('', (-1.46323598961412E-15, -7.99999999999999, -91.85));
#248 = CARTESIAN_POINT('', (-8., -8., -68.));
#249 = CARTESIAN_POINT('', (-8., -7.99999999999999, -91.85));
#250 = CARTESIAN_POINT('', (-8., 4.65365783675994E-15, -68.));
#251 = CARTESIAN_POINT('', (-8., 9.53863914511063E-15, -91.85));
#252 = ADVANCED_FACE('', (#253), #273, .T.);
#253 = FACE_OUTER_BOUND('', #254, .T.);
#254 = EDGE_LOOP('', (#255, #264, #265, #266));
#255 = ORIENTED_EDGE('', *, *, #256, .F.);
#256 = EDGE_CURVE('', #218, #257, #259, .T.);
#257 = VERTEX_POINT('', #258);
#258 = CARTESIAN_POINT('', (-7.85, 6.11404914474316E-15, -92.));
#259 = CIRCLE('', #260, 0.149999999999994);
#260 = AXIS2_PLACEMENT_3D('', #261, #262, #263);
#261 = CARTESIAN_POINT('', (-7.84999999999999, 6.10486429374955E-15, -91.85));
#262 = DIRECTION('', (-6.1232339957384E-17, -1., -6.12323399573768E-17));
#263 = DIRECTION('', (-1., 6.12323399573782E-17, 9.47390314346753E-14));
#264 = ORIENTED_EDGE('', *, *, #227, .T.);
#265 = ORIENTED_EDGE('', *, *, #256, .T.);
#266 = ORIENTED_EDGE('', *, *, #267, .F.);
#267 = EDGE_CURVE('', #257, #257, #268, .T.);
#268 = CIRCLE('', #269, 7.85);
#269 = AXIS2_PLACEMENT_3D('', #270, #271, #272);
#270 = CARTESIAN_POINT('', (2.77555756156289E-16, 3.99680288865056E-15, -92.));
#271 = DIRECTION('', (0., 0., -1.));
#272 = DIRECTION('', (-1., 2.69712898865299E-16, 0.));
#273 = (
   BOUNDED_SURFACE ()
   B_SPLINE_SURFACE (2, 2, ((#274, #275, #276), (#277, #278, #279), (#280, #281, #282), (#283, #284, #285), (#286, #287, #288), (#289, #290, #291), (#292, #293, #294), (#295, #296, #297), (#298, #299, #300)), .UNSPECIFIED., .T., .F., .U.)
   B_SPLINE_SURFACE_WITH_KNOTS ((3, 2, 2, 2, 3), (3, 3), (0., 0.25, 0.5, 0.75, 1.), (0., 1.), .UNSPECIFIED.)
   GEOMETRIC_REPRESENTATION_ITEM ()
   RATIONAL_B_SPLINE_SURFACE (((1., 0.707106781186562, 1.), (0.707106781186548, 0.50000000000001, 0.707106781186548), (1., 0.707106781186562, 1.), (0.707106781186548, 0.50000000000001, 0.707106781186548), (1., 0.707106781186562, 1.), (0.707106781186548, 0.50000000000001, 0.707106781186548), (1., 0.707106781186562, 1.), (0.707106781186548, 0.50000000000001, 0.707106781186548), (1., 0.707106781186562, 1.)))
   REPRESENTATION_ITEM ('')
   SURFACE ()
);
#274 = CARTESIAN_POINT('', (-8., 6.11404914474316E-15, -91.85));
#275 = CARTESIAN_POINT('', (-7.99999999999999, 6.12323399573677E-15, -92.));
#276 = CARTESIAN_POINT('', (-7.85, 6.11404914474316E-15, -92.));
#277 = CARTESIAN_POINT('', (-8., 8.00000000000001, -91.85));
#278 = CARTESIAN_POINT('', (-7.99999999999999, 7.99999999999999, -92.));
#279 = CARTESIAN_POINT('', (-7.85, 7.85, -92.));
#280 = CARTESIAN_POINT('', (-2.32236029813482E-16, 8.00000000000001, -91.85));
#281 = CARTESIAN_POINT('', (-2.23051178819871E-16, 8., -92.));
#282 = CARTESIAN_POINT('', (-2.23051178819877E-16, 7.85000000000001, -92.));
#283 = CARTESIAN_POINT('', (8., 8.00000000000001, -91.85));
#284 = CARTESIAN_POINT('', (7.99999999999999, 8., -92.));
#285 = CARTESIAN_POINT('', (7.85, 7.85000000000001, -92.));
#286 = CARTESIAN_POINT('', (8., 7.30016617037648E-15, -91.85));
#287 = CARTESIAN_POINT('', (7.99999999999999, 7.29098131938286E-15, -92.));
#288 = CARTESIAN_POINT('', (7.85, 7.28179646838927E-15, -92.));
#289 = CARTESIAN_POINT('', (8., -7.99999999999999, -91.85));
#290 = CARTESIAN_POINT('', (7.99999999999999, -7.99999999999998, -92.));
#291 = CARTESIAN_POINT('', (7.85, -7.84999999999999, -92.));
#292 = CARTESIAN_POINT('', (1.93359843513772E-15, -7.99999999999999, -91.85));
#293 = CARTESIAN_POINT('', (1.9244135841441E-15, -7.99999999999998, -92.));
#294 = CARTESIAN_POINT('', (1.9060438821569E-15, -7.84999999999999, -92.));
#295 = CARTESIAN_POINT('', (-8., -7.99999999999999, -91.85));
#296 = CARTESIAN_POINT('', (-7.99999999999999, -7.99999999999999, -92.));
#297 = CARTESIAN_POINT('', (-7.85, -7.84999999999999, -92.));
#298 = CARTESIAN_POINT('', (-8., 6.11404914474316E-15, -91.85));
#299 = CARTESIAN_POINT('', (-7.99999999999999, 6.12323399573677E-15, -92.));
#300 = CARTESIAN_POINT('', (-7.85, 6.11404914474316E-15, -92.));
#301 = ADVANCED_FACE('', (#302), #305, .T.);
#302 = FACE_OUTER_BOUND('', #303, .T.);
#303 = EDGE_LOOP('', (#304));
#304 = ORIENTED_EDGE('', *, *, #267, .T.);
#305 = B_SPLINE_SURFACE_WITH_KNOTS('', 1, 1, ((#306, #307), (#308, #309)), .UNSPECIFIED., .F., .F., .U., (2, 2), (2, 2), (0.0454545454545454, 0.954545454545455), (0.0454545454545454, 0.954545454545455), .UNSPECIFIED.);
#306 = CARTESIAN_POINT('', (7.85, -7.85, -92.));
#307 = CARTESIAN_POINT('', (7.85, 7.85, -92.));
#308 = CARTESIAN_POINT('', (-7.85, -7.85, -92.));
#309 = CARTESIAN_POINT('', (-7.85, 7.85, -92.));
#310 = PRESENTATION_STYLE_ASSIGNMENT((#311));
#311 = SURFACE_STYLE_USAGE(.POSITIVE., #312);
#312 = SURFACE_SIDE_STYLE('', (#313));
#313 = SURFACE_STYLE_FILL_AREA(#314);
#314 = FILL_AREA_STYLE('', (#315));
#315 = FILL_AREA_STYLE_COLOUR('', #316);
#316 = COLOUR_RGB('', 0.8, 0.8, 0.8);
#317 = STYLED_ITEM('', (#310), #194);
#318 = TRIMMED_CURVE('cutting part line', #319, (#323), (#324), .T., .CARTESIAN.);
#319 = LINE('', #320, #321);
#320 = CARTESIAN_POINT('', (7.7715611723761E-16, 0., -92.));
#321 = VECTOR('', #322, 7.85);
#322 = DIRECTION('', (7.85, 0., 0.));
#323 = CARTESIAN_POINT('', (7.7715611723761E-16, 0., -92.));
#324 = CARTESIAN_POINT('', (7.85, 0., -92.));
#325 = TRIMMED_CURVE('cutting part line', #326, (#331), (#332), .T., .CARTESIAN.);
#326 = CIRCLE('', #327, 0.149999999999988);
#327 = AXIS2_PLACEMENT_3D('', #328, #329, #330);
#328 = CARTESIAN_POINT('', (7.85000000000001, 8.88713450049917E-15, -91.85));
#329 = DIRECTION('', (7.69331370370673E-30, -1., 1.85037170770838E-16));
#330 = DIRECTION('', (-3.5527136788007E-14, -1.85037170770838E-16, -1.));
#331 = CARTESIAN_POINT('', (7.85, 8.85937892488354E-15, -92.));
#332 = CARTESIAN_POINT('', (7.99999999999999, 8.88713450049917E-15, -91.85));
#333 = TRIMMED_CURVE('cutting part line', #334, (#338), (#339), .T., .CARTESIAN.);
#334 = LINE('', #335, #336);
#335 = CARTESIAN_POINT('', (8., 4.88423730203649E-15, -91.85));
#336 = VECTOR('', #337, 23.85);
#337 = DIRECTION('', (0., -4.88423730203649E-15, 23.85));
#338 = CARTESIAN_POINT('', (8., 4.88423730203649E-15, -91.85));
#339 = CARTESIAN_POINT('', (8., 0., -68.));
#340 = TRIMMED_CURVE('cutting part line', #341, (#345), (#346), .T., .CARTESIAN.);
#341 = LINE('', #342, #343);
#342 = CARTESIAN_POINT('', (8., 0., -68.));
#343 = VECTOR('', #344, 8.);
#344 = DIRECTION('', (-8., 0., -1.4210854715202E-14));
#345 = CARTESIAN_POINT('', (8., 0., -68.));
#346 = CARTESIAN_POINT('', (-2.77555756156289E-17, 0., -68.));
#347 = TRIMMED_CURVE('cutting part line', #348, (#352), (#353), .T., .CARTESIAN.);
#348 = LINE('', #349, #350);
#349 = CARTESIAN_POINT('', (0., 0., -68.));
#350 = VECTOR('', #351, 24.);
#351 = DIRECTION('', (0., 0., -24.));
#352 = CARTESIAN_POINT('', (0., 0., -68.));
#353 = CARTESIAN_POINT('', (0., 0., -92.));
#354 = COMPOSITE_CURVE('cutting part line', (#355, #356, #357, #358, #359), .U.);
#355 = COMPOSITE_CURVE_SEGMENT(.CONTINUOUS., .T., #318);
#356 = COMPOSITE_CURVE_SEGMENT(.CONTINUOUS., .T., #325);
#357 = COMPOSITE_CURVE_SEGMENT(.CONTINUOUS., .T., #333);
#358 = COMPOSITE_CURVE_SEGMENT(.CONTINUOUS., .T., #340);
#359 = COMPOSITE_CURVE_SEGMENT(.CONTINUOUS., .T., #347);
#360 = GEOMETRIC_SET('', (#354, #403));
#361 = PRESENTATION_STYLE_ASSIGNMENT((#362));
#362 = CURVE_STYLE('', #364, POSITIVE_LENGTH_MEASURE(1.E-6), #363);
#363 = COLOUR_RGB('', 0., 0., 1.);
#364 = DRAUGHTING_PRE_DEFINED_CURVE_FONT('continuous');
#365 = STYLED_ITEM('', (#361), #354);
#366 = PRESENTATION_STYLE_ASSIGNMENT((#367));
#367 = CURVE_STYLE('', #369, POSITIVE_LENGTH_MEASURE(1.E-6), #368);
#368 = COLOUR_RGB('', 0., 0., 1.);
#369 = DRAUGHTING_PRE_DEFINED_CURVE_FONT('continuous');
#370 = OVER_RIDING_STYLED_ITEM('', (#366), #318, #365);
#371 = PRESENTATION_STYLE_ASSIGNMENT((#372));
#372 = CURVE_STYLE('', #374, POSITIVE_LENGTH_MEASURE(1.E-6), #373);
#373 = COLOUR_RGB('', 0., 0., 1.);
#374 = DRAUGHTING_PRE_DEFINED_CURVE_FONT('continuous');
#375 = OVER_RIDING_STYLED_ITEM('', (#371), #325, #365);
#376 = PRESENTATION_STYLE_ASSIGNMENT((#377));
#377 = CURVE_STYLE('', #379, POSITIVE_LENGTH_MEASURE(1.E-6), #378);
#378 = COLOUR_RGB('', 0., 0., 1.);
#379 = DRAUGHTING_PRE_DEFINED_CURVE_FONT('continuous');
#380 = OVER_RIDING_STYLED_ITEM('', (#376), #333, #365);
#381 = PRESENTATION_STYLE_ASSIGNMENT((#382));
#382 = CURVE_STYLE('', #384, POSITIVE_LENGTH_MEASURE(1.E-6), #383);
#383 = COLOUR_RGB('', 0., 0., 1.);
#384 = DRAUGHTING_PRE_DEFINED_CURVE_FONT('continuous');
#385 = OVER_RIDING_STYLED_ITEM('', (#381), #340, #365);
#386 = PRESENTATION_STYLE_ASSIGNMENT((#387));
#387 = CURVE_STYLE('', #389, POSITIVE_LENGTH_MEASURE(1.E-6), #388);
#388 = COLOUR_RGB('', 0., 0., 1.);
#389 = DRAUGHTING_PRE_DEFINED_CURVE_FONT('continuous');
#390 = OVER_RIDING_STYLED_ITEM('', (#386), #347, #365);
#391 = AXIS2_PLACEMENT_3D('MCS', #392, #393, #394);
#392 = CARTESIAN_POINT('', (0., 0., -48.));
#393 = DIRECTION('', (0., 0., 1.));
#394 = DIRECTION('', (1., 0., 0.));
#395 = AXIS2_PLACEMENT_3D('PCS', #396, #397, #398);
#396 = CARTESIAN_POINT('', (0., 0., 0.));
#397 = DIRECTION('', (0., 0., 1.));
#398 = DIRECTION('', (1., 0., 0.));
#399 = AXIS2_PLACEMENT_3D('CIP', #400, #401, #402);
#400 = CARTESIAN_POINT('', (0., 0., -92.));
#401 = DIRECTION('', (0., 0., 1.));
#402 = DIRECTION('', (1., 0., 0.));
#403 = CARTESIAN_POINT('CRP', (8., 0., -92.));
#404 = (
   GEOMETRIC_REPRESENTATION_CONTEXT (3)
   GLOBAL_UNCERTAINTY_ASSIGNED_CONTEXT ((#406))
   GLOBAL_UNIT_ASSIGNED_CONTEXT ((#405, #407, #408))
   REPRESENTATION_CONTEXT ('', '3D')
);
#405 = (
   LENGTH_UNIT ()
   NAMED_UNIT (*)
   SI_UNIT (.MILLI., .METRE.)
);
#406 = UNCERTAINTY_MEASURE_WITH_UNIT(LENGTH_MEASURE(1.E-6), #405, 'DISTANCE_ACCURACY_VALUE', '');
#407 = (
   NAMED_UNIT (*)
   SI_UNIT ($, .STERADIAN.)
   SOLID_ANGLE_UNIT ()
);
#408 = (
   NAMED_UNIT (*)
   PLANE_ANGLE_UNIT ()
   SI_UNIT ($, .RADIAN.)
);
#409 = SHAPE_REPRESENTATION('', (), #404);
#410 = PRODUCT_DEFINITION_SHAPE('', '', #411);
#411 = PRODUCT_DEFINITION('', '', #414, #418);
#412 = APPLICATION_CONTEXT('configuration controlled 3D designs of mechanical parts and assemblies');
#413 = APPLICATION_PROTOCOL_DEFINITION('International Standard', 'automotive_design', 2002, #412);
#414 = PRODUCT_DEFINITION_FORMATION_WITH_SPECIFIED_SOURCE('', '', #415, .NOT_KNOWN.);
#415 = PRODUCT('product-name', '2P121-1600-NC       H10F', '', (#416));
#416 = PRODUCT_CONTEXT('', #412, 'mechanical');
#417 = PRODUCT_RELATED_PRODUCT_CATEGORY('detail', '', (#415));
#418 = PRODUCT_DEFINITION_CONTEXT('part definition', #412, 'design');
#419 = SHAPE_DEFINITION_REPRESENTATION(#410, #409);
#420 = CONSTRUCTIVE_GEOMETRY_REPRESENTATION('supplemental geometry', (#391, #395, #399), #404);
#421 = CONSTRUCTIVE_GEOMETRY_REPRESENTATION_RELATIONSHIP('', '', #409, #420);
#422 = SHAPE_REPRESENTATION_RELATIONSHIP('', '', #409, #423);
#423 = SHAPE_REPRESENTATION('', (#360), #404);
#424 = SHAPE_REPRESENTATION_RELATIONSHIP('', '', #409, #425);
#425 = ADVANCED_BREP_SHAPE_REPRESENTATION('', (#1, #194), #404);
ENDSEC;
END-ISO-10303-21;
