ISO-10303-21;
HEADER;
FILE_DESCRIPTION(('STEP'), '1');
FILE_NAME('C:\\Users\\ds2002\\OneDrive - Sandvik\\HomeShare\\Documents\\Batchrepair\\CorSRT2\\NEW_MILSQ_SLD\\Output\\MOD000000000000000020082306700000.stp', '2019-01-02T12:10:14', (''), (''), 'Express v3.0.0.0', 'Express Tool', 'Unknown');
FILE_SCHEMA(('AUTOMOTIVE_DESIGN'));
ENDSEC;

DATA;
#1 = MANIFOLD_SOLID_BREP('NOCUT', #2);
#2 = CLOSED_SHELL('', (#3, #50, #89, #128, #167, #176));
#3 = ADVANCED_FACE('', (#4), #31, .T.);
#4 = FACE_OUTER_BOUND('', #5, .T.);
#5 = EDGE_LOOP('', (#6, #16, #23, #24));
#6 = ORIENTED_EDGE('', *, *, #7, .F.);
#7 = EDGE_CURVE('', #8, #10, #12, .T.);
#8 = VERTEX_POINT('', #9);
#9 = CARTESIAN_POINT('', (-6.85, 2.94833716894725E-15, -41.3));
#10 = VERTEX_POINT('', #11);
#11 = CARTESIAN_POINT('', (-6.85, 4.21584660606476E-15, -62.));
#12 = LINE('', #13, #14);
#13 = CARTESIAN_POINT('', (-6.85, 2.94833716894725E-15, -41.3));
#14 = VECTOR('', #15, 20.7);
#15 = DIRECTION('', (0., 1.26750943711751E-15, -20.7));
#16 = ORIENTED_EDGE('', *, *, #17, .T.);
#17 = EDGE_CURVE('', #8, #8, #18, .T.);
#18 = CIRCLE('', #19, 6.85);
#19 = AXIS2_PLACEMENT_3D('', #20, #21, #22);
#20 = CARTESIAN_POINT('', (2.94209101525666E-15, -3.99680288865056E-15, -41.3));
#21 = DIRECTION('', (1.03728866534321E-15, -3.37462840525633E-15, -1.));
#22 = DIRECTION('', (-1., 1.01388905950333E-15, -1.03728866534321E-15));
#23 = ORIENTED_EDGE('', *, *, #7, .T.);
#24 = ORIENTED_EDGE('', *, *, #25, .F.);
#25 = EDGE_CURVE('', #10, #10, #26, .T.);
#26 = CIRCLE('', #27, 6.85);
#27 = AXIS2_PLACEMENT_3D('', #28, #29, #30);
#28 = CARTESIAN_POINT('', (1.22124532708767E-15, 6.66133814775094E-16, -62.));
#29 = DIRECTION('', (0., 0., -1.));
#30 = DIRECTION('', (-1., 5.18206246903601E-16, 0.));
#31 = (
   BOUNDED_SURFACE ()
   B_SPLINE_SURFACE (2, 1, ((#32, #33), (#34, #35), (#36, #37), (#38, #39), (#40, #41), (#42, #43), (#44, #45), (#46, #47), (#48, #49)), .UNSPECIFIED., .T., .F., .U.)
   B_SPLINE_SURFACE_WITH_KNOTS ((3, 2, 2, 2, 3), (2, 2), (0., 10.7599548385451, 21.5199096770901, 32.2798645156352, 43.0398193541802), (0., 1.), .UNSPECIFIED.)
   GEOMETRIC_REPRESENTATION_ITEM ()
   RATIONAL_B_SPLINE_SURFACE (((1., 1.), (0.707106781186548, 0.707106781186548), (1., 1.), (0.707106781186548, 0.707106781186548), (1., 1.), (0.707106781186548, 0.707106781186548), (1., 1.), (0.707106781186548, 0.707106781186548), (1., 1.)))
   REPRESENTATION_ITEM ('')
   SURFACE ()
);
#32 = CARTESIAN_POINT('', (-6.85, 2.94833716894725E-15, -41.3));
#33 = CARTESIAN_POINT('', (-6.85, 4.28060479849744E-15, -62.));
#34 = CARTESIAN_POINT('', (-6.85, 6.85, -41.3));
#35 = CARTESIAN_POINT('', (-6.85, 6.85, -62.));
#36 = CARTESIAN_POINT('', (4.41627478210205E-15, 6.85, -41.3));
#37 = CARTESIAN_POINT('', (4.41627478210205E-15, 6.85, -62.));
#38 = CARTESIAN_POINT('', (6.85, 6.85, -41.3));
#39 = CARTESIAN_POINT('', (6.85, 6.85, -62.));
#40 = CARTESIAN_POINT('', (6.85, -3.4417217410815E-15, -41.3));
#41 = CARTESIAN_POINT('', (6.85, -2.10945411153131E-15, -62.));
#42 = CARTESIAN_POINT('', (6.85, -6.85, -41.3));
#43 = CARTESIAN_POINT('', (6.85, -6.85, -62.));
#44 = CARTESIAN_POINT('', (-1.13490107051077E-15, -6.85, -41.3));
#45 = CARTESIAN_POINT('', (-1.13490107051076E-15, -6.85, -62.));
#46 = CARTESIAN_POINT('', (-6.85, -6.85, -41.3));
#47 = CARTESIAN_POINT('', (-6.85, -6.85, -62.));
#48 = CARTESIAN_POINT('', (-6.85, 2.94833716894725E-15, -41.3));
#49 = CARTESIAN_POINT('', (-6.85, 4.28060479849744E-15, -62.));
#50 = ADVANCED_FACE('', (#51), #70, .T.);
#51 = FACE_OUTER_BOUND('', #52, .T.);
#52 = EDGE_LOOP('', (#53, #61, #68, #69));
#53 = ORIENTED_EDGE('', *, *, #54, .F.);
#54 = EDGE_CURVE('', #55, #8, #57, .T.);
#55 = VERTEX_POINT('', #56);
#56 = CARTESIAN_POINT('', (-7., 2.93915231795365E-15, -41.));
#57 = LINE('', #58, #59);
#58 = CARTESIAN_POINT('', (-7., 2.93915231795365E-15, -41.));
#59 = VECTOR('', #60, 0.335410196624966);
#60 = DIRECTION('', (0.15, 9.18485099360009E-18, -0.299999999999997));
#61 = ORIENTED_EDGE('', *, *, #62, .T.);
#62 = EDGE_CURVE('', #55, #55, #63, .T.);
#63 = CIRCLE('', #64, 7.);
#64 = AXIS2_PLACEMENT_3D('', #65, #66, #67);
#65 = CARTESIAN_POINT('', (-1.11022302462516E-16, -1.11022302462516E-15, -41.));
#66 = DIRECTION('', (0., 0., -1.));
#67 = DIRECTION('', (-1., 5.78482191796972E-16, 0.));
#68 = ORIENTED_EDGE('', *, *, #54, .T.);
#69 = ORIENTED_EDGE('', *, *, #17, .F.);
#70 = (
   BOUNDED_SURFACE ()
   B_SPLINE_SURFACE (2, 1, ((#71, #72), (#73, #74), (#75, #76), (#77, #78), (#79, #80), (#81, #82), (#83, #84), (#85, #86), (#87, #88)), .UNSPECIFIED., .T., .F., .U.)
   B_SPLINE_SURFACE_WITH_KNOTS ((3, 2, 2, 2, 3), (2, 2), (0., 0.25, 0.5, 0.75, 1.), (0., 1.), .UNSPECIFIED.)
   GEOMETRIC_REPRESENTATION_ITEM ()
   RATIONAL_B_SPLINE_SURFACE (((1., 1.), (0.707106781186548, 0.707106781186548), (1., 1.), (0.707106781186548, 0.707106781186548), (1., 1.), (0.707106781186548, 0.707106781186548), (1., 1.), (0.707106781186548, 0.707106781186548), (1., 1.)))
   REPRESENTATION_ITEM ('')
   SURFACE ()
);
#71 = CARTESIAN_POINT('', (-7., 2.93915231795365E-15, -41.));
#72 = CARTESIAN_POINT('', (-6.85, -3.41998748413014E-17, -41.3));
#73 = CARTESIAN_POINT('', (-7., 7., -41.0000000000001));
#74 = CARTESIAN_POINT('', (-6.85, 6.85, -41.3000000000001));
#75 = CARTESIAN_POINT('', (3.50972666041472E-15, 7., -41.0000000000001));
#76 = CARTESIAN_POINT('', (3.43213918263877E-15, 6.85, -41.3000000000001));
#77 = CARTESIAN_POINT('', (7., 7., -41.0000000000001));
#78 = CARTESIAN_POINT('', (6.85, 6.84999999999999, -41.3000000000001));
#79 = CARTESIAN_POINT('', (7., -4.30234560780082E-15, -41.));
#80 = CARTESIAN_POINT('', (6.85, -7.12052284504389E-15, -41.3));
#81 = CARTESIAN_POINT('', (7., -7., -40.9999999999999));
#82 = CARTESIAN_POINT('', (6.85, -6.85000000000001, -41.2999999999999));
#83 = CARTESIAN_POINT('', (-2.8745185059366E-15, -7., -40.9999999999999));
#84 = CARTESIAN_POINT('', (-2.81530073014787E-15, -6.85, -41.2999999999999));
#85 = CARTESIAN_POINT('', (-7., -7., -40.9999999999999));
#86 = CARTESIAN_POINT('', (-6.85, -6.85, -41.2999999999999));
#87 = CARTESIAN_POINT('', (-7., 2.93915231795365E-15, -41.));
#88 = CARTESIAN_POINT('', (-6.85, -3.41998748413014E-17, -41.3));
#89 = ADVANCED_FACE('', (#90), #109, .T.);
#90 = FACE_OUTER_BOUND('', #91, .T.);
#91 = EDGE_LOOP('', (#92, #100, #107, #108));
#92 = ORIENTED_EDGE('', *, *, #93, .T.);
#93 = EDGE_CURVE('', #55, #94, #96, .T.);
#94 = VERTEX_POINT('', #95);
#95 = CARTESIAN_POINT('', (-7., 4.71489017671731E-16, -0.700000000000003));
#96 = LINE('', #97, #98);
#97 = CARTESIAN_POINT('', (-7., 2.93915231795365E-15, -41.));
#98 = VECTOR('', #99, 40.3);
#99 = DIRECTION('', (0., -2.46766330028192E-15, 40.3));
#100 = ORIENTED_EDGE('', *, *, #101, .T.);
#101 = EDGE_CURVE('', #94, #94, #102, .T.);
#102 = CIRCLE('', #103, 7.);
#103 = AXIS2_PLACEMENT_3D('', #104, #105, #106);
#104 = CARTESIAN_POINT('', (4.44089209850063E-16, -1.77635683940025E-15, -0.700000000000003));
#105 = DIRECTION('', (1.58603289232165E-17, 2.38255613369127E-18, -1.));
#106 = DIRECTION('', (-1., 3.21120836724569E-16, -1.58603289232165E-17));
#107 = ORIENTED_EDGE('', *, *, #93, .F.);
#108 = ORIENTED_EDGE('', *, *, #62, .F.);
#109 = (
   BOUNDED_SURFACE ()
   B_SPLINE_SURFACE (1, 2, ((#110, #111, #112, #113, #114, #115, #116, #117, #118), (#119, #120, #121, #122, #123, #124, #125, #126, #127)), .UNSPECIFIED., .F., .T., .U.)
   B_SPLINE_SURFACE_WITH_KNOTS ((2, 2), (3, 2, 2, 2, 3), (0., 1.), (0., 10.9955742875643, 21.9911485751286, 32.9867228626928, 43.9822971502571), .UNSPECIFIED.)
   GEOMETRIC_REPRESENTATION_ITEM ()
   RATIONAL_B_SPLINE_SURFACE (((1., 0.707106781186548, 1., 0.707106781186548, 1., 0.707106781186548, 1., 0.707106781186548, 1.), (1., 0.707106781186548, 1., 0.707106781186548, 1., 0.707106781186548, 1., 0.707106781186548, 1.)))
   REPRESENTATION_ITEM ('')
   SURFACE ()
);
#110 = CARTESIAN_POINT('', (-7., 2.46989046199701E-15, -41.));
#111 = CARTESIAN_POINT('', (-7., 7., -41.));
#112 = CARTESIAN_POINT('', (2.9024799428261E-15, 7., -41.));
#113 = CARTESIAN_POINT('', (7., 7., -41.));
#114 = CARTESIAN_POINT('', (7., -1.1685484927438E-15, -41.));
#115 = CARTESIAN_POINT('', (7., -7., -41.));
#116 = CARTESIAN_POINT('', (1.21293747488429E-16, -7., -41.));
#117 = CARTESIAN_POINT('', (-7., -7., -41.));
#118 = CARTESIAN_POINT('', (-7., 2.46989046199701E-15, -41.));
#119 = CARTESIAN_POINT('', (-7., 4.71489017671731E-16, -0.700000000000003));
#120 = CARTESIAN_POINT('', (-7., 7., -0.700000000000003));
#121 = CARTESIAN_POINT('', (2.26330868722047E-15, 7., -0.700000000000003));
#122 = CARTESIAN_POINT('', (7., 7., -0.700000000000002));
#123 = CARTESIAN_POINT('', (7., -3.16694993706908E-15, -0.700000000000003));
#124 = CARTESIAN_POINT('', (7., -7., -0.700000000000003));
#125 = CARTESIAN_POINT('', (-5.17877508117198E-16, -7., -0.700000000000003));
#126 = CARTESIAN_POINT('', (-7., -7., -0.700000000000003));
#127 = CARTESIAN_POINT('', (-7., 4.71489017671731E-16, -0.700000000000003));
#128 = ADVANCED_FACE('', (#129), #148, .T.);
#129 = FACE_OUTER_BOUND('', #130, .T.);
#130 = EDGE_LOOP('', (#131, #139, #146, #147));
#131 = ORIENTED_EDGE('', *, *, #132, .T.);
#132 = EDGE_CURVE('', #94, #133, #135, .T.);
#133 = VERTEX_POINT('', #134);
#134 = CARTESIAN_POINT('', (-6.3, 3.85763741731416E-16, 0.));
#135 = LINE('', #136, #137);
#136 = CARTESIAN_POINT('', (-7., 4.71489017671731E-16, -0.700000000000003));
#137 = VECTOR('', #138, 0.989949493661169);
#138 = DIRECTION('', (0.7, -8.57252759403149E-17, 0.700000000000003));
#139 = ORIENTED_EDGE('', *, *, #140, .T.);
#140 = EDGE_CURVE('', #133, #133, #141, .T.);
#141 = CIRCLE('', #142, 6.3);
#142 = AXIS2_PLACEMENT_3D('', #143, #144, #145);
#143 = CARTESIAN_POINT('', (-6.93889390390723E-16, -3.44169137633799E-15, -2.2186712959341E-31));
#144 = DIRECTION('', (1.9836354552036E-33, 6.12323399573676E-17, -1.));
#145 = DIRECTION('', (-1., 6.07532558423715E-16, 3.52170046973666E-32));
#146 = ORIENTED_EDGE('', *, *, #132, .F.);
#147 = ORIENTED_EDGE('', *, *, #101, .F.);
#148 = (
   BOUNDED_SURFACE ()
   B_SPLINE_SURFACE (1, 2, ((#149, #150, #151, #152, #153, #154, #155, #156, #157), (#158, #159, #160, #161, #162, #163, #164, #165, #166)), .UNSPECIFIED., .F., .T., .U.)
   B_SPLINE_SURFACE_WITH_KNOTS ((2, 2), (3, 2, 2, 2, 3), (0., 1.), (0., 0.25, 0.5, 0.75, 1.), .UNSPECIFIED.)
   GEOMETRIC_REPRESENTATION_ITEM ()
   RATIONAL_B_SPLINE_SURFACE (((1., 0.707106781186548, 1., 0.707106781186548, 1., 0.707106781186548, 1., 0.707106781186548, 1.), (1., 0.707106781186548, 1., 0.707106781186548, 1., 0.707106781186548, 1., 0.707106781186548, 1.)))
   REPRESENTATION_ITEM ('')
   SURFACE ()
);
#149 = CARTESIAN_POINT('', (-7., -2.1865656338599E-15, -0.700000000000003));
#150 = CARTESIAN_POINT('', (-7., 7., -0.700000000000033));
#151 = CARTESIAN_POINT('', (3.1302121388737E-15, 6.99999999999999, -0.700000000000033));
#152 = CARTESIAN_POINT('', (7., 6.99999999999999, -0.700000000000033));
#153 = CARTESIAN_POINT('', (7., -9.83476869238876E-15, -0.700000000000003));
#154 = CARTESIAN_POINT('', (7., -7.00000000000001, -0.699999999999973));
#155 = CARTESIAN_POINT('', (-3.66073816025201E-15, -7.00000000000001, -0.699999999999973));
#156 = CARTESIAN_POINT('', (-7., -7., -0.699999999999973));
#157 = CARTESIAN_POINT('', (-7., -2.1865656338599E-15, -0.700000000000003));
#158 = CARTESIAN_POINT('', (-6.3, 3.85763741731417E-16, 4.37905770101505E-47));
#159 = CARTESIAN_POINT('', (-6.3, 6.3, -2.69784194983912E-14));
#160 = CARTESIAN_POINT('', (2.74780198594726E-15, 6.3, -2.69784194983912E-14));
#161 = CARTESIAN_POINT('', (6.3, 6.29999999999999, -2.69784194983912E-14));
#162 = CARTESIAN_POINT('', (6.3, -6.49761901094455E-15, -3.74763776766275E-30));
#163 = CARTESIAN_POINT('', (6.3, -6.30000000000001, 2.69784194983912E-14));
#164 = CARTESIAN_POINT('', (-3.36405328326588E-15, -6.3, 2.69784194983912E-14));
#165 = CARTESIAN_POINT('', (-6.3, -6.3, 2.69784194983912E-14));
#166 = CARTESIAN_POINT('', (-6.3, 3.85763741731417E-16, 4.37905770101505E-47));
#167 = ADVANCED_FACE('', (#168), #171, .T.);
#168 = FACE_OUTER_BOUND('', #169, .T.);
#169 = EDGE_LOOP('', (#170));
#170 = ORIENTED_EDGE('', *, *, #140, .F.);
#171 = B_SPLINE_SURFACE_WITH_KNOTS('', 1, 1, ((#172, #173), (#174, #175)), .UNSPECIFIED., .F., .F., .U., (2, 2), (2, 2), (0.0454545454545454, 0.954545454545454), (0.0454545454545454, 0.954545454545454), .UNSPECIFIED.);
#172 = CARTESIAN_POINT('', (6.3, -6.3, -3.85763741731416E-16));
#173 = CARTESIAN_POINT('', (-6.3, -6.3, -3.85763741731416E-16));
#174 = CARTESIAN_POINT('', (6.3, 6.3, 3.85763741731416E-16));
#175 = CARTESIAN_POINT('', (-6.3, 6.3, 3.85763741731416E-16));
#176 = ADVANCED_FACE('', (#177), #180, .T.);
#177 = FACE_OUTER_BOUND('', #178, .T.);
#178 = EDGE_LOOP('', (#179));
#179 = ORIENTED_EDGE('', *, *, #25, .T.);
#180 = B_SPLINE_SURFACE_WITH_KNOTS('', 1, 1, ((#181, #182), (#183, #184)), .UNSPECIFIED., .F., .F., .U., (2, 2), (2, 2), (0.480122956119079, 0.560400676131229), (0.439599323868771, 0.519877043880921), .UNSPECIFIED.);
#181 = CARTESIAN_POINT('', (-6.85000000000002, 6.85000000000001, -62.));
#182 = CARTESIAN_POINT('', (-6.85000000000002, -6.84999999999998, -62.));
#183 = CARTESIAN_POINT('', (6.84999999999998, 6.85000000000001, -62.));
#184 = CARTESIAN_POINT('', (6.84999999999998, -6.84999999999998, -62.));
#185 = DRAUGHTING_MODEL('', (#193, #317, #365, #370, #375, #380, #385, #390), #404);
#186 = PRESENTATION_STYLE_ASSIGNMENT((#187));
#187 = SURFACE_STYLE_USAGE(.POSITIVE., #188);
#188 = SURFACE_SIDE_STYLE('', (#189));
#189 = SURFACE_STYLE_FILL_AREA(#190);
#190 = FILL_AREA_STYLE('', (#191));
#191 = FILL_AREA_STYLE_COLOUR('', #192);
#192 = COLOUR_RGB('', 0.50196078431373, 0.50196078431373, 0.50196078431373);
#193 = STYLED_ITEM('', (#186), #1);
#194 = MANIFOLD_SOLID_BREP('CUT', #195);
#195 = CLOSED_SHELL('', (#196, #213, #252, #301));
#196 = ADVANCED_FACE('', (#197), #208, .T.);
#197 = FACE_OUTER_BOUND('', #198, .T.);
#198 = EDGE_LOOP('', (#199));
#199 = ORIENTED_EDGE('', *, *, #200, .F.);
#200 = EDGE_CURVE('', #201, #201, #203, .T.);
#201 = VERTEX_POINT('', #202);
#202 = CARTESIAN_POINT('', (-7., 4.22503145705837E-15, -62.));
#203 = CIRCLE('', #204, 7.);
#204 = AXIS2_PLACEMENT_3D('', #205, #206, #207);
#205 = CARTESIAN_POINT('', (-1.94289029309402E-16, 4.44089209850063E-16, -62.));
#206 = DIRECTION('', (0., 0., -1.));
#207 = DIRECTION('', (-1., 5.40134606744044E-16, 0.));
#208 = B_SPLINE_SURFACE_WITH_KNOTS('', 1, 1, ((#209, #210), (#211, #212)), .UNSPECIFIED., .F., .F., .U., (2, 2), (2, 2), (0.0454545454545454, 0.954545454545454), (0.0454545454545455, 0.954545454545454), .UNSPECIFIED.);
#209 = CARTESIAN_POINT('', (7., -7., -62.));
#210 = CARTESIAN_POINT('', (-7., -7., -62.));
#211 = CARTESIAN_POINT('', (7., 7., -62.));
#212 = CARTESIAN_POINT('', (-7., 7., -62.));
#213 = ADVANCED_FACE('', (#214), #233, .T.);
#214 = FACE_OUTER_BOUND('', #215, .T.);
#215 = EDGE_LOOP('', (#216, #224, #225, #226));
#216 = ORIENTED_EDGE('', *, *, #217, .F.);
#217 = EDGE_CURVE('', #201, #218, #220, .T.);
#218 = VERTEX_POINT('', #219);
#219 = CARTESIAN_POINT('', (-7., 5.50172574516948E-15, -82.85));
#220 = LINE('', #221, #222);
#221 = CARTESIAN_POINT('', (-7., 4.22503145705837E-15, -62.));
#222 = VECTOR('', #223, 20.85);
#223 = DIRECTION('', (0., 1.27669428811111E-15, -20.85));
#224 = ORIENTED_EDGE('', *, *, #200, .T.);
#225 = ORIENTED_EDGE('', *, *, #217, .T.);
#226 = ORIENTED_EDGE('', *, *, #227, .F.);
#227 = EDGE_CURVE('', #218, #218, #228, .T.);
#228 = CIRCLE('', #229, 7.);
#229 = AXIS2_PLACEMENT_3D('', #230, #231, #232);
#230 = CARTESIAN_POINT('', (3.60822483003176E-16, 3.33066907387547E-15, -82.85));
#231 = DIRECTION('', (0., 0., -1.));
#232 = DIRECTION('', (-1., 3.10150953042001E-16, 0.));
#233 = (
   BOUNDED_SURFACE ()
   B_SPLINE_SURFACE (2, 1, ((#234, #235), (#236, #237), (#238, #239), (#240, #241), (#242, #243), (#244, #245), (#246, #247), (#248, #249), (#250, #251)), .UNSPECIFIED., .T., .F., .U.)
   B_SPLINE_SURFACE_WITH_KNOTS ((3, 2, 2, 2, 3), (2, 2), (0., 10.9955742875643, 21.9911485751286, 32.9867228626928, 43.9822971502571), (0., 1.), .UNSPECIFIED.)
   GEOMETRIC_REPRESENTATION_ITEM ()
   RATIONAL_B_SPLINE_SURFACE (((1., 1.), (0.707106781186548, 0.707106781186548), (1., 1.), (0.707106781186548, 0.707106781186548), (1., 1.), (0.707106781186548, 0.707106781186548), (1., 1.), (0.707106781186548, 0.707106781186548), (1., 1.)))
   REPRESENTATION_ITEM ('')
   SURFACE ()
);
#234 = CARTESIAN_POINT('', (-7., 4.22503145705837E-15, -62.));
#235 = CARTESIAN_POINT('', (-7., 9.77614658018415E-15, -82.85));
#236 = CARTESIAN_POINT('', (-6.99999999999999, 7., -62.));
#237 = CARTESIAN_POINT('', (-6.99999999999999, 7.00000000000001, -82.85));
#238 = CARTESIAN_POINT('', (5.96133997537585E-15, 7., -62.));
#239 = CARTESIAN_POINT('', (5.96133997537586E-15, 7., -82.85));
#240 = CARTESIAN_POINT('', (7.00000000000001, 6.99999999999999, -62.));
#241 = CARTESIAN_POINT('', (7.00000000000001, 7., -82.85));
#242 = CARTESIAN_POINT('', (7., -7.80867079615585E-15, -62.));
#243 = CARTESIAN_POINT('', (7., -2.25755567303007E-15, -82.85));
#244 = CARTESIAN_POINT('', (6.99999999999999, -7.00000000000001, -62.));
#245 = CARTESIAN_POINT('', (6.99999999999999, -7., -82.85));
#246 = CARTESIAN_POINT('', (-5.21510951843522E-15, -7., -62.));
#247 = CARTESIAN_POINT('', (-5.21510951843521E-15, -7., -82.85));
#248 = CARTESIAN_POINT('', (-7.00000000000001, -7., -62.));
#249 = CARTESIAN_POINT('', (-7.00000000000001, -6.99999999999999, -82.85));
#250 = CARTESIAN_POINT('', (-7., 4.22503145705837E-15, -62.));
#251 = CARTESIAN_POINT('', (-7., 9.77614658018415E-15, -82.85));
#252 = ADVANCED_FACE('', (#253), #273, .T.);
#253 = FACE_OUTER_BOUND('', #254, .T.);
#254 = EDGE_LOOP('', (#255, #264, #265, #266));
#255 = ORIENTED_EDGE('', *, *, #256, .F.);
#256 = EDGE_CURVE('', #218, #257, #259, .T.);
#257 = VERTEX_POINT('', #258);
#258 = CARTESIAN_POINT('', (-6.85, 5.50172574516948E-15, -83.));
#259 = CIRCLE('', #260, 0.15000000000001);
#260 = AXIS2_PLACEMENT_3D('', #261, #262, #263);
#261 = CARTESIAN_POINT('', (-6.84999999999999, 5.49254089417587E-15, -82.85));
#262 = DIRECTION('', (-6.12323399574087E-17, -1., -6.12323399574116E-17));
#263 = DIRECTION('', (-1., 6.12323399574087E-17, 0.));
#264 = ORIENTED_EDGE('', *, *, #227, .T.);
#265 = ORIENTED_EDGE('', *, *, #256, .T.);
#266 = ORIENTED_EDGE('', *, *, #267, .F.);
#267 = EDGE_CURVE('', #257, #257, #268, .T.);
#268 = CIRCLE('', #269, 6.85);
#269 = AXIS2_PLACEMENT_3D('', #270, #271, #272);
#270 = CARTESIAN_POINT('', (-9.43689570931383E-16, 3.77475828372553E-15, -83.));
#271 = DIRECTION('', (-1.78013842203995E-30, -7.06090210916776E-15, -1.));
#272 = DIRECTION('', (-1., 2.52112038167E-16, 0.));
#273 = (
   BOUNDED_SURFACE ()
   B_SPLINE_SURFACE (2, 2, ((#274, #275, #276), (#277, #278, #279), (#280, #281, #282), (#283, #284, #285), (#286, #287, #288), (#289, #290, #291), (#292, #293, #294), (#295, #296, #297), (#298, #299, #300)), .UNSPECIFIED., .T., .F., .U.)
   B_SPLINE_SURFACE_WITH_KNOTS ((3, 2, 2, 2, 3), (3, 3), (0., 0.25, 0.5, 0.75, 1.), (0., 1.), .UNSPECIFIED.)
   GEOMETRIC_REPRESENTATION_ITEM ()
   RATIONAL_B_SPLINE_SURFACE (((1., 0.707106781186562, 1.), (0.707106781186548, 0.50000000000001, 0.707106781186548), (1., 0.707106781186562, 1.), (0.707106781186548, 0.50000000000001, 0.707106781186548), (1., 0.707106781186562, 1.), (0.707106781186548, 0.50000000000001, 0.707106781186548), (1., 0.707106781186562, 1.), (0.707106781186548, 0.50000000000001, 0.707106781186548), (1., 0.707106781186562, 1.)))
   REPRESENTATION_ITEM ('')
   SURFACE ()
);
#274 = CARTESIAN_POINT('', (-7., 5.50172574516948E-15, -82.85));
#275 = CARTESIAN_POINT('', (-6.99999999999999, 5.51091059616309E-15, -83.));
#276 = CARTESIAN_POINT('', (-6.85, 5.50172574516948E-15, -83.));
#277 = CARTESIAN_POINT('', (-7., 7.00000000000001, -82.85));
#278 = CARTESIAN_POINT('', (-6.99999999999999, 7., -83.));
#279 = CARTESIAN_POINT('', (-6.85, 6.85, -83.));
#280 = CARTESIAN_POINT('', (3.40776482853017E-15, 7., -82.85));
#281 = CARTESIAN_POINT('', (3.41694967952378E-15, 6.99999999999999, -83.));
#282 = CARTESIAN_POINT('', (3.41694967952378E-15, 6.85, -83.));
#283 = CARTESIAN_POINT('', (7., 7., -82.85));
#284 = CARTESIAN_POINT('', (6.99999999999999, 6.99999999999999, -83.));
#285 = CARTESIAN_POINT('', (6.85, 6.85, -83.));
#286 = CARTESIAN_POINT('', (7., -1.53584851681589E-15, -82.85));
#287 = CARTESIAN_POINT('', (6.99999999999999, -1.54503336780951E-15, -83.));
#288 = CARTESIAN_POINT('', (6.85, -1.5542182188031E-15, -83.));
#289 = CARTESIAN_POINT('', (7., -7., -82.85));
#290 = CARTESIAN_POINT('', (6.99999999999999, -6.99999999999999, -83.));
#291 = CARTESIAN_POINT('', (6.85, -6.85, -83.));
#292 = CARTESIAN_POINT('', (-2.77255667405206E-15, -7., -82.85));
#293 = CARTESIAN_POINT('', (-2.78174152504567E-15, -6.99999999999999, -83.));
#294 = CARTESIAN_POINT('', (-2.80011122703287E-15, -6.85, -83.));
#295 = CARTESIAN_POINT('', (-7., -7., -82.85));
#296 = CARTESIAN_POINT('', (-6.99999999999999, -6.99999999999999, -83.));
#297 = CARTESIAN_POINT('', (-6.85, -6.85, -83.));
#298 = CARTESIAN_POINT('', (-7., 5.50172574516948E-15, -82.85));
#299 = CARTESIAN_POINT('', (-6.99999999999999, 5.51091059616309E-15, -83.));
#300 = CARTESIAN_POINT('', (-6.85, 5.50172574516948E-15, -83.));
#301 = ADVANCED_FACE('', (#302), #305, .T.);
#302 = FACE_OUTER_BOUND('', #303, .T.);
#303 = EDGE_LOOP('', (#304));
#304 = ORIENTED_EDGE('', *, *, #267, .T.);
#305 = B_SPLINE_SURFACE_WITH_KNOTS('', 1, 1, ((#306, #307), (#308, #309)), .UNSPECIFIED., .F., .F., .U., (2, 2), (2, 2), (0.0454545454545454, 0.954545454545454), (0.0454545454545454, 0.954545454545454), .UNSPECIFIED.);
#306 = CARTESIAN_POINT('', (6.85, -6.85, -83.));
#307 = CARTESIAN_POINT('', (6.85, 6.85000000000001, -83.));
#308 = CARTESIAN_POINT('', (-6.85, -6.85, -83.));
#309 = CARTESIAN_POINT('', (-6.85, 6.85000000000001, -83.));
#310 = PRESENTATION_STYLE_ASSIGNMENT((#311));
#311 = SURFACE_STYLE_USAGE(.POSITIVE., #312);
#312 = SURFACE_SIDE_STYLE('', (#313));
#313 = SURFACE_STYLE_FILL_AREA(#314);
#314 = FILL_AREA_STYLE('', (#315));
#315 = FILL_AREA_STYLE_COLOUR('', #316);
#316 = COLOUR_RGB('', 0.8, 0.8, 0.8);
#317 = STYLED_ITEM('', (#310), #194);
#318 = TRIMMED_CURVE('cutting part line', #319, (#323), (#324), .T., .CARTESIAN.);
#319 = LINE('', #320, #321);
#320 = CARTESIAN_POINT('', (6.38378239159465E-16, 0., -83.));
#321 = VECTOR('', #322, 6.85);
#322 = DIRECTION('', (6.85, 0., 0.));
#323 = CARTESIAN_POINT('', (6.38378239159465E-16, 0., -83.));
#324 = CARTESIAN_POINT('', (6.85, 0., -83.));
#325 = TRIMMED_CURVE('cutting part line', #326, (#331), (#332), .T., .CARTESIAN.);
#326 = CIRCLE('', #327, 0.150000000000001);
#327 = AXIS2_PLACEMENT_3D('', #328, #329, #330);
#328 = CARTESIAN_POINT('', (6.85, 2.87052774058962E-15, -82.85));
#329 = DIRECTION('', (4.62592926927183E-16, -1., 1.85037170770818E-16));
#330 = DIRECTION('', (-3.55271367880037E-14, -1.85037170770834E-16, -1.));
#331 = CARTESIAN_POINT('', (6.85, 2.84277216497399E-15, -83.));
#332 = CARTESIAN_POINT('', (7.00000000000001, 2.9399166796287E-15, -82.85));
#333 = TRIMMED_CURVE('cutting part line', #334, (#338), (#339), .T., .CARTESIAN.);
#334 = LINE('', #335, #336);
#335 = CARTESIAN_POINT('', (7., 5.5502696614051E-15, -82.85));
#336 = VECTOR('', #337, 20.85);
#337 = DIRECTION('', (0., -5.5502696614051E-15, 20.85));
#338 = CARTESIAN_POINT('', (7., 5.5502696614051E-15, -82.85));
#339 = CARTESIAN_POINT('', (7., 0., -62.));
#340 = TRIMMED_CURVE('cutting part line', #341, (#345), (#346), .T., .CARTESIAN.);
#341 = LINE('', #342, #343);
#342 = CARTESIAN_POINT('', (7., 0., -62.));
#343 = VECTOR('', #344, 7.);
#344 = DIRECTION('', (-7., 0., 7.105427357601E-15));
#345 = CARTESIAN_POINT('', (7., 0., -62.));
#346 = CARTESIAN_POINT('', (1.38777878078145E-17, 0., -62.));
#347 = TRIMMED_CURVE('cutting part line', #348, (#352), (#353), .T., .CARTESIAN.);
#348 = LINE('', #349, #350);
#349 = CARTESIAN_POINT('', (0., 0., -62.));
#350 = VECTOR('', #351, 21.);
#351 = DIRECTION('', (0., 0., -21.));
#352 = CARTESIAN_POINT('', (0., 0., -62.));
#353 = CARTESIAN_POINT('', (0., 0., -83.));
#354 = COMPOSITE_CURVE('cutting part line', (#355, #356, #357, #358, #359), .U.);
#355 = COMPOSITE_CURVE_SEGMENT(.CONTINUOUS., .T., #318);
#356 = COMPOSITE_CURVE_SEGMENT(.CONTINUOUS., .T., #325);
#357 = COMPOSITE_CURVE_SEGMENT(.CONTINUOUS., .T., #333);
#358 = COMPOSITE_CURVE_SEGMENT(.CONTINUOUS., .T., #340);
#359 = COMPOSITE_CURVE_SEGMENT(.CONTINUOUS., .T., #347);
#360 = GEOMETRIC_SET('', (#354, #403));
#361 = PRESENTATION_STYLE_ASSIGNMENT((#362));
#362 = CURVE_STYLE('', #364, POSITIVE_LENGTH_MEASURE(1.E-6), #363);
#363 = COLOUR_RGB('', 0., 0., 1.);
#364 = DRAUGHTING_PRE_DEFINED_CURVE_FONT('continuous');
#365 = STYLED_ITEM('', (#361), #354);
#366 = PRESENTATION_STYLE_ASSIGNMENT((#367));
#367 = CURVE_STYLE('', #369, POSITIVE_LENGTH_MEASURE(1.E-6), #368);
#368 = COLOUR_RGB('', 0., 0., 1.);
#369 = DRAUGHTING_PRE_DEFINED_CURVE_FONT('continuous');
#370 = OVER_RIDING_STYLED_ITEM('', (#366), #318, #365);
#371 = PRESENTATION_STYLE_ASSIGNMENT((#372));
#372 = CURVE_STYLE('', #374, POSITIVE_LENGTH_MEASURE(1.E-6), #373);
#373 = COLOUR_RGB('', 0., 0., 1.);
#374 = DRAUGHTING_PRE_DEFINED_CURVE_FONT('continuous');
#375 = OVER_RIDING_STYLED_ITEM('', (#371), #325, #365);
#376 = PRESENTATION_STYLE_ASSIGNMENT((#377));
#377 = CURVE_STYLE('', #379, POSITIVE_LENGTH_MEASURE(1.E-6), #378);
#378 = COLOUR_RGB('', 0., 0., 1.);
#379 = DRAUGHTING_PRE_DEFINED_CURVE_FONT('continuous');
#380 = OVER_RIDING_STYLED_ITEM('', (#376), #333, #365);
#381 = PRESENTATION_STYLE_ASSIGNMENT((#382));
#382 = CURVE_STYLE('', #384, POSITIVE_LENGTH_MEASURE(1.E-6), #383);
#383 = COLOUR_RGB('', 0., 0., 1.);
#384 = DRAUGHTING_PRE_DEFINED_CURVE_FONT('continuous');
#385 = OVER_RIDING_STYLED_ITEM('', (#381), #340, #365);
#386 = PRESENTATION_STYLE_ASSIGNMENT((#387));
#387 = CURVE_STYLE('', #389, POSITIVE_LENGTH_MEASURE(1.E-6), #388);
#388 = COLOUR_RGB('', 0., 0., 1.);
#389 = DRAUGHTING_PRE_DEFINED_CURVE_FONT('continuous');
#390 = OVER_RIDING_STYLED_ITEM('', (#386), #347, #365);
#391 = AXIS2_PLACEMENT_3D('MCS', #392, #393, #394);
#392 = CARTESIAN_POINT('', (0., 0., -45.));
#393 = DIRECTION('', (0., 0., 1.));
#394 = DIRECTION('', (1., 0., 0.));
#395 = AXIS2_PLACEMENT_3D('PCS', #396, #397, #398);
#396 = CARTESIAN_POINT('', (0., 0., 0.));
#397 = DIRECTION('', (0., 0., 1.));
#398 = DIRECTION('', (1., 0., 0.));
#399 = AXIS2_PLACEMENT_3D('CIP', #400, #401, #402);
#400 = CARTESIAN_POINT('', (0., 0., -83.));
#401 = DIRECTION('', (0., 0., 1.));
#402 = DIRECTION('', (1., 0., 0.));
#403 = CARTESIAN_POINT('CRP', (7., 0., -83.));
#404 = (
   GEOMETRIC_REPRESENTATION_CONTEXT (3)
   GLOBAL_UNCERTAINTY_ASSIGNED_CONTEXT ((#406))
   GLOBAL_UNIT_ASSIGNED_CONTEXT ((#405, #407, #408))
   REPRESENTATION_CONTEXT ('', '3D')
);
#405 = (
   LENGTH_UNIT ()
   NAMED_UNIT (*)
   SI_UNIT (.MILLI., .METRE.)
);
#406 = UNCERTAINTY_MEASURE_WITH_UNIT(LENGTH_MEASURE(1.E-6), #405, 'DISTANCE_ACCURACY_VALUE', '');
#407 = (
   NAMED_UNIT (*)
   SI_UNIT ($, .STERADIAN.)
   SOLID_ANGLE_UNIT ()
);
#408 = (
   NAMED_UNIT (*)
   PLANE_ANGLE_UNIT ()
   SI_UNIT ($, .RADIAN.)
);
#409 = SHAPE_REPRESENTATION('', (), #404);
#410 = PRODUCT_DEFINITION_SHAPE('', '', #411);
#411 = PRODUCT_DEFINITION('', '', #414, #418);
#412 = APPLICATION_CONTEXT('configuration controlled 3D designs of mechanical parts and assemblies');
#413 = APPLICATION_PROTOCOL_DEFINITION('International Standard', 'automotive_design', 2002, #412);
#414 = PRODUCT_DEFINITION_FORMATION_WITH_SPECIFIED_SOURCE('', '', #415, .NOT_KNOWN.);
#415 = PRODUCT('product-name', '2P121-1400-NC       H10F', '', (#416));
#416 = PRODUCT_CONTEXT('', #412, 'mechanical');
#417 = PRODUCT_RELATED_PRODUCT_CATEGORY('detail', '', (#415));
#418 = PRODUCT_DEFINITION_CONTEXT('part definition', #412, 'design');
#419 = SHAPE_DEFINITION_REPRESENTATION(#410, #409);
#420 = CONSTRUCTIVE_GEOMETRY_REPRESENTATION('supplemental geometry', (#391, #395, #399), #404);
#421 = CONSTRUCTIVE_GEOMETRY_REPRESENTATION_RELATIONSHIP('', '', #409, #420);
#422 = SHAPE_REPRESENTATION_RELATIONSHIP('', '', #409, #423);
#423 = SHAPE_REPRESENTATION('', (#360), #404);
#424 = SHAPE_REPRESENTATION_RELATIONSHIP('', '', #409, #425);
#425 = ADVANCED_BREP_SHAPE_REPRESENTATION('', (#1, #194), #404);
ENDSEC;
END-ISO-10303-21;
