ISO-10303-21;
HEADER;
FILE_DESCRIPTION(('STEP'), '1');
FILE_NAME('C:\\Users\\ds2002\\OneDrive - Sandvik\\HomeShare\\Documents\\Batchrepair\\CorSRT2\\NEW_MILSQ_SLD\\Output\\MOD000000000000000020082306600000.stp', '2019-01-02T12:10:12', (''), (''), 'Express v3.0.0.0', 'Express Tool', 'Unknown');
FILE_SCHEMA(('AUTOMOTIVE_DESIGN'));
ENDSEC;

DATA;
#1 = MANIFOLD_SOLID_BREP('NOCUT', #2);
#2 = CLOSED_SHELL('', (#3, #50, #89, #128, #167, #176));
#3 = ADVANCED_FACE('', (#4), #31, .T.);
#4 = FACE_OUTER_BOUND('', #5, .T.);
#5 = EDGE_LOOP('', (#6, #16, #23, #24));
#6 = ORIENTED_EDGE('', *, *, #7, .F.);
#7 = EDGE_CURVE('', #8, #10, #12, .T.);
#8 = VERTEX_POINT('', #9);
#9 = CARTESIAN_POINT('', (-5.85, 3.22388269875541E-15, -46.8));
#10 = VERTEX_POINT('', #11);
#11 = CARTESIAN_POINT('', (-5.85, 4.3383112859795E-15, -65.));
#12 = LINE('', #13, #14);
#13 = CARTESIAN_POINT('', (-5.85, 3.22388269875541E-15, -46.8));
#14 = VECTOR('', #15, 18.2);
#15 = DIRECTION('', (0., 1.11442858722409E-15, -18.2));
#16 = ORIENTED_EDGE('', *, *, #17, .T.);
#17 = EDGE_CURVE('', #8, #8, #18, .T.);
#18 = CIRCLE('', #19, 5.85);
#19 = AXIS2_PLACEMENT_3D('', #20, #21, #22);
#20 = CARTESIAN_POINT('', (-1.41553435639707E-15, 3.10862446895044E-15, -46.8));
#21 = DIRECTION('', (0., 0., -1.));
#22 = DIRECTION('', (-1., 1.97022615051234E-17, 0.));
#23 = ORIENTED_EDGE('', *, *, #7, .T.);
#24 = ORIENTED_EDGE('', *, *, #25, .F.);
#25 = EDGE_CURVE('', #10, #10, #26, .T.);
#26 = CIRCLE('', #27, 5.85);
#27 = AXIS2_PLACEMENT_3D('', #28, #29, #30);
#28 = CARTESIAN_POINT('', (-6.93889390390723E-16, -2.22044604925031E-16, -65.));
#29 = DIRECTION('', (6.44522030013024E-30, 8.2678939227007E-15, -1.));
#30 = DIRECTION('', (-1., 7.79548015539236E-16, 0.));
#31 = (
   BOUNDED_SURFACE ()
   B_SPLINE_SURFACE (2, 1, ((#32, #33), (#34, #35), (#36, #37), (#38, #39), (#40, #41), (#42, #43), (#44, #45), (#46, #47), (#48, #49)), .UNSPECIFIED., .T., .F., .U.)
   B_SPLINE_SURFACE_WITH_KNOTS ((3, 2, 2, 2, 3), (2, 2), (0., 9.18915851175015, 18.3783170235003, 27.5674755352505, 36.7566340470006), (0., 1.), .UNSPECIFIED.)
   GEOMETRIC_REPRESENTATION_ITEM ()
   RATIONAL_B_SPLINE_SURFACE (((1., 1.), (0.707106781186548, 0.707106781186548), (1., 1.), (0.707106781186548, 0.707106781186548), (1., 1.), (0.707106781186548, 0.707106781186548), (1., 1.), (0.707106781186548, 0.707106781186548), (1., 1.)))
   REPRESENTATION_ITEM ('')
   SURFACE ()
);
#32 = CARTESIAN_POINT('', (-5.85, 3.22388269875541E-15, -46.8));
#33 = CARTESIAN_POINT('', (-5.85, 4.5561503283056E-15, -65.));
#34 = CARTESIAN_POINT('', (-5.85, 5.85, -46.8));
#35 = CARTESIAN_POINT('', (-5.85, 5.85, -65.));
#36 = CARTESIAN_POINT('', (4.64203034940506E-15, 5.85, -46.8));
#37 = CARTESIAN_POINT('', (4.64203034940506E-15, 5.85, -65.));
#38 = CARTESIAN_POINT('', (5.85, 5.84999999999999, -46.8));
#39 = CARTESIAN_POINT('', (5.85, 5.85, -65.));
#40 = CARTESIAN_POINT('', (5.85, -5.61608879020465E-15, -46.8));
#41 = CARTESIAN_POINT('', (5.85, -4.28382116065446E-15, -65.));
#42 = CARTESIAN_POINT('', (5.85, -5.85, -46.8));
#43 = CARTESIAN_POINT('', (5.85, -5.85, -65.));
#44 = CARTESIAN_POINT('', (-3.4815227620538E-15, -5.85, -46.8));
#45 = CARTESIAN_POINT('', (-3.48152276205379E-15, -5.85, -65.));
#46 = CARTESIAN_POINT('', (-5.85, -5.85, -46.8));
#47 = CARTESIAN_POINT('', (-5.85, -5.85, -65.));
#48 = CARTESIAN_POINT('', (-5.85, 3.22388269875541E-15, -46.8));
#49 = CARTESIAN_POINT('', (-5.85, 4.5561503283056E-15, -65.));
#50 = ADVANCED_FACE('', (#51), #70, .T.);
#51 = FACE_OUTER_BOUND('', #52, .T.);
#52 = EDGE_LOOP('', (#53, #61, #68, #69));
#53 = ORIENTED_EDGE('', *, *, #54, .F.);
#54 = EDGE_CURVE('', #55, #8, #57, .T.);
#55 = VERTEX_POINT('', #56);
#56 = CARTESIAN_POINT('', (-6., 3.2146978477618E-15, -46.5));
#57 = LINE('', #58, #59);
#58 = CARTESIAN_POINT('', (-6., 3.2146978477618E-15, -46.5));
#59 = VECTOR('', #60, 0.335410196624966);
#60 = DIRECTION('', (0.15, 9.18485099360995E-18, -0.299999999999997));
#61 = ORIENTED_EDGE('', *, *, #62, .T.);
#62 = EDGE_CURVE('', #55, #55, #63, .T.);
#63 = CIRCLE('', #64, 6.);
#64 = AXIS2_PLACEMENT_3D('', #65, #66, #67);
#65 = CARTESIAN_POINT('', (5.55111512312578E-16, 2.44249065417534E-15, -46.5));
#66 = DIRECTION('', (0., 0., -1.));
#67 = DIRECTION('', (-1., 1.28701198931076E-16, 0.));
#68 = ORIENTED_EDGE('', *, *, #54, .T.);
#69 = ORIENTED_EDGE('', *, *, #17, .F.);
#70 = (
   BOUNDED_SURFACE ()
   B_SPLINE_SURFACE (2, 1, ((#71, #72), (#73, #74), (#75, #76), (#77, #78), (#79, #80), (#81, #82), (#83, #84), (#85, #86), (#87, #88)), .UNSPECIFIED., .T., .F., .U.)
   B_SPLINE_SURFACE_WITH_KNOTS ((3, 2, 2, 2, 3), (2, 2), (0., 0.25, 0.5, 0.75, 1.), (0., 1.), .UNSPECIFIED.)
   GEOMETRIC_REPRESENTATION_ITEM ()
   RATIONAL_B_SPLINE_SURFACE (((1., 1.), (0.707106781186548, 0.707106781186548), (1., 1.), (0.707106781186548, 0.707106781186548), (1., 1.), (0.707106781186548, 0.707106781186548), (1., 1.), (0.707106781186548, 0.707106781186548), (1., 1.)))
   REPRESENTATION_ITEM ('')
   SURFACE ()
);
#71 = CARTESIAN_POINT('', (-6., 3.2146978477618E-15, -46.5));
#72 = CARTESIAN_POINT('', (-5.85, 3.86152648269723E-15, -46.8));
#73 = CARTESIAN_POINT('', (-6., 6., -46.5));
#74 = CARTESIAN_POINT('', (-5.85, 5.85, -46.8));
#75 = CARTESIAN_POINT('', (9.59924666154828E-16, 6., -46.5));
#76 = CARTESIAN_POINT('', (9.49804337308772E-16, 5.85, -46.8));
#77 = CARTESIAN_POINT('', (6., 6., -46.5));
#78 = CARTESIAN_POINT('', (5.85, 5.85, -46.8));
#79 = CARTESIAN_POINT('', (6., 2.4050715400773E-15, -46.5));
#80 = CARTESIAN_POINT('', (5.85, 3.07214083270485E-15, -46.8));
#81 = CARTESIAN_POINT('', (6., -6., -46.5));
#82 = CARTESIAN_POINT('', (5.85, -5.85, -46.8));
#83 = CARTESIAN_POINT('', (8.85086437958741E-16, -6., -46.5));
#84 = CARTESIAN_POINT('', (8.76837064817586E-16, -5.85, -46.8));
#85 = CARTESIAN_POINT('', (-6., -6., -46.5));
#86 = CARTESIAN_POINT('', (-5.85, -5.85, -46.8));
#87 = CARTESIAN_POINT('', (-6., 3.2146978477618E-15, -46.5));
#88 = CARTESIAN_POINT('', (-5.85, 3.86152648269723E-15, -46.8));
#89 = ADVANCED_FACE('', (#90), #109, .T.);
#90 = FACE_OUTER_BOUND('', #91, .T.);
#91 = EDGE_LOOP('', (#92, #100, #107, #108));
#92 = ORIENTED_EDGE('', *, *, #93, .T.);
#93 = EDGE_CURVE('', #55, #94, #96, .T.);
#94 = VERTEX_POINT('', #95);
#95 = CARTESIAN_POINT('', (-6., 4.04133443718627E-16, -0.600000000000001));
#96 = LINE('', #97, #98);
#97 = CARTESIAN_POINT('', (-6., 3.2146978477618E-15, -46.5));
#98 = VECTOR('', #99, 45.9);
#99 = DIRECTION('', (0., -2.81056440404317E-15, 45.9));
#100 = ORIENTED_EDGE('', *, *, #101, .T.);
#101 = EDGE_CURVE('', #94, #94, #102, .T.);
#102 = CIRCLE('', #103, 6.);
#103 = AXIS2_PLACEMENT_3D('', #104, #105, #106);
#104 = CARTESIAN_POINT('', (1.47104550762833E-15, -5.55111512312578E-16, -0.600000000000001));
#105 = DIRECTION('', (-1.85037170770859E-17, 1.23176547656001E-16, -1.));
#106 = DIRECTION('', (-1., 1.59874159338534E-16, 1.85037170770859E-17));
#107 = ORIENTED_EDGE('', *, *, #93, .F.);
#108 = ORIENTED_EDGE('', *, *, #62, .F.);
#109 = (
   BOUNDED_SURFACE ()
   B_SPLINE_SURFACE (1, 2, ((#110, #111, #112, #113, #114, #115, #116, #117, #118), (#119, #120, #121, #122, #123, #124, #125, #126, #127)), .UNSPECIFIED., .F., .T., .U.)
   B_SPLINE_SURFACE_WITH_KNOTS ((2, 2), (3, 2, 2, 2, 3), (0., 1.), (0., 9.42477796076938, 18.8495559215388, 28.2743338823081, 37.6991118430775), .UNSPECIFIED.)
   GEOMETRIC_REPRESENTATION_ITEM ()
   RATIONAL_B_SPLINE_SURFACE (((1., 0.707106781186548, 1., 0.707106781186548, 1., 0.707106781186548, 1., 0.707106781186548, 1.), (1., 0.707106781186548, 1., 0.707106781186548, 1., 0.707106781186548, 1., 0.707106781186548, 1.)))
   REPRESENTATION_ITEM ('')
   SURFACE ()
);
#110 = CARTESIAN_POINT('', (-6., 7.10665363310799E-17, -46.5));
#111 = CARTESIAN_POINT('', (-6., 6., -46.5));
#112 = CARTESIAN_POINT('', (1.21357581007709E-15, 6., -46.5));
#113 = CARTESIAN_POINT('', (6., 6., -46.5));
#114 = CARTESIAN_POINT('', (6., -1.11263529624292E-15, -46.5));
#115 = CARTESIAN_POINT('', (6., -6., -46.5));
#116 = CARTESIAN_POINT('', (7.64662056991501E-16, -6., -46.5));
#117 = CARTESIAN_POINT('', (-6., -6., -46.5));
#118 = CARTESIAN_POINT('', (-6., 7.10665363310799E-17, -46.5));
#119 = CARTESIAN_POINT('', (-6., 4.04133443718627E-16, -0.600000000000001));
#120 = CARTESIAN_POINT('', (-6., 6., -0.600000000000001));
#121 = CARTESIAN_POINT('', (2.06289642391533E-15, 6., -0.600000000000001));
#122 = CARTESIAN_POINT('', (6., 6., -0.600000000000001));
#123 = CARTESIAN_POINT('', (6., -7.79568388855371E-16, -0.600000000000001));
#124 = CARTESIAN_POINT('', (6., -6., -0.600000000000001));
#125 = CARTESIAN_POINT('', (1.61398267082975E-15, -6., -0.600000000000001));
#126 = CARTESIAN_POINT('', (-6., -6., -0.600000000000001));
#127 = CARTESIAN_POINT('', (-6., 4.04133443718627E-16, -0.600000000000001));
#128 = ADVANCED_FACE('', (#129), #148, .T.);
#129 = FACE_OUTER_BOUND('', #130, .T.);
#130 = EDGE_LOOP('', (#131, #139, #146, #147));
#131 = ORIENTED_EDGE('', *, *, #132, .T.);
#132 = EDGE_CURVE('', #94, #133, #135, .T.);
#133 = VERTEX_POINT('', #134);
#134 = CARTESIAN_POINT('', (-5.4, 3.30654635769785E-16, 0.));
#135 = LINE('', #136, #137);
#136 = CARTESIAN_POINT('', (-6., 4.04133443718627E-16, -0.600000000000001));
#137 = VECTOR('', #138, 0.848528137423857);
#138 = DIRECTION('', (0.6, -7.3478807948842E-17, 0.600000000000001));
#139 = ORIENTED_EDGE('', *, *, #140, .T.);
#140 = EDGE_CURVE('', #133, #133, #141, .T.);
#141 = CIRCLE('', #142, 5.4);
#142 = AXIS2_PLACEMENT_3D('', #143, #144, #145);
#143 = CARTESIAN_POINT('', (1.84574577843932E-15, -2.55351295663786E-15, -1.4791141972894E-31));
#144 = DIRECTION('', (5.31350199692362E-33, 6.12323399573676E-17, -1.));
#145 = DIRECTION('', (-1., 5.34105109705119E-16, 2.73910036535073E-32));
#146 = ORIENTED_EDGE('', *, *, #132, .F.);
#147 = ORIENTED_EDGE('', *, *, #101, .F.);
#148 = (
   BOUNDED_SURFACE ()
   B_SPLINE_SURFACE (1, 2, ((#149, #150, #151, #152, #153, #154, #155, #156, #157), (#158, #159, #160, #161, #162, #163, #164, #165, #166)), .UNSPECIFIED., .F., .T., .U.)
   B_SPLINE_SURFACE_WITH_KNOTS ((2, 2), (3, 2, 2, 2, 3), (0., 1.), (0., 0.25, 0.5, 0.75, 1.), .UNSPECIFIED.)
   GEOMETRIC_REPRESENTATION_ITEM ()
   RATIONAL_B_SPLINE_SURFACE (((1., 0.707106781186548, 1., 0.707106781186548, 1., 0.707106781186548, 1., 0.707106781186548, 1.), (1., 0.707106781186548, 1., 0.707106781186548, 1., 0.707106781186548, 1., 0.707106781186548, 1.)))
   REPRESENTATION_ITEM ('')
   SURFACE ()
);
#149 = CARTESIAN_POINT('', (-6., 2.98258605330568E-15, -0.600000000000001));
#150 = CARTESIAN_POINT('', (-6., 6., -0.599999999999978));
#151 = CARTESIAN_POINT('', (4.68298239692583E-15, 6., -0.599999999999978));
#152 = CARTESIAN_POINT('', (6., 6., -0.599999999999978));
#153 = CARTESIAN_POINT('', (6., -2.69188718366733E-15, -0.600000000000001));
#154 = CARTESIAN_POINT('', (6., -6., -0.600000000000024));
#155 = CARTESIAN_POINT('', (-2.56702760558774E-16, -6., -0.600000000000024));
#156 = CARTESIAN_POINT('', (-6., -6., -0.600000000000024));
#157 = CARTESIAN_POINT('', (-6., 2.98258605330568E-15, -0.600000000000001));
#158 = CARTESIAN_POINT('', (-5.4, 3.30654635769784E-16, -6.56858655152258E-47));
#159 = CARTESIAN_POINT('', (-5.4, 5.4, 2.09832151654154E-14));
#160 = CARTESIAN_POINT('', (4.39925873507718E-15, 5.4, 2.09832151654154E-14));
#161 = CARTESIAN_POINT('', (5.4, 5.4, 2.09832151654154E-14));
#162 = CARTESIAN_POINT('', (5.4, -4.77637127750593E-15, 2.27387988935674E-30));
#163 = CARTESIAN_POINT('', (5.4, -5.40000000000001, -2.09832151654154E-14));
#164 = CARTESIAN_POINT('', (-4.64579066589654E-17, -5.4, -2.09832151654154E-14));
#165 = CARTESIAN_POINT('', (-5.4, -5.4, -2.09832151654154E-14));
#166 = CARTESIAN_POINT('', (-5.4, 3.30654635769784E-16, -6.56858655152258E-47));
#167 = ADVANCED_FACE('', (#168), #171, .T.);
#168 = FACE_OUTER_BOUND('', #169, .T.);
#169 = EDGE_LOOP('', (#170));
#170 = ORIENTED_EDGE('', *, *, #140, .F.);
#171 = B_SPLINE_SURFACE_WITH_KNOTS('', 1, 1, ((#172, #173), (#174, #175)), .UNSPECIFIED., .F., .F., .U., (2, 2), (2, 2), (0.0454545454545454, 0.954545454545454), (0.0454545454545454, 0.954545454545454), .UNSPECIFIED.);
#172 = CARTESIAN_POINT('', (5.4, -5.4, -3.30654635769785E-16));
#173 = CARTESIAN_POINT('', (-5.4, -5.4, -3.30654635769785E-16));
#174 = CARTESIAN_POINT('', (5.4, 5.4, 3.30654635769785E-16));
#175 = CARTESIAN_POINT('', (-5.4, 5.4, 3.30654635769785E-16));
#176 = ADVANCED_FACE('', (#177), #180, .T.);
#177 = FACE_OUTER_BOUND('', #178, .T.);
#178 = EDGE_LOOP('', (#179));
#179 = ORIENTED_EDGE('', *, *, #25, .T.);
#180 = B_SPLINE_SURFACE_WITH_KNOTS('', 1, 1, ((#181, #182), (#183, #184)), .UNSPECIFIED., .F., .F., .U., (2, 2), (2, 2), (0.48552590735533, 0.55457919607942), (0.44542080392058, 0.514474092644669), .UNSPECIFIED.);
#181 = CARTESIAN_POINT('', (-5.85000000000001, 5.85000000000001, -65.));
#182 = CARTESIAN_POINT('', (-5.85000000000001, -5.84999999999998, -65.));
#183 = CARTESIAN_POINT('', (5.84999999999997, 5.85000000000001, -65.));
#184 = CARTESIAN_POINT('', (5.84999999999997, -5.84999999999998, -65.));
#185 = DRAUGHTING_MODEL('', (#193, #317, #365, #370, #375, #380, #385, #390), #404);
#186 = PRESENTATION_STYLE_ASSIGNMENT((#187));
#187 = SURFACE_STYLE_USAGE(.POSITIVE., #188);
#188 = SURFACE_SIDE_STYLE('', (#189));
#189 = SURFACE_STYLE_FILL_AREA(#190);
#190 = FILL_AREA_STYLE('', (#191));
#191 = FILL_AREA_STYLE_COLOUR('', #192);
#192 = COLOUR_RGB('', 0.50196078431373, 0.50196078431373, 0.50196078431373);
#193 = STYLED_ITEM('', (#186), #1);
#194 = MANIFOLD_SOLID_BREP('CUT', #195);
#195 = CLOSED_SHELL('', (#196, #213, #252, #301));
#196 = ADVANCED_FACE('', (#197), #208, .T.);
#197 = FACE_OUTER_BOUND('', #198, .T.);
#198 = EDGE_LOOP('', (#199));
#199 = ORIENTED_EDGE('', *, *, #200, .F.);
#200 = EDGE_CURVE('', #201, #201, #203, .T.);
#201 = VERTEX_POINT('', #202);
#202 = CARTESIAN_POINT('', (-6., 4.3474961369731E-15, -65.));
#203 = CIRCLE('', #204, 6.);
#204 = AXIS2_PLACEMENT_3D('', #205, #206, #207);
#205 = CARTESIAN_POINT('', (4.9960036108132E-16, 3.33066907387547E-15, -65.));
#206 = DIRECTION('', (0., 0., -1.));
#207 = DIRECTION('', (-1., 1.69471177182938E-16, 0.));
#208 = B_SPLINE_SURFACE_WITH_KNOTS('', 1, 1, ((#209, #210), (#211, #212)), .UNSPECIFIED., .F., .F., .U., (2, 2), (2, 2), (0.0454545454545454, 0.954545454545454), (0.0454545454545455, 0.954545454545454), .UNSPECIFIED.);
#209 = CARTESIAN_POINT('', (6., -6., -65.));
#210 = CARTESIAN_POINT('', (-6., -6., -65.));
#211 = CARTESIAN_POINT('', (6., 6., -65.));
#212 = CARTESIAN_POINT('', (-6., 6., -65.));
#213 = ADVANCED_FACE('', (#214), #233, .T.);
#214 = FACE_OUTER_BOUND('', #215, .T.);
#215 = EDGE_LOOP('', (#216, #224, #225, #226));
#216 = ORIENTED_EDGE('', *, *, #217, .F.);
#217 = EDGE_CURVE('', #201, #218, #220, .T.);
#218 = VERTEX_POINT('', #219);
#219 = CARTESIAN_POINT('', (-6., 5.44049340521212E-15, -82.85));
#220 = LINE('', #221, #222);
#221 = CARTESIAN_POINT('', (-6., 4.3474961369731E-15, -65.));
#222 = VECTOR('', #223, 17.85);
#223 = DIRECTION('', (0., 1.09299726823902E-15, -17.85));
#224 = ORIENTED_EDGE('', *, *, #200, .T.);
#225 = ORIENTED_EDGE('', *, *, #217, .T.);
#226 = ORIENTED_EDGE('', *, *, #227, .F.);
#227 = EDGE_CURVE('', #218, #218, #228, .T.);
#228 = CIRCLE('', #229, 6.);
#229 = AXIS2_PLACEMENT_3D('', #230, #231, #232);
#230 = CARTESIAN_POINT('', (1.52655665885959E-15, 5.32907051820075E-15, -82.85));
#231 = DIRECTION('', (0., 0., -1.));
#232 = DIRECTION('', (-1., 1.85704811685615E-17, 0.));
#233 = (
   BOUNDED_SURFACE ()
   B_SPLINE_SURFACE (2, 1, ((#234, #235), (#236, #237), (#238, #239), (#240, #241), (#242, #243), (#244, #245), (#246, #247), (#248, #249), (#250, #251)), .UNSPECIFIED., .T., .F., .U.)
   B_SPLINE_SURFACE_WITH_KNOTS ((3, 2, 2, 2, 3), (2, 2), (0., 9.42477796076938, 18.8495559215388, 28.2743338823081, 37.6991118430775), (0., 1.), .UNSPECIFIED.)
   GEOMETRIC_REPRESENTATION_ITEM ()
   RATIONAL_B_SPLINE_SURFACE (((1., 1.), (0.707106781186548, 0.707106781186548), (1., 1.), (0.707106781186548, 0.707106781186548), (1., 1.), (0.707106781186548, 0.707106781186548), (1., 1.), (0.707106781186548, 0.707106781186548), (1., 1.)))
   REPRESENTATION_ITEM ('')
   SURFACE ()
);
#234 = CARTESIAN_POINT('', (-6., 4.3474961369731E-15, -65.));
#235 = CARTESIAN_POINT('', (-6., 9.45452205024882E-15, -82.85));
#236 = CARTESIAN_POINT('', (-6., 6., -65.));
#237 = CARTESIAN_POINT('', (-6., 6.00000000000001, -82.85));
#238 = CARTESIAN_POINT('', (4.59072476077273E-15, 6., -65.));
#239 = CARTESIAN_POINT('', (4.59072476077273E-15, 6.00000000000001, -82.85));
#240 = CARTESIAN_POINT('', (6., 6., -65.));
#241 = CARTESIAN_POINT('', (6., 6., -82.85));
#242 = CARTESIAN_POINT('', (6., -3.16861884763463E-15, -65.));
#243 = CARTESIAN_POINT('', (6., 1.9384070656411E-15, -82.85));
#244 = CARTESIAN_POINT('', (6., -6., -65.));
#245 = CARTESIAN_POINT('', (6., -6., -82.85));
#246 = CARTESIAN_POINT('', (-2.19060214434658E-15, -6., -65.));
#247 = CARTESIAN_POINT('', (-2.19060214434658E-15, -5.99999999999999, -82.85));
#248 = CARTESIAN_POINT('', (-6., -6., -65.));
#249 = CARTESIAN_POINT('', (-6., -5.99999999999999, -82.85));
#250 = CARTESIAN_POINT('', (-6., 4.3474961369731E-15, -65.));
#251 = CARTESIAN_POINT('', (-6., 9.45452205024882E-15, -82.85));
#252 = ADVANCED_FACE('', (#253), #273, .T.);
#253 = FACE_OUTER_BOUND('', #254, .T.);
#254 = EDGE_LOOP('', (#255, #264, #265, #266));
#255 = ORIENTED_EDGE('', *, *, #256, .F.);
#256 = EDGE_CURVE('', #218, #257, #259, .T.);
#257 = VERTEX_POINT('', #258);
#258 = CARTESIAN_POINT('', (-5.85, 5.44049340521212E-15, -83.));
#259 = CIRCLE('', #260, 0.150000000000008);
#260 = AXIS2_PLACEMENT_3D('', #261, #262, #263);
#261 = CARTESIAN_POINT('', (-5.84999999999999, 5.43130855421852E-15, -82.85));
#262 = DIRECTION('', (-6.12323399573309E-17, -1., -6.12323399573256E-17));
#263 = DIRECTION('', (-1., 6.12323399573309E-17, 0.));
#264 = ORIENTED_EDGE('', *, *, #227, .T.);
#265 = ORIENTED_EDGE('', *, *, #256, .T.);
#266 = ORIENTED_EDGE('', *, *, #267, .F.);
#267 = EDGE_CURVE('', #257, #257, #268, .T.);
#268 = CIRCLE('', #269, 5.85);
#269 = AXIS2_PLACEMENT_3D('', #270, #271, #272);
#270 = CARTESIAN_POINT('', (-1.38777878078145E-15, 4.88498130835069E-15, -83.));
#271 = DIRECTION('', (-7.85113690534594E-31, -8.26789392270074E-15, -1.));
#272 = DIRECTION('', (-1., 9.49593327968259E-17, 0.));
#273 = (
   BOUNDED_SURFACE ()
   B_SPLINE_SURFACE (2, 2, ((#274, #275, #276), (#277, #278, #279), (#280, #281, #282), (#283, #284, #285), (#286, #287, #288), (#289, #290, #291), (#292, #293, #294), (#295, #296, #297), (#298, #299, #300)), .UNSPECIFIED., .T., .F., .U.)
   B_SPLINE_SURFACE_WITH_KNOTS ((3, 2, 2, 2, 3), (3, 3), (0., 0.25, 0.5, 0.75, 1.), (0., 1.), .UNSPECIFIED.)
   GEOMETRIC_REPRESENTATION_ITEM ()
   RATIONAL_B_SPLINE_SURFACE (((1., 0.707106781186562, 1.), (0.707106781186548, 0.50000000000001, 0.707106781186548), (1., 0.707106781186562, 1.), (0.707106781186548, 0.50000000000001, 0.707106781186548), (1., 0.707106781186562, 1.), (0.707106781186548, 0.50000000000001, 0.707106781186548), (1., 0.707106781186562, 1.), (0.707106781186548, 0.50000000000001, 0.707106781186548), (1., 0.707106781186562, 1.)))
   REPRESENTATION_ITEM ('')
   SURFACE ()
);
#274 = CARTESIAN_POINT('', (-6., 5.44049340521212E-15, -82.85));
#275 = CARTESIAN_POINT('', (-5.99999999999999, 5.44967825620572E-15, -83.));
#276 = CARTESIAN_POINT('', (-5.85, 5.44049340521212E-15, -83.));
#277 = CARTESIAN_POINT('', (-6., 6.00000000000001, -82.85));
#278 = CARTESIAN_POINT('', (-5.99999999999998, 6., -83.));
#279 = CARTESIAN_POINT('', (-5.84999999999999, 5.85000000000001, -83.));
#280 = CARTESIAN_POINT('', (6.12781123886181E-15, 6., -82.85));
#281 = CARTESIAN_POINT('', (6.13699608985541E-15, 5.99999999999999, -83.));
#282 = CARTESIAN_POINT('', (6.13699608985542E-15, 5.85, -83.));
#283 = CARTESIAN_POINT('', (6.00000000000001, 6., -82.85));
#284 = CARTESIAN_POINT('', (6., 5.99999999999999, -83.));
#285 = CARTESIAN_POINT('', (5.85000000000001, 5.85, -83.));
#286 = CARTESIAN_POINT('', (6., -3.81752690602358E-15, -82.85));
#287 = CARTESIAN_POINT('', (5.99999999999999, -3.82671175701718E-15, -83.));
#288 = CARTESIAN_POINT('', (5.85, -3.83589660801079E-15, -83.));
#289 = CARTESIAN_POINT('', (6., -6.00000000000001, -82.85));
#290 = CARTESIAN_POINT('', (5.99999999999999, -6., -83.));
#291 = CARTESIAN_POINT('', (5.85, -5.85, -83.));
#292 = CARTESIAN_POINT('', (-2.39542099288548E-15, -6., -82.85));
#293 = CARTESIAN_POINT('', (-2.40460584387908E-15, -5.99999999999999, -83.));
#294 = CARTESIAN_POINT('', (-2.42297554586629E-15, -5.85, -83.));
#295 = CARTESIAN_POINT('', (-6., -6., -82.85));
#296 = CARTESIAN_POINT('', (-5.99999999999999, -5.99999999999999, -83.));
#297 = CARTESIAN_POINT('', (-5.85, -5.85, -83.));
#298 = CARTESIAN_POINT('', (-6., 5.44049340521212E-15, -82.85));
#299 = CARTESIAN_POINT('', (-5.99999999999999, 5.44967825620572E-15, -83.));
#300 = CARTESIAN_POINT('', (-5.85, 5.44049340521212E-15, -83.));
#301 = ADVANCED_FACE('', (#302), #305, .T.);
#302 = FACE_OUTER_BOUND('', #303, .T.);
#303 = EDGE_LOOP('', (#304));
#304 = ORIENTED_EDGE('', *, *, #267, .T.);
#305 = B_SPLINE_SURFACE_WITH_KNOTS('', 1, 1, ((#306, #307), (#308, #309)), .UNSPECIFIED., .F., .F., .U., (2, 2), (2, 2), (0.0454545454545454, 0.954545454545454), (0.0454545454545453, 0.954545454545454), .UNSPECIFIED.);
#306 = CARTESIAN_POINT('', (5.85, -5.85, -83.));
#307 = CARTESIAN_POINT('', (5.85, 5.85000000000001, -83.));
#308 = CARTESIAN_POINT('', (-5.85, -5.85, -83.));
#309 = CARTESIAN_POINT('', (-5.85, 5.85000000000001, -83.));
#310 = PRESENTATION_STYLE_ASSIGNMENT((#311));
#311 = SURFACE_STYLE_USAGE(.POSITIVE., #312);
#312 = SURFACE_SIDE_STYLE('', (#313));
#313 = SURFACE_STYLE_FILL_AREA(#314);
#314 = FILL_AREA_STYLE('', (#315));
#315 = FILL_AREA_STYLE_COLOUR('', #316);
#316 = COLOUR_RGB('', 0.8, 0.8, 0.8);
#317 = STYLED_ITEM('', (#310), #194);
#318 = TRIMMED_CURVE('cutting part line', #319, (#323), (#324), .T., .CARTESIAN.);
#319 = LINE('', #320, #321);
#320 = CARTESIAN_POINT('', (-2.08166817117217E-16, 0., -83.));
#321 = VECTOR('', #322, 5.85);
#322 = DIRECTION('', (5.85, 0., 0.));
#323 = CARTESIAN_POINT('', (-2.08166817117217E-16, 0., -83.));
#324 = CARTESIAN_POINT('', (5.85, 0., -83.));
#325 = TRIMMED_CURVE('cutting part line', #326, (#331), (#332), .T., .CARTESIAN.);
#326 = CIRCLE('', #327, 0.150000000000002);
#327 = AXIS2_PLACEMENT_3D('', #328, #329, #330);
#328 = CARTESIAN_POINT('', (5.85, -2.94211024955026E-17, -82.85));
#329 = DIRECTION('', (5.55111512312631E-16, -1., 1.85037170770804E-16));
#330 = DIRECTION('', (-1.77635683940018E-14, -1.85037170770814E-16, -1.));
#331 = CARTESIAN_POINT('', (5.85, -5.71766781111251E-17, -83.));
#332 = CARTESIAN_POINT('', (6.00000000000001, 5.3845624351393E-17, -82.85));
#333 = TRIMMED_CURVE('cutting part line', #334, (#338), (#339), .T., .CARTESIAN.);
#334 = LINE('', #335, #336);
#335 = CARTESIAN_POINT('', (6., 5.10624808849269E-15, -82.85));
#336 = VECTOR('', #337, 17.85);
#337 = DIRECTION('', (0., -5.10624808849269E-15, 17.85));
#338 = CARTESIAN_POINT('', (6., 5.10624808849269E-15, -82.85));
#339 = CARTESIAN_POINT('', (6., 0., -65.));
#340 = TRIMMED_CURVE('cutting part line', #341, (#345), (#346), .T., .CARTESIAN.);
#341 = LINE('', #342, #343);
#342 = CARTESIAN_POINT('', (6., 0., -65.));
#343 = VECTOR('', #344, 6.);
#344 = DIRECTION('', (-6., 0., 0.));
#345 = CARTESIAN_POINT('', (6., 0., -65.));
#346 = CARTESIAN_POINT('', (1.38777878078145E-17, 0., -65.));
#347 = TRIMMED_CURVE('cutting part line', #348, (#352), (#353), .T., .CARTESIAN.);
#348 = LINE('', #349, #350);
#349 = CARTESIAN_POINT('', (0., 0., -65.));
#350 = VECTOR('', #351, 18.);
#351 = DIRECTION('', (0., 0., -18.));
#352 = CARTESIAN_POINT('', (0., 0., -65.));
#353 = CARTESIAN_POINT('', (0., 0., -83.));
#354 = COMPOSITE_CURVE('cutting part line', (#355, #356, #357, #358, #359), .U.);
#355 = COMPOSITE_CURVE_SEGMENT(.CONTINUOUS., .T., #318);
#356 = COMPOSITE_CURVE_SEGMENT(.CONTINUOUS., .T., #325);
#357 = COMPOSITE_CURVE_SEGMENT(.CONTINUOUS., .T., #333);
#358 = COMPOSITE_CURVE_SEGMENT(.CONTINUOUS., .T., #340);
#359 = COMPOSITE_CURVE_SEGMENT(.CONTINUOUS., .T., #347);
#360 = GEOMETRIC_SET('', (#354, #403));
#361 = PRESENTATION_STYLE_ASSIGNMENT((#362));
#362 = CURVE_STYLE('', #364, POSITIVE_LENGTH_MEASURE(1.E-6), #363);
#363 = COLOUR_RGB('', 0., 0., 1.);
#364 = DRAUGHTING_PRE_DEFINED_CURVE_FONT('continuous');
#365 = STYLED_ITEM('', (#361), #354);
#366 = PRESENTATION_STYLE_ASSIGNMENT((#367));
#367 = CURVE_STYLE('', #369, POSITIVE_LENGTH_MEASURE(1.E-6), #368);
#368 = COLOUR_RGB('', 0., 0., 1.);
#369 = DRAUGHTING_PRE_DEFINED_CURVE_FONT('continuous');
#370 = OVER_RIDING_STYLED_ITEM('', (#366), #318, #365);
#371 = PRESENTATION_STYLE_ASSIGNMENT((#372));
#372 = CURVE_STYLE('', #374, POSITIVE_LENGTH_MEASURE(1.E-6), #373);
#373 = COLOUR_RGB('', 0., 0., 1.);
#374 = DRAUGHTING_PRE_DEFINED_CURVE_FONT('continuous');
#375 = OVER_RIDING_STYLED_ITEM('', (#371), #325, #365);
#376 = PRESENTATION_STYLE_ASSIGNMENT((#377));
#377 = CURVE_STYLE('', #379, POSITIVE_LENGTH_MEASURE(1.E-6), #378);
#378 = COLOUR_RGB('', 0., 0., 1.);
#379 = DRAUGHTING_PRE_DEFINED_CURVE_FONT('continuous');
#380 = OVER_RIDING_STYLED_ITEM('', (#376), #333, #365);
#381 = PRESENTATION_STYLE_ASSIGNMENT((#382));
#382 = CURVE_STYLE('', #384, POSITIVE_LENGTH_MEASURE(1.E-6), #383);
#383 = COLOUR_RGB('', 0., 0., 1.);
#384 = DRAUGHTING_PRE_DEFINED_CURVE_FONT('continuous');
#385 = OVER_RIDING_STYLED_ITEM('', (#381), #340, #365);
#386 = PRESENTATION_STYLE_ASSIGNMENT((#387));
#387 = CURVE_STYLE('', #389, POSITIVE_LENGTH_MEASURE(1.E-6), #388);
#388 = COLOUR_RGB('', 0., 0., 1.);
#389 = DRAUGHTING_PRE_DEFINED_CURVE_FONT('continuous');
#390 = OVER_RIDING_STYLED_ITEM('', (#386), #347, #365);
#391 = AXIS2_PLACEMENT_3D('MCS', #392, #393, #394);
#392 = CARTESIAN_POINT('', (0., 0., -45.));
#393 = DIRECTION('', (0., 0., 1.));
#394 = DIRECTION('', (1., 0., 0.));
#395 = AXIS2_PLACEMENT_3D('PCS', #396, #397, #398);
#396 = CARTESIAN_POINT('', (0., 0., 0.));
#397 = DIRECTION('', (0., 0., 1.));
#398 = DIRECTION('', (1., 0., 0.));
#399 = AXIS2_PLACEMENT_3D('CIP', #400, #401, #402);
#400 = CARTESIAN_POINT('', (0., 0., -83.));
#401 = DIRECTION('', (0., 0., 1.));
#402 = DIRECTION('', (1., 0., 0.));
#403 = CARTESIAN_POINT('CRP', (6., 0., -83.));
#404 = (
   GEOMETRIC_REPRESENTATION_CONTEXT (3)
   GLOBAL_UNCERTAINTY_ASSIGNED_CONTEXT ((#406))
   GLOBAL_UNIT_ASSIGNED_CONTEXT ((#405, #407, #408))
   REPRESENTATION_CONTEXT ('', '3D')
);
#405 = (
   LENGTH_UNIT ()
   NAMED_UNIT (*)
   SI_UNIT (.MILLI., .METRE.)
);
#406 = UNCERTAINTY_MEASURE_WITH_UNIT(LENGTH_MEASURE(1.E-6), #405, 'DISTANCE_ACCURACY_VALUE', '');
#407 = (
   NAMED_UNIT (*)
   SI_UNIT ($, .STERADIAN.)
   SOLID_ANGLE_UNIT ()
);
#408 = (
   NAMED_UNIT (*)
   PLANE_ANGLE_UNIT ()
   SI_UNIT ($, .RADIAN.)
);
#409 = SHAPE_REPRESENTATION('', (), #404);
#410 = PRODUCT_DEFINITION_SHAPE('', '', #411);
#411 = PRODUCT_DEFINITION('', '', #414, #418);
#412 = APPLICATION_CONTEXT('configuration controlled 3D designs of mechanical parts and assemblies');
#413 = APPLICATION_PROTOCOL_DEFINITION('International Standard', 'automotive_design', 2002, #412);
#414 = PRODUCT_DEFINITION_FORMATION_WITH_SPECIFIED_SOURCE('', '', #415, .NOT_KNOWN.);
#415 = PRODUCT('product-name', '2P121-1200-NC       H10F', '', (#416));
#416 = PRODUCT_CONTEXT('', #412, 'mechanical');
#417 = PRODUCT_RELATED_PRODUCT_CATEGORY('detail', '', (#415));
#418 = PRODUCT_DEFINITION_CONTEXT('part definition', #412, 'design');
#419 = SHAPE_DEFINITION_REPRESENTATION(#410, #409);
#420 = CONSTRUCTIVE_GEOMETRY_REPRESENTATION('supplemental geometry', (#391, #395, #399), #404);
#421 = CONSTRUCTIVE_GEOMETRY_REPRESENTATION_RELATIONSHIP('', '', #409, #420);
#422 = SHAPE_REPRESENTATION_RELATIONSHIP('', '', #409, #423);
#423 = SHAPE_REPRESENTATION('', (#360), #404);
#424 = SHAPE_REPRESENTATION_RELATIONSHIP('', '', #409, #425);
#425 = ADVANCED_BREP_SHAPE_REPRESENTATION('', (#1, #194), #404);
ENDSEC;
END-ISO-10303-21;
